ISO-10303-21;
HEADER;
FILE_DESCRIPTION (( 'STEP AP214' ),
    '1' );
FILE_NAME ('86064.STEP',
    '2023-06-23T16:09:50',
    ( '' ),
    ( '' ),
    'SwSTEP 2.0',
    'SolidWorks 2023',
    '' );
FILE_SCHEMA (( 'AUTOMOTIVE_DESIGN' ));
ENDSEC;

DATA;
#1 = VECTOR ( 'NONE', #301, 39.37007874015748143 ) ;
#2 = CIRCLE ( 'NONE', #217, 0.1250000000000000000 ) ;
#3 =( NAMED_UNIT ( * ) SI_UNIT ( $, .STERADIAN. ) SOLID_ANGLE_UNIT ( ) );
#4 = LENGTH_MEASURE_WITH_UNIT ( LENGTH_MEASURE( 0.02539999999999999897 ), #240 );
#5 = AXIS2_PLACEMENT_3D ( 'NONE', #156, #134, #111 ) ;
#6 = ORIENTED_EDGE ( 'NONE', *, *, #178, .T. ) ;
#7 =( CONVERSION_BASED_UNIT ( 'INCH', #265 ) LENGTH_UNIT ( ) NAMED_UNIT ( #264 ) );
#8 =( GEOMETRIC_REPRESENTATION_CONTEXT ( 3 ) GLOBAL_UNCERTAINTY_ASSIGNED_CONTEXT ( ( #204 ) ) GLOBAL_UNIT_ASSIGNED_CONTEXT ( ( #27, #121, #3 ) ) REPRESENTATION_CONTEXT ( 'NONE', 'WORKASPACE' ) );
#9 = CIRCLE ( 'NONE', #300, 0.1250000000000000000 ) ;
#10 = ADVANCED_FACE ( 'NONE', ( #197 ), #182, .F. ) ;
#11 = ORIENTED_EDGE ( 'NONE', *, *, #76, .T. ) ;
#12 = DIRECTION ( 'NONE',  ( 0.000000000000000000, -1.000000000000000000, -0.000000000000000000 ) ) ;
#13 = SURFACE_SIDE_STYLE ('',( #181 ) ) ;
#14 = AXIS2_PLACEMENT_3D ( 'NONE', #105, #135, #226 ) ;
#15 = MECHANICAL_DESIGN_GEOMETRIC_PRESENTATION_REPRESENTATION (  '', ( #304 ), #41 ) ;
#16 = DIRECTION ( 'NONE',  ( -0.000000000000000000, -1.000000000000000000, -0.000000000000000000 ) ) ;
#17 =( CONVERSION_BASED_UNIT ( 'INCH', #24 ) LENGTH_UNIT ( ) NAMED_UNIT ( #261 ) );
#18 = PRODUCT_DEFINITION_CONTEXT ( 'detailed design', #142, 'design' ) ;
#19 = LINE ( 'NONE', #129, #1 ) ;
#20 = PRESENTATION_STYLE_ASSIGNMENT (( #48 ) ) ;
#21 = DIRECTION ( 'NONE',  ( 0.000000000000000000, 0.000000000000000000, -1.000000000000000000 ) ) ;
#22 = MECHANICAL_DESIGN_GEOMETRIC_PRESENTATION_REPRESENTATION (  '', ( #101 ), #295 ) ;
#23 = CARTESIAN_POINT ( 'NONE',  ( 0.1250000000000000000, 4.000000000000000000, 1.530808498934191201E-17 ) ) ;
#24 = LENGTH_MEASURE_WITH_UNIT ( LENGTH_MEASURE( 0.02539999999999999897 ), #153 );
#25 = ORIENTED_EDGE ( 'NONE', *, *, #56, .F. ) ;
#26 = EDGE_CURVE ( 'NONE', #219, #36, #201, .T. ) ;
#27 =( CONVERSION_BASED_UNIT ( 'INCH', #206 ) LENGTH_UNIT ( ) NAMED_UNIT ( #165 ) );
#28 = MECHANICAL_DESIGN_GEOMETRIC_PRESENTATION_REPRESENTATION (  '', ( #229 ), #213 ) ;
#29 = DIRECTION ( 'NONE',  ( -0.000000000000000000, -1.000000000000000000, -0.000000000000000000 ) ) ;
#30 = VERTEX_POINT ( 'NONE', #284 ) ;
#31 = AXIS2_PLACEMENT_3D ( 'NONE', #275, #220, #131 ) ;
#32 = ORIENTED_EDGE ( 'NONE', *, *, #207, .F. ) ;
#33 = FILL_AREA_STYLE_COLOUR ( '', #124 ) ;
#34 =( NAMED_UNIT ( * ) PLANE_ANGLE_UNIT ( ) SI_UNIT ( $, .RADIAN. ) );
#35 = AXIS2_PLACEMENT_3D ( 'NONE', #172, #205, #21 ) ;
#36 = VERTEX_POINT ( 'NONE', #228 ) ;
#37 = SURFACE_SIDE_STYLE ('',( #222 ) ) ;
#38 = EDGE_CURVE ( 'NONE', #271, #151, #106, .T. ) ;
#39 = SURFACE_STYLE_FILL_AREA ( #252 ) ;
#40 = MECHANICAL_DESIGN_GEOMETRIC_PRESENTATION_REPRESENTATION (  '', ( #133 ), #8 ) ;
#41 =( GEOMETRIC_REPRESENTATION_CONTEXT ( 3 ) GLOBAL_UNCERTAINTY_ASSIGNED_CONTEXT ( ( #200 ) ) GLOBAL_UNIT_ASSIGNED_CONTEXT ( ( #161, #152, #109 ) ) REPRESENTATION_CONTEXT ( 'NONE', 'WORKASPACE' ) );
#42 = CARTESIAN_POINT ( 'NONE',  ( 1.530808498934191509E-17, 0.000000000000000000, 0.1250000000000000000 ) ) ;
#43 =( NAMED_UNIT ( * ) SI_UNIT ( $, .STERADIAN. ) SOLID_ANGLE_UNIT ( ) );
#44 = FILL_AREA_STYLE_COLOUR ( '', #202 ) ;
#45 = CYLINDRICAL_SURFACE ( 'NONE', #14, 0.1249999999999999306 ) ;
#46 = CARTESIAN_POINT ( 'NONE',  ( 0.1250000000000000000, 2.000000000000000000, 1.530808498934191201E-17 ) ) ;
#47 =( GEOMETRIC_REPRESENTATION_CONTEXT ( 3 ) GLOBAL_UNCERTAINTY_ASSIGNED_CONTEXT ( ( #270 ) ) GLOBAL_UNIT_ASSIGNED_CONTEXT ( ( #17, #277, #126 ) ) REPRESENTATION_CONTEXT ( 'NONE', 'WORKASPACE' ) );
#48 = SURFACE_STYLE_USAGE ( .BOTH. , #285 ) ;
#49 = CARTESIAN_POINT ( 'NONE',  ( 0.1250000000000000555, 4.000000000000000000, 1.530808498934190893E-17 ) ) ;
#50 = ORIENTED_EDGE ( 'NONE', *, *, #79, .T. ) ;
#51 = SURFACE_SIDE_STYLE ('',( #237 ) ) ;
#52 = PRESENTATION_LAYER_ASSIGNMENT (  '', '', ( #133 ) ) ;
#53 = AXIS2_PLACEMENT_3D ( 'NONE', #208, #29, #143 ) ;
#54 = APPLICATION_CONTEXT ( 'automotive_design' ) ;
#55 =( NAMED_UNIT ( * ) PLANE_ANGLE_UNIT ( ) SI_UNIT ( $, .RADIAN. ) );
#56 = EDGE_CURVE ( 'NONE', #151, #271, #286, .T. ) ;
#57 = COLOUR_RGB ( '',1.000000000000000000, 0.000000000000000000, 0.000000000000000000 ) ;
#58 = APPLICATION_PROTOCOL_DEFINITION ( 'draft international standard', 'automotive_design', 1998, #54 ) ;
#59 = ORIENTED_EDGE ( 'NONE', *, *, #26, .T. ) ;
#60 = DIRECTION ( 'NONE',  ( 0.000000000000000000, 1.000000000000000000, 0.000000000000000000 ) ) ;
#61 = LINE ( 'NONE', #42, #96 ) ;
#62 = CARTESIAN_POINT ( 'NONE',  ( 2.343374660409152512E-34, 2.000000000000000000, 0.000000000000000000 ) ) ;
#63 = FILL_AREA_STYLE_COLOUR ( '', #255 ) ;
#64 = CARTESIAN_POINT ( 'NONE',  ( 1.224646799147353207E-16, 4.000000000000000000, 0.000000000000000000 ) ) ;
#65 = AXIS2_PLACEMENT_3D ( 'NONE', #262, #289, #239 ) ;
#66 = DIRECTION ( 'NONE',  ( -0.000000000000000000, -1.000000000000000000, -0.000000000000000000 ) ) ;
#67 = DIRECTION ( 'NONE',  ( -0.000000000000000000, -1.000000000000000000, -0.000000000000000000 ) ) ;
#68 =( NAMED_UNIT ( * ) PLANE_ANGLE_UNIT ( ) SI_UNIT ( $, .RADIAN. ) );
#69 = CARTESIAN_POINT ( 'NONE',  ( 0.000000000000000000, 2.000000000000000000, -0.1250000000000000000 ) ) ;
#70 = EDGE_CURVE ( 'NONE', #198, #151, #19, .T. ) ;
#71 = AXIS2_PLACEMENT_3D ( 'NONE', #150, #102, #146 ) ;
#72 = ORIENTED_EDGE ( 'NONE', *, *, #26, .F. ) ;
#73 = CARTESIAN_POINT ( 'NONE',  ( 1.224646799147353207E-16, 4.000000000000000000, 0.000000000000000000 ) ) ;
#74 = LINE ( 'NONE', #49, #196 ) ;
#75 = SURFACE_STYLE_USAGE ( .BOTH. , #51 ) ;
#76 = EDGE_CURVE ( 'NONE', #224, #80, #139, .T. ) ;
#77 = DIRECTION ( 'NONE',  ( 0.000000000000000000, -0.000000000000000000, 1.000000000000000000 ) ) ;
#78 = ORIENTED_EDGE ( 'NONE', *, *, #207, .T. ) ;
#79 = EDGE_CURVE ( 'NONE', #30, #271, #61, .T. ) ;
#80 = VERTEX_POINT ( 'NONE', #188 ) ;
#81 = FACE_OUTER_BOUND ( 'NONE', #122, .T. ) ;
#82 = SURFACE_STYLE_USAGE ( .BOTH. , #37 ) ;
#83 = COLOUR_RGB ( '',0.7921568627450980005, 0.8196078431372548767, 0.9333333333333333481 ) ;
#84 = SURFACE_STYLE_FILL_AREA ( #299 ) ;
#85 = PRESENTATION_STYLE_ASSIGNMENT (( #110 ) ) ;
#86 = DIRECTION ( 'NONE',  ( 6.123233995736766036E-17, 1.000000000000000000, -0.000000000000000000 ) ) ;
#87 = DIRECTION ( 'NONE',  ( -1.000000000000000000, 0.000000000000000000, 0.000000000000000000 ) ) ;
#88 = SURFACE_SIDE_STYLE ('',( #84 ) ) ;
#89 = ADVANCED_FACE ( 'NONE', ( #185 ), #45, .T. ) ;
#90 = PRODUCT_DEFINITION_FORMATION_WITH_SPECIFIED_SOURCE ( 'ANY', '', #268, .NOT_KNOWN. ) ;
#91 = FILL_AREA_STYLE_COLOUR ( '', #83 ) ;
#92 = DIRECTION ( 'NONE',  ( -1.000000000000000000, 6.123233995736766036E-17, 0.000000000000000000 ) ) ;
#93 = CARTESIAN_POINT ( 'NONE',  ( 1.530808498934191509E-17, 0.000000000000000000, 0.1250000000000000000 ) ) ;
#94 = LENGTH_MEASURE_WITH_UNIT ( LENGTH_MEASURE( 0.02539999999999999897 ), #253 );
#95 = ADVANCED_FACE ( 'NONE', ( #302 ), #279, .T. ) ;
#96 = VECTOR ( 'NONE', #66, 39.37007874015748143 ) ;
#97 = STYLED_ITEM ( 'NONE', ( #159 ), #164 ) ;
#98 = PRESENTATION_STYLE_ASSIGNMENT (( #75 ) ) ;
#99 = FILL_AREA_STYLE ('',( #91 ) ) ;
#100 = DIMENSIONAL_EXPONENTS ( 1.000000000000000000, 0.000000000000000000, 0.000000000000000000, 0.000000000000000000, 0.000000000000000000, 0.000000000000000000, 0.000000000000000000 ) ;
#101 = STYLED_ITEM ( 'NONE', ( #98 ), #266 ) ;
#102 = DIRECTION ( 'NONE',  ( 0.000000000000000000, 0.000000000000000000, 1.000000000000000000 ) ) ;
#103 = ORIENTED_EDGE ( 'NONE', *, *, #38, .T. ) ;
#104 = ADVANCED_FACE ( 'NONE', ( #81 ), #180, .T. ) ;
#105 = CARTESIAN_POINT ( 'NONE',  ( 1.224646799147353207E-16, 4.000000000000000000, 0.000000000000000000 ) ) ;
#106 = CIRCLE ( 'NONE', #174, 0.1250000000000000000 ) ;
#107 = STYLED_ITEM ( 'NONE', ( #309 ), #132 ) ;
#108 = CARTESIAN_POINT ( 'NONE',  ( 0.000000000000000000, 2.000000000000000000, 0.000000000000000000 ) ) ;
#109 =( NAMED_UNIT ( * ) SI_UNIT ( $, .STERADIAN. ) SOLID_ANGLE_UNIT ( ) );
#110 = SURFACE_STYLE_USAGE ( .BOTH. , #13 ) ;
#111 = DIRECTION ( 'NONE',  ( 0.000000000000000000, 0.000000000000000000, -1.000000000000000000 ) ) ;
#112 = PRESENTATION_LAYER_ASSIGNMENT (  '', '', ( #229 ) ) ;
#113 = PLANE ( 'NONE',  #245 ) ;
#114 = CARTESIAN_POINT ( 'NONE',  ( -0.1249999999999998057, 4.000000000000000000, 0.000000000000000000 ) ) ;
#115 = DIRECTION ( 'NONE',  ( -1.000000000000000000, 0.000000000000000000, 0.000000000000000000 ) ) ;
#116 = EDGE_LOOP ( 'NONE', ( #241, #59 ) ) ;
#117 = UNCERTAINTY_MEASURE_WITH_UNIT (LENGTH_MEASURE( 1.000000000000000082E-05 ), #7, 'distance_accuracy_value', 'NONE');
#118 = MECHANICAL_DESIGN_GEOMETRIC_PRESENTATION_REPRESENTATION (  '', ( #107 ), #47 ) ;
#119 =( CONVERSION_BASED_UNIT ( 'INCH', #141 ) LENGTH_UNIT ( ) NAMED_UNIT ( #194 ) );
#120 = ADVANCED_FACE ( 'NONE', ( #230 ), #247, .T. ) ;
#121 =( NAMED_UNIT ( * ) PLANE_ANGLE_UNIT ( ) SI_UNIT ( $, .RADIAN. ) );
#122 = EDGE_LOOP ( 'NONE', ( #267, #296, #147, #246 ) ) ;
#123 = SURFACE_STYLE_FILL_AREA ( #292 ) ;
#124 = COLOUR_RGB ( '',1.000000000000000000, 0.000000000000000000, 0.000000000000000000 ) ;
#125 = PRESENTATION_LAYER_ASSIGNMENT (  '', '', ( #97 ) ) ;
#126 =( NAMED_UNIT ( * ) SI_UNIT ( $, .STERADIAN. ) SOLID_ANGLE_UNIT ( ) );
#127 = ORIENTED_EDGE ( 'NONE', *, *, #178, .F. ) ;
#128 = FACE_OUTER_BOUND ( 'NONE', #244, .T. ) ;
#129 = CARTESIAN_POINT ( 'NONE',  ( 0.000000000000000000, 0.000000000000000000, -0.1250000000000000000 ) ) ;
#130 = DIRECTION ( 'NONE',  ( 0.000000000000000000, 0.000000000000000000, -1.000000000000000000 ) ) ;
#131 = DIRECTION ( 'NONE',  ( 1.000000000000000000, -6.123233995736766036E-17, 0.000000000000000000 ) ) ;
#132 = ADVANCED_FACE ( 'NONE', ( #128 ), #273, .T. ) ;
#133 = STYLED_ITEM ( 'NONE', ( #85 ), #95 ) ;
#134 = DIRECTION ( 'NONE',  ( -0.000000000000000000, -1.000000000000000000, -0.000000000000000000 ) ) ;
#135 = DIRECTION ( 'NONE',  ( 6.123233995736766036E-17, 1.000000000000000000, -0.000000000000000000 ) ) ;
#136 = CYLINDRICAL_SURFACE ( 'NONE', #5, 0.1250000000000000000 ) ;
#137 = CIRCLE ( 'NONE', #65, 0.1249999999999998751 ) ;
#138 = PRODUCT_DEFINITION ( 'UNKNOWN', '', #90, #18 ) ;
#139 = CIRCLE ( 'NONE', #227, 0.1250000000000000000 ) ;
#140 =( GEOMETRIC_REPRESENTATION_CONTEXT ( 3 ) GLOBAL_UNCERTAINTY_ASSIGNED_CONTEXT ( ( #149 ) ) GLOBAL_UNIT_ASSIGNED_CONTEXT ( ( #212, #193, #170 ) ) REPRESENTATION_CONTEXT ( 'NONE', 'WORKASPACE' ) );
#141 = LENGTH_MEASURE_WITH_UNIT ( LENGTH_MEASURE( 0.02539999999999999897 ), #167 );
#142 = APPLICATION_CONTEXT ( 'automotive_design' ) ;
#143 = DIRECTION ( 'NONE',  ( 0.000000000000000000, 0.000000000000000000, -1.000000000000000000 ) ) ;
#144 = ORIENTED_EDGE ( 'NONE', *, *, #290, .T. ) ;
#145 = ORIENTED_EDGE ( 'NONE', *, *, #248, .F. ) ;
#146 = DIRECTION ( 'NONE',  ( 1.000000000000000000, 0.000000000000000000, 0.000000000000000000 ) ) ;
#147 = ORIENTED_EDGE ( 'NONE', *, *, #70, .T. ) ;
#148 = PRODUCT_RELATED_PRODUCT_CATEGORY ( 'part', '', ( #268 ) ) ;
#149 = UNCERTAINTY_MEASURE_WITH_UNIT (LENGTH_MEASURE( 1.000000000000000082E-05 ), #212, 'distance_accuracy_value', 'NONE');
#150 = CARTESIAN_POINT ( 'NONE',  ( 0.000000000000000000, 0.000000000000000000, 0.000000000000000000 ) ) ;
#151 = VERTEX_POINT ( 'NONE', #155 ) ;
#152 =( NAMED_UNIT ( * ) PLANE_ANGLE_UNIT ( ) SI_UNIT ( $, .RADIAN. ) );
#153 =( LENGTH_UNIT ( ) NAMED_UNIT ( * ) SI_UNIT ( $, .METRE. ) );
#154 = LINE ( 'NONE', #114, #183 ) ;
#155 = CARTESIAN_POINT ( 'NONE',  ( 0.000000000000000000, 0.000000000000000000, -0.1250000000000000000 ) ) ;
#156 = CARTESIAN_POINT ( 'NONE',  ( 0.000000000000000000, 0.000000000000000000, 0.000000000000000000 ) ) ;
#157 = CLOSED_SHELL ( 'NONE', ( #232, #95, #104, #132 ) ) ;
#158 = AXIS2_PLACEMENT_3D ( 'NONE', #203, #236, #187 ) ;
#159 = PRESENTATION_STYLE_ASSIGNMENT (( #280 ) ) ;
#160 = UNCERTAINTY_MEASURE_WITH_UNIT (LENGTH_MEASURE( 1.000000000000000082E-05 ), #189, 'distance_accuracy_value', 'NONE');
#161 =( CONVERSION_BASED_UNIT ( 'INCH', #94 ) LENGTH_UNIT ( ) NAMED_UNIT ( #169 ) );
#162 = ADVANCED_BREP_SHAPE_REPRESENTATION ( '86064', ( #164, #266, #71 ), #140 ) ;
#163 = DIRECTION ( 'NONE',  ( 6.123233995736766036E-17, 1.000000000000000000, -0.000000000000000000 ) ) ;
#164 = MANIFOLD_SOLID_BREP ( 'Revolve - Cutting Edge', #157 ) ;
#165 = DIMENSIONAL_EXPONENTS ( 1.000000000000000000, 0.000000000000000000, 0.000000000000000000, 0.000000000000000000, 0.000000000000000000, 0.000000000000000000, 0.000000000000000000 ) ;
#166 = CARTESIAN_POINT ( 'NONE',  ( 0.000000000000000000, 2.000000000000000000, 0.000000000000000000 ) ) ;
#167 =( LENGTH_UNIT ( ) NAMED_UNIT ( * ) SI_UNIT ( $, .METRE. ) );
#168 = PRESENTATION_STYLE_ASSIGNMENT (( #215 ) ) ;
#169 = DIMENSIONAL_EXPONENTS ( 1.000000000000000000, 0.000000000000000000, 0.000000000000000000, 0.000000000000000000, 0.000000000000000000, 0.000000000000000000, 0.000000000000000000 ) ;
#170 =( NAMED_UNIT ( * ) SI_UNIT ( $, .STERADIAN. ) SOLID_ANGLE_UNIT ( ) );
#171 = PRODUCT_DEFINITION_SHAPE ( 'NONE', 'NONE',  #138 ) ;
#172 = CARTESIAN_POINT ( 'NONE',  ( 0.000000000000000000, 0.000000000000000000, 0.000000000000000000 ) ) ;
#173 = EDGE_LOOP ( 'NONE', ( #127, #179 ) ) ;
#174 = AXIS2_PLACEMENT_3D ( 'NONE', #250, #16, #234 ) ;
#175 = PRESENTATION_LAYER_ASSIGNMENT (  '', '', ( #101 ) ) ;
#176 = ORIENTED_EDGE ( 'NONE', *, *, #307, .F. ) ;
#177 = UNCERTAINTY_MEASURE_WITH_UNIT (LENGTH_MEASURE( 1.000000000000000082E-05 ), #119, 'distance_accuracy_value', 'NONE');
#178 = EDGE_CURVE ( 'NONE', #80, #224, #9, .T. ) ;
#179 = ORIENTED_EDGE ( 'NONE', *, *, #76, .F. ) ;
#180 = CYLINDRICAL_SURFACE ( 'NONE', #158, 0.1250000000000000000 ) ;
#181 = SURFACE_STYLE_FILL_AREA ( #254 ) ;
#182 = PLANE ( 'NONE',  #31 ) ;
#183 = VECTOR ( 'NONE', #306, 39.37007874015748143 ) ;
#184 = DIRECTION ( 'NONE',  ( -1.000000000000000000, 0.000000000000000000, 0.000000000000000000 ) ) ;
#185 = FACE_OUTER_BOUND ( 'NONE', #260, .T. ) ;
#186 = FACE_OUTER_BOUND ( 'NONE', #173, .T. ) ;
#187 = DIRECTION ( 'NONE',  ( 0.000000000000000000, 0.000000000000000000, -1.000000000000000000 ) ) ;
#188 = CARTESIAN_POINT ( 'NONE',  ( -0.1250000000000000000, 2.000000000000000000, 0.000000000000000000 ) ) ;
#189 =( CONVERSION_BASED_UNIT ( 'INCH', #231 ) LENGTH_UNIT ( ) NAMED_UNIT ( #216 ) );
#190 = ADVANCED_FACE ( 'NONE', ( #186 ), #113, .F. ) ;
#191 = DIRECTION ( 'NONE',  ( 6.123233995736766036E-17, 1.000000000000000000, -0.000000000000000000 ) ) ;
#192 = AXIS2_PLACEMENT_3D ( 'NONE', #225, #12, #130 ) ;
#193 =( NAMED_UNIT ( * ) PLANE_ANGLE_UNIT ( ) SI_UNIT ( $, .RADIAN. ) );
#194 = DIMENSIONAL_EXPONENTS ( 1.000000000000000000, 0.000000000000000000, 0.000000000000000000, 0.000000000000000000, 0.000000000000000000, 0.000000000000000000, 0.000000000000000000 ) ;
#195 = ORIENTED_EDGE ( 'NONE', *, *, #272, .F. ) ;
#196 = VECTOR ( 'NONE', #163, 39.37007874015748143 ) ;
#197 = FACE_OUTER_BOUND ( 'NONE', #116, .T. ) ;
#198 = VERTEX_POINT ( 'NONE', #69 ) ;
#199 = CARTESIAN_POINT ( 'NONE',  ( 0.000000000000000000, 2.000000000000000000, 0.000000000000000000 ) ) ;
#200 = UNCERTAINTY_MEASURE_WITH_UNIT (LENGTH_MEASURE( 1.000000000000000082E-05 ), #161, 'distance_accuracy_value', 'NONE');
#201 = CIRCLE ( 'NONE', #242, 0.1249999999999998751 ) ;
#202 = COLOUR_RGB ( '',0.7921568627450980005, 0.8196078431372548767, 0.9333333333333333481 ) ;
#203 = CARTESIAN_POINT ( 'NONE',  ( 0.000000000000000000, 0.000000000000000000, 0.000000000000000000 ) ) ;
#204 = UNCERTAINTY_MEASURE_WITH_UNIT (LENGTH_MEASURE( 1.000000000000000082E-05 ), #27, 'distance_accuracy_value', 'NONE');
#205 = DIRECTION ( 'NONE',  ( -0.000000000000000000, -1.000000000000000000, -0.000000000000000000 ) ) ;
#206 = LENGTH_MEASURE_WITH_UNIT ( LENGTH_MEASURE( 0.02539999999999999897 ), #274 );
#207 = EDGE_CURVE ( 'NONE', #80, #36, #154, .T. ) ;
#208 = CARTESIAN_POINT ( 'NONE',  ( 0.000000000000000000, 2.000000000000000000, 0.000000000000000000 ) ) ;
#209 =( GEOMETRIC_REPRESENTATION_CONTEXT ( 3 ) GLOBAL_UNCERTAINTY_ASSIGNED_CONTEXT ( ( #117 ) ) GLOBAL_UNIT_ASSIGNED_CONTEXT ( ( #7, #34, #276 ) ) REPRESENTATION_CONTEXT ( 'NONE', 'WORKASPACE' ) );
#210 = EDGE_LOOP ( 'NONE', ( #293, #11, #78, #72 ) ) ;
#211 = FILL_AREA_STYLE ('',( #278 ) ) ;
#212 =( CONVERSION_BASED_UNIT ( 'INCH', #4 ) LENGTH_UNIT ( ) NAMED_UNIT ( #100 ) );
#213 =( GEOMETRIC_REPRESENTATION_CONTEXT ( 3 ) GLOBAL_UNCERTAINTY_ASSIGNED_CONTEXT ( ( #160 ) ) GLOBAL_UNIT_ASSIGNED_CONTEXT ( ( #189, #68, #43 ) ) REPRESENTATION_CONTEXT ( 'NONE', 'WORKASPACE' ) );
#214 =( NAMED_UNIT ( * ) SI_UNIT ( $, .STERADIAN. ) SOLID_ANGLE_UNIT ( ) );
#215 = SURFACE_STYLE_USAGE ( .BOTH. , #269 ) ;
#216 = DIMENSIONAL_EXPONENTS ( 1.000000000000000000, 0.000000000000000000, 0.000000000000000000, 0.000000000000000000, 0.000000000000000000, 0.000000000000000000, 0.000000000000000000 ) ;
#217 = AXIS2_PLACEMENT_3D ( 'NONE', #303, #67, #256 ) ;
#218 = APPLICATION_PROTOCOL_DEFINITION ( 'draft international standard', 'automotive_design', 1998, #142 ) ;
#219 = VERTEX_POINT ( 'NONE', #23 ) ;
#220 = DIRECTION ( 'NONE',  ( -6.123233995736766036E-17, -1.000000000000000000, 0.000000000000000000 ) ) ;
#221 = ORIENTED_EDGE ( 'NONE', *, *, #248, .T. ) ;
#222 = SURFACE_STYLE_FILL_AREA ( #211 ) ;
#223 = PRODUCT_CONTEXT ( 'NONE', #54, 'mechanical' ) ;
#224 = VERTEX_POINT ( 'NONE', #46 ) ;
#225 = CARTESIAN_POINT ( 'NONE',  ( 0.000000000000000000, 0.000000000000000000, 0.000000000000000000 ) ) ;
#226 = DIRECTION ( 'NONE',  ( -1.000000000000000000, 0.000000000000000000, 0.000000000000000000 ) ) ;
#227 = AXIS2_PLACEMENT_3D ( 'NONE', #108, #86, #184 ) ;
#228 = CARTESIAN_POINT ( 'NONE',  ( -0.1249999999999997641, 4.000000000000000000, 0.000000000000000000 ) ) ;
#229 = STYLED_ITEM ( 'NONE', ( #20 ), #232 ) ;
#230 = FACE_OUTER_BOUND ( 'NONE', #210, .T. ) ;
#231 = LENGTH_MEASURE_WITH_UNIT ( LENGTH_MEASURE( 0.02539999999999999897 ), #235 );
#232 = ADVANCED_FACE ( 'NONE', ( #257 ), #136, .T. ) ;
#233 = DIRECTION ( 'NONE',  ( 6.123233995736766036E-17, 1.000000000000000000, -0.000000000000000000 ) ) ;
#234 = DIRECTION ( 'NONE',  ( 0.000000000000000000, 0.000000000000000000, -1.000000000000000000 ) ) ;
#235 =( LENGTH_UNIT ( ) NAMED_UNIT ( * ) SI_UNIT ( $, .METRE. ) );
#236 = DIRECTION ( 'NONE',  ( -0.000000000000000000, -1.000000000000000000, -0.000000000000000000 ) ) ;
#237 = SURFACE_STYLE_FILL_AREA ( #99 ) ;
#238 = MECHANICAL_DESIGN_GEOMETRIC_PRESENTATION_REPRESENTATION (  '', ( #97 ), #209 ) ;
#239 = DIRECTION ( 'NONE',  ( -1.000000000000000000, 0.000000000000000000, 0.000000000000000000 ) ) ;
#240 =( LENGTH_UNIT ( ) NAMED_UNIT ( * ) SI_UNIT ( $, .METRE. ) );
#241 = ORIENTED_EDGE ( 'NONE', *, *, #307, .T. ) ;
#242 = AXIS2_PLACEMENT_3D ( 'NONE', #64, #233, #282 ) ;
#243 = AXIS2_PLACEMENT_3D ( 'NONE', #73, #191, #115 ) ;
#244 = EDGE_LOOP ( 'NONE', ( #288, #103 ) ) ;
#245 = AXIS2_PLACEMENT_3D ( 'NONE', #62, #305, #92 ) ;
#246 = ORIENTED_EDGE ( 'NONE', *, *, #38, .F. ) ;
#247 = CYLINDRICAL_SURFACE ( 'NONE', #243, 0.1249999999999999306 ) ;
#248 = EDGE_CURVE ( 'NONE', #198, #30, #2, .T. ) ;
#249 = SHAPE_DEFINITION_REPRESENTATION ( #171, #162 ) ;
#250 = CARTESIAN_POINT ( 'NONE',  ( 0.000000000000000000, 0.000000000000000000, 0.000000000000000000 ) ) ;
#251 = DIRECTION ( 'NONE',  ( 6.123233995736766036E-17, 1.000000000000000000, -0.000000000000000000 ) ) ;
#252 = FILL_AREA_STYLE ('',( #283 ) ) ;
#253 =( LENGTH_UNIT ( ) NAMED_UNIT ( * ) SI_UNIT ( $, .METRE. ) );
#254 = FILL_AREA_STYLE ('',( #63 ) ) ;
#255 = COLOUR_RGB ( '',1.000000000000000000, 0.000000000000000000, 0.000000000000000000 ) ;
#256 = DIRECTION ( 'NONE',  ( 0.000000000000000000, 0.000000000000000000, -1.000000000000000000 ) ) ;
#257 = FACE_OUTER_BOUND ( 'NONE', #308, .T. ) ;
#258 = CIRCLE ( 'NONE', #53, 0.1250000000000000000 ) ;
#259 = COLOUR_RGB ( '',1.000000000000000000, 0.000000000000000000, 0.000000000000000000 ) ;
#260 = EDGE_LOOP ( 'NONE', ( #6, #144, #176, #32 ) ) ;
#261 = DIMENSIONAL_EXPONENTS ( 1.000000000000000000, 0.000000000000000000, 0.000000000000000000, 0.000000000000000000, 0.000000000000000000, 0.000000000000000000, 0.000000000000000000 ) ;
#262 = CARTESIAN_POINT ( 'NONE',  ( 1.224646799147353207E-16, 4.000000000000000000, 0.000000000000000000 ) ) ;
#263 = AXIS2_PLACEMENT_3D ( 'NONE', #166, #60, #77 ) ;
#264 = DIMENSIONAL_EXPONENTS ( 1.000000000000000000, 0.000000000000000000, 0.000000000000000000, 0.000000000000000000, 0.000000000000000000, 0.000000000000000000, 0.000000000000000000 ) ;
#265 = LENGTH_MEASURE_WITH_UNIT ( LENGTH_MEASURE( 0.02539999999999999897 ), #297 );
#266 = MANIFOLD_SOLID_BREP ( 'Revolve - Tool Body (Straight Shanked)', #281 ) ;
#267 = ORIENTED_EDGE ( 'NONE', *, *, #79, .F. ) ;
#268 = PRODUCT ( '86064', '86064', '', ( #223 ) ) ;
#269 = SURFACE_SIDE_STYLE ('',( #123 ) ) ;
#270 = UNCERTAINTY_MEASURE_WITH_UNIT (LENGTH_MEASURE( 1.000000000000000082E-05 ), #17, 'distance_accuracy_value', 'NONE');
#271 = VERTEX_POINT ( 'NONE', #93 ) ;
#272 = EDGE_CURVE ( 'NONE', #30, #198, #258, .T. ) ;
#273 = PLANE ( 'NONE',  #192 ) ;
#274 =( LENGTH_UNIT ( ) NAMED_UNIT ( * ) SI_UNIT ( $, .METRE. ) );
#275 = CARTESIAN_POINT ( 'NONE',  ( 0.1250000000000000000, 4.000000000000000000, 0.000000000000000000 ) ) ;
#276 =( NAMED_UNIT ( * ) SI_UNIT ( $, .STERADIAN. ) SOLID_ANGLE_UNIT ( ) );
#277 =( NAMED_UNIT ( * ) PLANE_ANGLE_UNIT ( ) SI_UNIT ( $, .RADIAN. ) );
#278 = FILL_AREA_STYLE_COLOUR ( '', #259 ) ;
#279 = PLANE ( 'NONE',  #263 ) ;
#280 = SURFACE_STYLE_USAGE ( .BOTH. , #88 ) ;
#281 = CLOSED_SHELL ( 'NONE', ( #89, #190, #120, #10 ) ) ;
#282 = DIRECTION ( 'NONE',  ( -1.000000000000000000, 0.000000000000000000, 0.000000000000000000 ) ) ;
#283 = FILL_AREA_STYLE_COLOUR ( '', #57 ) ;
#284 = CARTESIAN_POINT ( 'NONE',  ( 1.530808498934191509E-17, 2.000000000000000000, 0.1250000000000000000 ) ) ;
#285 = SURFACE_SIDE_STYLE ('',( #39 ) ) ;
#286 = CIRCLE ( 'NONE', #35, 0.1250000000000000000 ) ;
#287 = PRESENTATION_LAYER_ASSIGNMENT (  '', '', ( #107 ) ) ;
#288 = ORIENTED_EDGE ( 'NONE', *, *, #56, .T. ) ;
#289 = DIRECTION ( 'NONE',  ( 6.123233995736766036E-17, 1.000000000000000000, -0.000000000000000000 ) ) ;
#290 = EDGE_CURVE ( 'NONE', #224, #219, #74, .T. ) ;
#291 = PRESENTATION_LAYER_ASSIGNMENT (  '', '', ( #304 ) ) ;
#292 = FILL_AREA_STYLE ('',( #33 ) ) ;
#293 = ORIENTED_EDGE ( 'NONE', *, *, #290, .F. ) ;
#294 = ORIENTED_EDGE ( 'NONE', *, *, #70, .F. ) ;
#295 =( GEOMETRIC_REPRESENTATION_CONTEXT ( 3 ) GLOBAL_UNCERTAINTY_ASSIGNED_CONTEXT ( ( #177 ) ) GLOBAL_UNIT_ASSIGNED_CONTEXT ( ( #119, #55, #214 ) ) REPRESENTATION_CONTEXT ( 'NONE', 'WORKASPACE' ) );
#296 = ORIENTED_EDGE ( 'NONE', *, *, #272, .T. ) ;
#297 =( LENGTH_UNIT ( ) NAMED_UNIT ( * ) SI_UNIT ( $, .METRE. ) );
#298 = EDGE_LOOP ( 'NONE', ( #145, #195 ) ) ;
#299 = FILL_AREA_STYLE ('',( #44 ) ) ;
#300 = AXIS2_PLACEMENT_3D ( 'NONE', #199, #251, #87 ) ;
#301 = DIRECTION ( 'NONE',  ( -0.000000000000000000, -1.000000000000000000, -0.000000000000000000 ) ) ;
#302 = FACE_OUTER_BOUND ( 'NONE', #298, .T. ) ;
#303 = CARTESIAN_POINT ( 'NONE',  ( 0.000000000000000000, 2.000000000000000000, 0.000000000000000000 ) ) ;
#304 = STYLED_ITEM ( 'NONE', ( #168 ), #104 ) ;
#305 = DIRECTION ( 'NONE',  ( 6.123233995736766036E-17, 1.000000000000000000, -0.000000000000000000 ) ) ;
#306 = DIRECTION ( 'NONE',  ( 6.123233995736766036E-17, 1.000000000000000000, -0.000000000000000000 ) ) ;
#307 = EDGE_CURVE ( 'NONE', #36, #219, #137, .T. ) ;
#308 = EDGE_LOOP ( 'NONE', ( #221, #50, #25, #294 ) ) ;
#309 = PRESENTATION_STYLE_ASSIGNMENT (( #82 ) ) ;
ENDSEC;
END-ISO-10303-21;
