ISO-10303-21;
HEADER;
FILE_DESCRIPTION (( 'STEP AP214' ),
    '1' );
FILE_NAME ('Micro_SFA-187-44.STEP',
    '2021-09-02T03:50:20',
    ( '' ),
    ( '' ),
    'SwSTEP 2.0',
    'SolidWorks 2020',
    '' );
FILE_SCHEMA (( 'AUTOMOTIVE_DESIGN' ));
ENDSEC;

DATA;
#1 = CARTESIAN_POINT ( 'NONE',  ( 0.0000000000000000000, 0.0000000000000000000, 0.0000000000000000000 ) ) ;
#2 = EDGE_CURVE ( 'NONE', #166, #256, #198, .T. ) ;
#3 = CARTESIAN_POINT ( 'NONE',  ( 6.123233995736766036E-17, 0.0000000000000000000, 0.5000000000000000000 ) ) ;
#4 = FACE_OUTER_BOUND ( 'NONE', #34, .T. ) ;
#5 = DIRECTION ( 'NONE',  ( -0.0000000000000000000, -0.0000000000000000000, -1.000000000000000000 ) ) ;
#6 = DIRECTION ( 'NONE',  ( -1.000000000000000000, 0.0000000000000000000, 0.0000000000000000000 ) ) ;
#7 = AXIS2_PLACEMENT_3D ( 'NONE', #210, #94, #261 ) ;
#8 = CARTESIAN_POINT ( 'NONE',  ( 0.0000000000000000000, 0.0000000000000000000, 2.000000000000000000 ) ) ;
#9 = ORIENTED_EDGE ( 'NONE', *, *, #193, .F. ) ;
#10 = DIRECTION ( 'NONE',  ( 1.000000000000000000, 0.0000000000000000000, 0.0000000000000000000 ) ) ;
#11 = AXIS2_PLACEMENT_3D ( 'NONE', #268, #13, #137 ) ;
#12 = DIRECTION ( 'NONE',  ( 1.000000000000000000, 0.0000000000000000000, 0.0000000000000000000 ) ) ;
#13 = DIRECTION ( 'NONE',  ( 0.0000000000000000000, 0.0000000000000000000, 1.000000000000000000 ) ) ;
#14 = PRODUCT_DEFINITION ( 'UNKNOWN', '', #196, #276 ) ;
#15 = AXIS2_PLACEMENT_3D ( 'NONE', #124, #30, #278 ) ;
#16 = PLANE ( 'NONE',  #123 ) ;
#17 = VERTEX_POINT ( 'NONE', #269 ) ;
#18 = ORIENTED_EDGE ( 'NONE', *, *, #291, .T. ) ;
#19 = SHAPE_DEFINITION_REPRESENTATION ( #220, #215 ) ;
#20 = CARTESIAN_POINT ( 'NONE',  ( 0.0000000000000000000, 0.0000000000000000000, 2.000000000000000000 ) ) ;
#21 = CIRCLE ( 'NONE', #236, 0.1250000000000000000 ) ;
#22 = DIRECTION ( 'NONE',  ( -1.224646799147353207E-16, -0.0000000000000000000, -1.000000000000000000 ) ) ;
#23 = CARTESIAN_POINT ( 'NONE',  ( -0.1099999999999996397, 0.0000000000000000000, 2.000000000000000000 ) ) ;
#24 = VERTEX_POINT ( 'NONE', #243 ) ;
#25 = FACE_OUTER_BOUND ( 'NONE', #100, .T. ) ;
#26 = LINE ( 'NONE', #284, #168 ) ;
#27 = LENGTH_MEASURE_WITH_UNIT ( LENGTH_MEASURE( 0.02539999999999999897 ), #283 );
#28 = CARTESIAN_POINT ( 'NONE',  ( 8.300156832874184869E-17, 0.0000000000000000000, 0.6777592395336415887 ) ) ;
#29 = ORIENTED_EDGE ( 'NONE', *, *, #209, .T. ) ;
#30 = DIRECTION ( 'NONE',  ( -1.224646799147353207E-16, -0.0000000000000000000, -1.000000000000000000 ) ) ;
#31 =( CONVERSION_BASED_UNIT ( 'INCH', #101 ) LENGTH_UNIT ( ) NAMED_UNIT ( #175 ) );
#32 = COLOUR_RGB ( '',0.7921568627450980005, 0.8196078431372548767, 0.9333333333333333481 ) ;
#33 = DIRECTION ( 'NONE',  ( 1.224646799147353207E-16, 0.0000000000000000000, 1.000000000000000000 ) ) ;
#34 = EDGE_LOOP ( 'NONE', ( #173, #51, #64, #120 ) ) ;
#35 = FACE_OUTER_BOUND ( 'NONE', #121, .T. ) ;
#36 = EDGE_CURVE ( 'NONE', #24, #86, #195, .T. ) ;
#37 = VERTEX_POINT ( 'NONE', #153 ) ;
#38 = STYLED_ITEM ( 'NONE', ( #233 ), #206 ) ;
#39 = ORIENTED_EDGE ( 'NONE', *, *, #36, .F. ) ;
#40 = AXIS2_PLACEMENT_3D ( 'NONE', #252, #57, #296 ) ;
#41 = DIRECTION ( 'NONE',  ( 1.000000000000000000, 0.0000000000000000000, 0.0000000000000000000 ) ) ;
#42 = CARTESIAN_POINT ( 'NONE',  ( 0.1250000000000000000, 1.530808498934191509E-17, 2.000000000000000000 ) ) ;
#43 = PLANE ( 'NONE',  #40 ) ;
#44 = PRODUCT_CONTEXT ( 'NONE', #112, 'mechanical' ) ;
#45 = CARTESIAN_POINT ( 'NONE',  ( 0.0000000000000000000, 0.0000000000000000000, 1.984999999999999432 ) ) ;
#46 = PRESENTATION_LAYER_ASSIGNMENT (  '', '', ( #249 ) ) ;
#47 = FACE_OUTER_BOUND ( 'NONE', #245, .T. ) ;
#48 = DIRECTION ( 'NONE',  ( -0.0000000000000000000, -0.0000000000000000000, -1.000000000000000000 ) ) ;
#49 = EDGE_LOOP ( 'NONE', ( #147, #218, #150, #200 ) ) ;
#50 = DIRECTION ( 'NONE',  ( -0.0000000000000000000, -0.0000000000000000000, -1.000000000000000000 ) ) ;
#51 = ORIENTED_EDGE ( 'NONE', *, *, #178, .T. ) ;
#52 = LINE ( 'NONE', #91, #211 ) ;
#53 = AXIS2_PLACEMENT_3D ( 'NONE', #93, #22, #73 ) ;
#54 = LINE ( 'NONE', #136, #267 ) ;
#55 = PRESENTATION_STYLE_ASSIGNMENT (( #99 ) ) ;
#56 =( LENGTH_UNIT ( ) NAMED_UNIT ( * ) SI_UNIT ( $, .METRE. ) );
#57 = DIRECTION ( 'NONE',  ( 0.0000000000000000000, 0.0000000000000000000, 1.000000000000000000 ) ) ;
#58 = VECTOR ( 'NONE', #68, 39.37007874015748143 ) ;
#59 = AXIS2_PLACEMENT_3D ( 'NONE', #282, #111, #113 ) ;
#60 = ADVANCED_FACE ( 'NONE', ( #158 ), #248, .T. ) ;
#61 = FACE_OUTER_BOUND ( 'NONE', #223, .T. ) ;
#62 = ORIENTED_EDGE ( 'NONE', *, *, #209, .F. ) ;
#63 = FILL_AREA_STYLE ('',( #141 ) ) ;
#64 = ORIENTED_EDGE ( 'NONE', *, *, #140, .T. ) ;
#65 = CIRCLE ( 'NONE', #186, 0.1250000000000000000 ) ;
#66 = VERTEX_POINT ( 'NONE', #251 ) ;
#67 = ADVANCED_FACE ( 'NONE', ( #277 ), #253, .T. ) ;
#68 = DIRECTION ( 'NONE',  ( -0.0000000000000000000, -0.0000000000000000000, -1.000000000000000000 ) ) ;
#69 = EDGE_LOOP ( 'NONE', ( #18, #132 ) ) ;
#70 = DIRECTION ( 'NONE',  ( 1.224646799147353207E-16, 0.0000000000000000000, 1.000000000000000000 ) ) ;
#71 = CARTESIAN_POINT ( 'NONE',  ( -0.1099999999999996397, 0.0000000000000000000, 2.000000000000000000 ) ) ;
#72 = MECHANICAL_DESIGN_GEOMETRIC_PRESENTATION_REPRESENTATION (  '', ( #38 ), #148 ) ;
#73 = DIRECTION ( 'NONE',  ( -1.000000000000000000, 0.0000000000000000000, 0.0000000000000000000 ) ) ;
#74 = EDGE_LOOP ( 'NONE', ( #9, #217, #280, #143 ) ) ;
#75 = VECTOR ( 'NONE', #149, 39.37007874015748143 ) ;
#76 = DIRECTION ( 'NONE',  ( 0.0000000000000000000, 0.0000000000000000000, -1.000000000000000000 ) ) ;
#77 = CARTESIAN_POINT ( 'NONE',  ( 0.09365625000000006584, 0.0000000000000000000, 0.5000000000000000000 ) ) ;
#78 = ORIENTED_EDGE ( 'NONE', *, *, #160, .T. ) ;
#79 = CARTESIAN_POINT ( 'NONE',  ( 1.404618771449245766E-33, 0.0000000000000000000, 1.146958267826442798E-17 ) ) ;
#80 = COLOUR_RGB ( '',0.7921568627450980005, 0.8196078431372548767, 0.9333333333333333481 ) ;
#81 = DIRECTION ( 'NONE',  ( 0.1736481776669313581, 0.0000000000000000000, 0.9848077530122077983 ) ) ;
#82 = CARTESIAN_POINT ( 'NONE',  ( 6.123233995736766036E-17, 0.0000000000000000000, 0.5000000000000000000 ) ) ;
#83 = EDGE_CURVE ( 'NONE', #17, #170, #176, .T. ) ;
#84 = DIRECTION ( 'NONE',  ( 0.0000000000000000000, 0.0000000000000000000, 1.000000000000000000 ) ) ;
#85 = DIMENSIONAL_EXPONENTS ( 1.000000000000000000, 0.0000000000000000000, 0.0000000000000000000, 0.0000000000000000000, 0.0000000000000000000, 0.0000000000000000000, 0.0000000000000000000 ) ;
#86 = VERTEX_POINT ( 'NONE', #23 ) ;
#87 = UNCERTAINTY_MEASURE_WITH_UNIT (LENGTH_MEASURE( 1.000000000000000082E-05 ), #31, 'distance_accuracy_value', 'NONE');
#88 = CYLINDRICAL_SURFACE ( 'NONE', #241, 0.1250000000000000000 ) ;
#89 = EDGE_CURVE ( 'NONE', #170, #37, #155, .T. ) ;
#90 = LINE ( 'NONE', #71, #177 ) ;
#91 = CARTESIAN_POINT ( 'NONE',  ( -0.1250000000000000000, 0.0000000000000000000, 2.000000000000000000 ) ) ;
#92 = ADVANCED_FACE ( 'NONE', ( #61 ), #285, .T. ) ;
#93 = CARTESIAN_POINT ( 'NONE',  ( 6.123233995736766036E-17, 0.0000000000000000000, 0.5000000000000000000 ) ) ;
#94 = DIRECTION ( 'NONE',  ( -1.224646799147353207E-16, -0.0000000000000000000, -1.000000000000000000 ) ) ;
#95 = AXIS2_PLACEMENT_3D ( 'NONE', #20, #107, #275 ) ;
#96 = VECTOR ( 'NONE', #81, 39.37007874015748143 ) ;
#97 = DIRECTION ( 'NONE',  ( -1.224646799147353207E-16, -0.0000000000000000000, -1.000000000000000000 ) ) ;
#98 = ADVANCED_FACE ( 'NONE', ( #262 ), #106, .T. ) ;
#99 = SURFACE_STYLE_USAGE ( .BOTH. , #263 ) ;
#100 = EDGE_LOOP ( 'NONE', ( #39, #29, #298, #250 ) ) ;
#101 = LENGTH_MEASURE_WITH_UNIT ( LENGTH_MEASURE( 0.02539999999999999897 ), #240 );
#102 = AXIS2_PLACEMENT_3D ( 'NONE', #139, #129, #234 ) ;
#103 = DIRECTION ( 'NONE',  ( -1.000000000000000000, 0.0000000000000000000, 1.224646799147352961E-16 ) ) ;
#104 = ADVANCED_FACE ( 'NONE', ( #4 ), #273, .T. ) ;
#105 = FACE_OUTER_BOUND ( 'NONE', #69, .T. ) ;
#106 = CONICAL_SURFACE ( 'NONE', #102, 0.1099999999999996397, 0.7853981633974426169 ) ;
#107 = DIRECTION ( 'NONE',  ( 0.0000000000000000000, 0.0000000000000000000, 1.000000000000000000 ) ) ;
#108 = CONICAL_SURFACE ( 'NONE', #219, 0.1099999999999996397, 0.7853981633974426169 ) ;
#109 = ORIENTED_EDGE ( 'NONE', *, *, #178, .F. ) ;
#110 = CARTESIAN_POINT ( 'NONE',  ( 0.0000000000000000000, 0.0000000000000000000, 1.984999999999999432 ) ) ;
#111 = DIRECTION ( 'NONE',  ( -1.224646799147353207E-16, -0.0000000000000000000, -1.000000000000000000 ) ) ;
#112 = APPLICATION_CONTEXT ( 'automotive_design' ) ;
#113 = DIRECTION ( 'NONE',  ( 1.000000000000000000, 0.0000000000000000000, 0.0000000000000000000 ) ) ;
#114 = AXIS2_PLACEMENT_3D ( 'NONE', #28, #189, #122 ) ;
#115 = ADVANCED_FACE ( 'NONE', ( #258 ), #43, .F. ) ;
#116 =( NAMED_UNIT ( * ) PLANE_ANGLE_UNIT ( ) SI_UNIT ( $, .RADIAN. ) );
#117 = DIRECTION ( 'NONE',  ( 1.000000000000000000, 0.0000000000000000000, -0.0000000000000000000 ) ) ;
#118 = CLOSED_SHELL ( 'NONE', ( #92, #67, #174, #169, #60, #232, #98, #247, #104, #115 ) ) ;
#119 = EDGE_CURVE ( 'NONE', #66, #256, #167, .T. ) ;
#120 = ORIENTED_EDGE ( 'NONE', *, *, #228, .F. ) ;
#121 = EDGE_LOOP ( 'NONE', ( #293, #109, #237, #221 ) ) ;
#122 = DIRECTION ( 'NONE',  ( 1.000000000000000000, 0.0000000000000000000, 0.0000000000000000000 ) ) ;
#123 = AXIS2_PLACEMENT_3D ( 'NONE', #197, #144, #117 ) ;
#124 = CARTESIAN_POINT ( 'NONE',  ( 1.404618771449245766E-33, 0.0000000000000000000, 1.146958267826442798E-17 ) ) ;
#125 = UNCERTAINTY_MEASURE_WITH_UNIT (LENGTH_MEASURE( 1.000000000000000082E-05 ), #185, 'distance_accuracy_value', 'NONE');
#126 = DIRECTION ( 'NONE',  ( -1.224646799147353207E-16, -0.0000000000000000000, -1.000000000000000000 ) ) ;
#127 = DIRECTION ( 'NONE',  ( 1.000000000000000000, 0.0000000000000000000, 0.0000000000000000000 ) ) ;
#128 = AXIS2_PLACEMENT_3D ( 'NONE', #82, #33, #191 ) ;
#129 = DIRECTION ( 'NONE',  ( 0.0000000000000000000, 0.0000000000000000000, -1.000000000000000000 ) ) ;
#130 = DIRECTION ( 'NONE',  ( 0.7071067811865434649, 8.659560562354883554E-17, -0.7071067811865515695 ) ) ;
#131 = CARTESIAN_POINT ( 'NONE',  ( 0.09365625000000006584, 0.0000000000000000000, 0.5000000000000000000 ) ) ;
#132 = ORIENTED_EDGE ( 'NONE', *, *, #36, .T. ) ;
#133 = SURFACE_STYLE_USAGE ( .BOTH. , #257 ) ;
#134 = FILL_AREA_STYLE_COLOUR ( '', #32 ) ;
#135 = AXIS2_PLACEMENT_3D ( 'NONE', #138, #192, #297 ) ;
#136 = CARTESIAN_POINT ( 'NONE',  ( 0.1099999999999996397, 1.347111479062084158E-17, 2.000000000000000000 ) ) ;
#137 = DIRECTION ( 'NONE',  ( 1.000000000000000000, 0.0000000000000000000, 0.0000000000000000000 ) ) ;
#138 = CARTESIAN_POINT ( 'NONE',  ( 0.0000000000000000000, 0.0000000000000000000, 0.0000000000000000000 ) ) ;
#139 = CARTESIAN_POINT ( 'NONE',  ( 0.0000000000000000000, 0.0000000000000000000, 2.000000000000000000 ) ) ;
#140 = EDGE_CURVE ( 'NONE', #239, #66, #26, .T. ) ;
#141 = FILL_AREA_STYLE_COLOUR ( '', #80 ) ;
#142 = EDGE_LOOP ( 'NONE', ( #290, #179 ) ) ;
#143 = ORIENTED_EDGE ( 'NONE', *, *, #264, .F. ) ;
#144 = DIRECTION ( 'NONE',  ( 0.0000000000000000000, 0.0000000000000000000, 1.000000000000000000 ) ) ;
#145 = DIMENSIONAL_EXPONENTS ( 1.000000000000000000, 0.0000000000000000000, 0.0000000000000000000, 0.0000000000000000000, 0.0000000000000000000, 0.0000000000000000000, 0.0000000000000000000 ) ;
#146 =( CONVERSION_BASED_UNIT ( 'INCH', #238 ) LENGTH_UNIT ( ) NAMED_UNIT ( #85 ) );
#147 = ORIENTED_EDGE ( 'NONE', *, *, #83, .F. ) ;
#148 =( GEOMETRIC_REPRESENTATION_CONTEXT ( 3 ) GLOBAL_UNCERTAINTY_ASSIGNED_CONTEXT ( ( #125 ) ) GLOBAL_UNIT_ASSIGNED_CONTEXT ( ( #185, #116, #162 ) ) REPRESENTATION_CONTEXT ( 'NONE', 'WORKASPACE' ) );
#149 = DIRECTION ( 'NONE',  ( -1.224646799147353207E-16, -0.0000000000000000000, -1.000000000000000000 ) ) ;
#150 = ORIENTED_EDGE ( 'NONE', *, *, #187, .T. ) ;
#151 = AXIS2_PLACEMENT_3D ( 'NONE', #225, #84, #41 ) ;
#152 = CARTESIAN_POINT ( 'NONE',  ( 0.0000000000000000000, 0.0000000000000000000, 2.000000000000000000 ) ) ;
#153 = CARTESIAN_POINT ( 'NONE',  ( -0.1249999999999999167, 0.0000000000000000000, 0.6777592395336415887 ) ) ;
#154 = EDGE_CURVE ( 'NONE', #86, #299, #90, .T. ) ;
#155 = CIRCLE ( 'NONE', #114, 0.1250000000000000000 ) ;
#156 = CIRCLE ( 'NONE', #53, 0.09365624999999999645 ) ;
#157 = LINE ( 'NONE', #231, #254 ) ;
#158 = FACE_OUTER_BOUND ( 'NONE', #49, .T. ) ;
#159 = ORIENTED_EDGE ( 'NONE', *, *, #154, .T. ) ;
#160 = EDGE_CURVE ( 'NONE', #299, #17, #65, .T. ) ;
#161 = FILL_AREA_STYLE ('',( #134 ) ) ;
#162 =( NAMED_UNIT ( * ) SI_UNIT ( $, .STERADIAN. ) SOLID_ANGLE_UNIT ( ) );
#163 = CIRCLE ( 'NONE', #7, 0.09365624999999999645 ) ;
#164 = DIRECTION ( 'NONE',  ( -1.000000000000000000, 0.0000000000000000000, 1.224646799147352961E-16 ) ) ;
#165 = DIRECTION ( 'NONE',  ( 0.0000000000000000000, 0.0000000000000000000, -1.000000000000000000 ) ) ;
#166 = VERTEX_POINT ( 'NONE', #131 ) ;
#167 = CIRCLE ( 'NONE', #15, 0.09365624999999999645 ) ;
#168 = VECTOR ( 'NONE', #259, 39.37007874015748143 ) ;
#169 = ADVANCED_FACE ( 'NONE', ( #47 ), #88, .T. ) ;
#170 = VERTEX_POINT ( 'NONE', #183 ) ;
#171 = AXIS2_PLACEMENT_3D ( 'NONE', #152, #48, #230 ) ;
#172 =( GEOMETRIC_REPRESENTATION_CONTEXT ( 3 ) GLOBAL_UNCERTAINTY_ASSIGNED_CONTEXT ( ( #204 ) ) GLOBAL_UNIT_ASSIGNED_CONTEXT ( ( #146, #222, #194 ) ) REPRESENTATION_CONTEXT ( 'NONE', 'WORKASPACE' ) );
#173 = ORIENTED_EDGE ( 'NONE', *, *, #2, .F. ) ;
#174 = ADVANCED_FACE ( 'NONE', ( #25 ), #108, .T. ) ;
#175 = DIMENSIONAL_EXPONENTS ( 1.000000000000000000, 0.0000000000000000000, 0.0000000000000000000, 0.0000000000000000000, 0.0000000000000000000, 0.0000000000000000000, 0.0000000000000000000 ) ;
#176 = LINE ( 'NONE', #42, #58 ) ;
#177 = VECTOR ( 'NONE', #229, 39.37007874015748143 ) ;
#178 = EDGE_CURVE ( 'NONE', #166, #239, #156, .T. ) ;
#179 = ORIENTED_EDGE ( 'NONE', *, *, #228, .T. ) ;
#180 = ORIENTED_EDGE ( 'NONE', *, *, #119, .F. ) ;
#181 = DIRECTION ( 'NONE',  ( -1.000000000000000000, 0.0000000000000000000, 0.0000000000000000000 ) ) ;
#182 = EDGE_CURVE ( 'NONE', #239, #37, #157, .T. ) ;
#183 = CARTESIAN_POINT ( 'NONE',  ( 0.1250000000000000833, 1.530808498934192433E-17, 0.6777592395336415887 ) ) ;
#184 = SURFACE_STYLE_FILL_AREA ( #161 ) ;
#185 =( CONVERSION_BASED_UNIT ( 'INCH', #27 ) LENGTH_UNIT ( ) NAMED_UNIT ( #145 ) );
#186 = AXIS2_PLACEMENT_3D ( 'NONE', #45, #76, #10 ) ;
#187 = EDGE_CURVE ( 'NONE', #299, #37, #52, .T. ) ;
#188 = LINE ( 'NONE', #77, #96 ) ;
#189 = DIRECTION ( 'NONE',  ( -1.224646799147353207E-16, -0.0000000000000000000, -1.000000000000000000 ) ) ;
#190 = ORIENTED_EDGE ( 'NONE', *, *, #140, .F. ) ;
#191 = DIRECTION ( 'NONE',  ( 1.000000000000000000, 0.0000000000000000000, 0.0000000000000000000 ) ) ;
#192 = DIRECTION ( 'NONE',  ( -1.224646799147353207E-16, -0.0000000000000000000, -1.000000000000000000 ) ) ;
#193 = EDGE_CURVE ( 'NONE', #239, #166, #163, .T. ) ;
#194 =( NAMED_UNIT ( * ) SI_UNIT ( $, .STERADIAN. ) SOLID_ANGLE_UNIT ( ) );
#195 = CIRCLE ( 'NONE', #95, 0.1099999999999996397 ) ;
#196 = PRODUCT_DEFINITION_FORMATION_WITH_SPECIFIED_SOURCE ( 'ANY', '', #271, .NOT_KNOWN. ) ;
#197 = CARTESIAN_POINT ( 'NONE',  ( 0.0000000000000000000, 0.0000000000000000000, 2.000000000000000000 ) ) ;
#198 = LINE ( 'NONE', #226, #75 ) ;
#199 = CARTESIAN_POINT ( 'NONE',  ( -0.1250000000000000000, 0.0000000000000000000, 1.984999999999999432 ) ) ;
#200 = ORIENTED_EDGE ( 'NONE', *, *, #89, .F. ) ;
#201 =( GEOMETRIC_REPRESENTATION_CONTEXT ( 3 ) GLOBAL_UNCERTAINTY_ASSIGNED_CONTEXT ( ( #87 ) ) GLOBAL_UNIT_ASSIGNED_CONTEXT ( ( #31, #288, #286 ) ) REPRESENTATION_CONTEXT ( 'NONE', 'WORKASPACE' ) );
#202 = EDGE_CURVE ( 'NONE', #37, #170, #205, .T. ) ;
#203 = ORIENTED_EDGE ( 'NONE', *, *, #214, .F. ) ;
#204 = UNCERTAINTY_MEASURE_WITH_UNIT (LENGTH_MEASURE( 1.000000000000000082E-05 ), #146, 'distance_accuracy_value', 'NONE');
#205 = CIRCLE ( 'NONE', #59, 0.1250000000000000000 ) ;
#206 = MANIFOLD_SOLID_BREP ( 'Cut-Revolve1', #118 ) ;
#207 = ORIENTED_EDGE ( 'NONE', *, *, #202, .F. ) ;
#208 = DIRECTION ( 'NONE',  ( 0.0000000000000000000, 0.0000000000000000000, -1.000000000000000000 ) ) ;
#209 = EDGE_CURVE ( 'NONE', #24, #17, #54, .T. ) ;
#210 = CARTESIAN_POINT ( 'NONE',  ( 6.123233995736766036E-17, 0.0000000000000000000, 0.5000000000000000000 ) ) ;
#211 = VECTOR ( 'NONE', #50, 39.37007874015748143 ) ;
#212 = ORIENTED_EDGE ( 'NONE', *, *, #193, .T. ) ;
#213 = MECHANICAL_DESIGN_GEOMETRIC_PRESENTATION_REPRESENTATION (  '', ( #249 ), #201 ) ;
#214 = EDGE_CURVE ( 'NONE', #17, #299, #21, .T. ) ;
#215 = ADVANCED_BREP_SHAPE_REPRESENTATION ( 'Micro_SFA-187-44', ( #206, #151 ), #172 ) ;
#216 = ORIENTED_EDGE ( 'NONE', *, *, #2, .T. ) ;
#217 = ORIENTED_EDGE ( 'NONE', *, *, #182, .T. ) ;
#218 = ORIENTED_EDGE ( 'NONE', *, *, #214, .T. ) ;
#219 = AXIS2_PLACEMENT_3D ( 'NONE', #8, #165, #181 ) ;
#220 = PRODUCT_DEFINITION_SHAPE ( 'NONE', 'NONE',  #14 ) ;
#221 = ORIENTED_EDGE ( 'NONE', *, *, #89, .T. ) ;
#222 =( NAMED_UNIT ( * ) PLANE_ANGLE_UNIT ( ) SI_UNIT ( $, .RADIAN. ) );
#223 = EDGE_LOOP ( 'NONE', ( #212, #216, #180, #190 ) ) ;
#224 = PRESENTATION_LAYER_ASSIGNMENT (  '', '', ( #38 ) ) ;
#225 = CARTESIAN_POINT ( 'NONE',  ( 0.0000000000000000000, 0.0000000000000000000, 0.0000000000000000000 ) ) ;
#226 = CARTESIAN_POINT ( 'NONE',  ( 0.09365624999999999645, 1.146958267826442798E-17, -1.146958267826442798E-17 ) ) ;
#227 = CIRCLE ( 'NONE', #295, 0.09365624999999999645 ) ;
#228 = EDGE_CURVE ( 'NONE', #256, #66, #227, .T. ) ;
#229 = DIRECTION ( 'NONE',  ( -0.7071067811865434649, 0.0000000000000000000, -0.7071067811865515695 ) ) ;
#230 = DIRECTION ( 'NONE',  ( -1.000000000000000000, 0.0000000000000000000, 0.0000000000000000000 ) ) ;
#231 = CARTESIAN_POINT ( 'NONE',  ( -0.09365624999999992706, 1.146958267826442798E-17, 0.5000000000000000000 ) ) ;
#232 = ADVANCED_FACE ( 'NONE', ( #105 ), #16, .T. ) ;
#233 = PRESENTATION_STYLE_ASSIGNMENT (( #133 ) ) ;
#234 = DIRECTION ( 'NONE',  ( -1.000000000000000000, 0.0000000000000000000, 0.0000000000000000000 ) ) ;
#235 = SURFACE_STYLE_FILL_AREA ( #63 ) ;
#236 = AXIS2_PLACEMENT_3D ( 'NONE', #110, #208, #12 ) ;
#237 = ORIENTED_EDGE ( 'NONE', *, *, #264, .T. ) ;
#238 = LENGTH_MEASURE_WITH_UNIT ( LENGTH_MEASURE( 0.02539999999999999897 ), #56 );
#239 = VERTEX_POINT ( 'NONE', #266 ) ;
#240 =( LENGTH_UNIT ( ) NAMED_UNIT ( * ) SI_UNIT ( $, .METRE. ) );
#241 = AXIS2_PLACEMENT_3D ( 'NONE', #281, #5, #6 ) ;
#242 = PRODUCT_RELATED_PRODUCT_CATEGORY ( 'part', '', ( #271 ) ) ;
#243 = CARTESIAN_POINT ( 'NONE',  ( 0.1099999999999996397, 1.438959988998137757E-17, 2.000000000000000000 ) ) ;
#244 = ORIENTED_EDGE ( 'NONE', *, *, #83, .T. ) ;
#245 = EDGE_LOOP ( 'NONE', ( #78, #244, #207, #272 ) ) ;
#246 = APPLICATION_PROTOCOL_DEFINITION ( 'draft international standard', 'automotive_design', 1998, #289 ) ;
#247 = ADVANCED_FACE ( 'NONE', ( #35 ), #270, .T. ) ;
#248 = CYLINDRICAL_SURFACE ( 'NONE', #171, 0.1250000000000000000 ) ;
#249 = STYLED_ITEM ( 'NONE', ( #55 ), #215 ) ;
#250 = ORIENTED_EDGE ( 'NONE', *, *, #154, .F. ) ;
#251 = CARTESIAN_POINT ( 'NONE',  ( -0.09365624999999999645, 0.0000000000000000000, 2.293916535652885596E-17 ) ) ;
#252 = CARTESIAN_POINT ( 'NONE',  ( 0.0000000000000000000, 0.0000000000000000000, 0.0000000000000000000 ) ) ;
#253 = CONICAL_SURFACE ( 'NONE', #294, 0.09365624999999999645, 0.1745329251994338637 ) ;
#254 = VECTOR ( 'NONE', #255, 39.37007874015747433 ) ;
#255 = DIRECTION ( 'NONE',  ( -0.1736481776669311639, 2.126576849575783008E-17, 0.9848077530122080203 ) ) ;
#256 = VERTEX_POINT ( 'NONE', #265 ) ;
#257 = SURFACE_SIDE_STYLE ('',( #184 ) ) ;
#258 = FACE_OUTER_BOUND ( 'NONE', #142, .T. ) ;
#259 = DIRECTION ( 'NONE',  ( -1.224646799147353207E-16, -0.0000000000000000000, -1.000000000000000000 ) ) ;
#260 = CIRCLE ( 'NONE', #11, 0.1099999999999996397 ) ;
#261 = DIRECTION ( 'NONE',  ( -1.000000000000000000, 0.0000000000000000000, 0.0000000000000000000 ) ) ;
#262 = FACE_OUTER_BOUND ( 'NONE', #287, .T. ) ;
#263 = SURFACE_SIDE_STYLE ('',( #235 ) ) ;
#264 = EDGE_CURVE ( 'NONE', #166, #170, #188, .T. ) ;
#265 = CARTESIAN_POINT ( 'NONE',  ( 0.09365624999999999645, 1.146958267826442798E-17, 0.0000000000000000000 ) ) ;
#266 = CARTESIAN_POINT ( 'NONE',  ( -0.09365624999999992706, 1.338883383380317076E-17, 0.5000000000000000000 ) ) ;
#267 = VECTOR ( 'NONE', #130, 39.37007874015748143 ) ;
#268 = CARTESIAN_POINT ( 'NONE',  ( 0.0000000000000000000, 0.0000000000000000000, 2.000000000000000000 ) ) ;
#269 = CARTESIAN_POINT ( 'NONE',  ( 0.1250000000000000000, 1.530808498934191509E-17, 1.984999999999999432 ) ) ;
#270 = CONICAL_SURFACE ( 'NONE', #128, 0.09365624999999999645, 0.1745329251994338637 ) ;
#271 = PRODUCT ( 'Micro_SFA-187-44', 'Micro_SFA-187-44', '', ( #44 ) ) ;
#272 = ORIENTED_EDGE ( 'NONE', *, *, #187, .F. ) ;
#273 = CYLINDRICAL_SURFACE ( 'NONE', #135, 0.09365624999999999645 ) ;
#274 = AXIS2_PLACEMENT_3D ( 'NONE', #1, #126, #164 ) ;
#275 = DIRECTION ( 'NONE',  ( 1.000000000000000000, 0.0000000000000000000, 0.0000000000000000000 ) ) ;
#276 = PRODUCT_DEFINITION_CONTEXT ( 'detailed design', #289, 'design' ) ;
#277 = FACE_OUTER_BOUND ( 'NONE', #74, .T. ) ;
#278 = DIRECTION ( 'NONE',  ( -1.000000000000000000, 0.0000000000000000000, 1.224646799147352961E-16 ) ) ;
#279 = ORIENTED_EDGE ( 'NONE', *, *, #291, .F. ) ;
#280 = ORIENTED_EDGE ( 'NONE', *, *, #202, .T. ) ;
#281 = CARTESIAN_POINT ( 'NONE',  ( 0.0000000000000000000, 0.0000000000000000000, 2.000000000000000000 ) ) ;
#282 = CARTESIAN_POINT ( 'NONE',  ( 8.300156832874184869E-17, 0.0000000000000000000, 0.6777592395336415887 ) ) ;
#283 =( LENGTH_UNIT ( ) NAMED_UNIT ( * ) SI_UNIT ( $, .METRE. ) );
#284 = CARTESIAN_POINT ( 'NONE',  ( -0.09365624999999999645, 0.0000000000000000000, 1.146958267826442798E-17 ) ) ;
#285 = CYLINDRICAL_SURFACE ( 'NONE', #274, 0.09365624999999999645 ) ;
#286 =( NAMED_UNIT ( * ) SI_UNIT ( $, .STERADIAN. ) SOLID_ANGLE_UNIT ( ) );
#287 = EDGE_LOOP ( 'NONE', ( #62, #279, #159, #203 ) ) ;
#288 =( NAMED_UNIT ( * ) PLANE_ANGLE_UNIT ( ) SI_UNIT ( $, .RADIAN. ) );
#289 = APPLICATION_CONTEXT ( 'automotive_design' ) ;
#290 = ORIENTED_EDGE ( 'NONE', *, *, #119, .T. ) ;
#291 = EDGE_CURVE ( 'NONE', #86, #24, #260, .T. ) ;
#292 = APPLICATION_PROTOCOL_DEFINITION ( 'draft international standard', 'automotive_design', 1998, #112 ) ;
#293 = ORIENTED_EDGE ( 'NONE', *, *, #182, .F. ) ;
#294 = AXIS2_PLACEMENT_3D ( 'NONE', #3, #70, #127 ) ;
#295 = AXIS2_PLACEMENT_3D ( 'NONE', #79, #97, #103 ) ;
#296 = DIRECTION ( 'NONE',  ( 1.000000000000000000, 0.0000000000000000000, -0.0000000000000000000 ) ) ;
#297 = DIRECTION ( 'NONE',  ( -1.000000000000000000, 0.0000000000000000000, 1.224646799147352961E-16 ) ) ;
#298 = ORIENTED_EDGE ( 'NONE', *, *, #160, .F. ) ;
#299 = VERTEX_POINT ( 'NONE', #199 ) ;
ENDSEC;
END-ISO-10303-21;
