ISO-10303-21;
HEADER;
FILE_DESCRIPTION (( 'STEP AP214' ),
    '1' );
FILE_NAME ('83289.STEP',
    '2023-06-30T22:57:22',
    ( '' ),
    ( '' ),
    'SwSTEP 2.0',
    'SolidWorks 2023',
    '' );
FILE_SCHEMA (( 'AUTOMOTIVE_DESIGN' ));
ENDSEC;

DATA;
#1 = FACE_OUTER_BOUND ( 'NONE', #324, .T. ) ;
#2 = LINE ( 'NONE', #187, #321 ) ;
#3 = DIRECTION ( 'NONE',  ( 0.000000000000000000, 0.000000000000000000, -1.000000000000000000 ) ) ;
#4 = APPLICATION_PROTOCOL_DEFINITION ( 'draft international standard', 'automotive_design', 1998, #343 ) ;
#5 = FACE_OUTER_BOUND ( 'NONE', #173, .T. ) ;
#6 = CARTESIAN_POINT ( 'NONE',  ( -1.913510623667739463E-17, 0.1562500000000000000, 0.000000000000000000 ) ) ;
#7 = MECHANICAL_DESIGN_GEOMETRIC_PRESENTATION_REPRESENTATION (  '', ( #159 ), #255 ) ;
#8 = ADVANCED_FACE ( 'NONE', ( #294 ), #33, .T. ) ;
#9 = CARTESIAN_POINT ( 'NONE',  ( 0.1562499999999998612, 1.000000000000000000, 1.913510623667738231E-17 ) ) ;
#10 = ORIENTED_EDGE ( 'NONE', *, *, #273, .F. ) ;
#11 =( NAMED_UNIT ( * ) SI_UNIT ( $, .STERADIAN. ) SOLID_ANGLE_UNIT ( ) );
#12 = PRODUCT_DEFINITION_SHAPE ( 'NONE', 'NONE',  #336 ) ;
#13 = VERTEX_POINT ( 'NONE', #9 ) ;
#14 = FILL_AREA_STYLE ('',( #205 ) ) ;
#15 = ORIENTED_EDGE ( 'NONE', *, *, #273, .T. ) ;
#16 =( NAMED_UNIT ( * ) SI_UNIT ( $, .STERADIAN. ) SOLID_ANGLE_UNIT ( ) );
#17 = COLOUR_RGB ( '',1.000000000000000000, 0.000000000000000000, 0.000000000000000000 ) ;
#18 = DIRECTION ( 'NONE',  ( -0.000000000000000000, -1.000000000000000000, -0.000000000000000000 ) ) ;
#19 = DIRECTION ( 'NONE',  ( 0.000000000000000000, 0.000000000000000000, -1.000000000000000000 ) ) ;
#20 = DIRECTION ( 'NONE',  ( -0.000000000000000000, -1.000000000000000000, -0.000000000000000000 ) ) ;
#21 = DIRECTION ( 'NONE',  ( 1.000000000000000000, 1.632862398863137774E-16, 0.000000000000000000 ) ) ;
#22 = MECHANICAL_DESIGN_GEOMETRIC_PRESENTATION_REPRESENTATION (  '', ( #223 ), #326 ) ;
#23 =( CONVERSION_BASED_UNIT ( 'INCH', #194 ) LENGTH_UNIT ( ) NAMED_UNIT ( #312 ) );
#24 = EDGE_CURVE ( 'NONE', #332, #208, #366, .T. ) ;
#25 = EDGE_LOOP ( 'NONE', ( #29, #142, #155, #229 ) ) ;
#26 = CARTESIAN_POINT ( 'NONE',  ( 0.000000000000000000, 1.000000000000000000, 0.000000000000000000 ) ) ;
#27 = CIRCLE ( 'NONE', #352, 0.1562499999999998612 ) ;
#28 = CARTESIAN_POINT ( 'NONE',  ( -6.123233995736764803E-17, 2.500000000000000000, 0.000000000000000000 ) ) ;
#29 = ORIENTED_EDGE ( 'NONE', *, *, #268, .T. ) ;
#30 = SPHERICAL_SURFACE ( 'NONE', #150, 0.1562500000000000000 ) ;
#31 = ORIENTED_EDGE ( 'NONE', *, *, #350, .F. ) ;
#32 = AXIS2_PLACEMENT_3D ( 'NONE', #302, #328, #177 ) ;
#33 = CYLINDRICAL_SURFACE ( 'NONE', #165, 0.1562499999999998335 ) ;
#34 = CARTESIAN_POINT ( 'NONE',  ( 1.836970198721030181E-16, 1.000000000000000000, 0.000000000000000000 ) ) ;
#35 = ORIENTED_EDGE ( 'NONE', *, *, #80, .T. ) ;
#36 = SURFACE_SIDE_STYLE ('',( #182 ) ) ;
#37 = EDGE_LOOP ( 'NONE', ( #35, #15, #31, #313 ) ) ;
#38 = COLOUR_RGB ( '',0.7921568627450980005, 0.8196078431372548767, 0.9333333333333333481 ) ;
#39 = FILL_AREA_STYLE_COLOUR ( '', #17 ) ;
#40 = STYLED_ITEM ( 'NONE', ( #51 ), #238 ) ;
#41 = AXIS2_PLACEMENT_3D ( 'NONE', #275, #109, #140 ) ;
#42 = VERTEX_POINT ( 'NONE', #151 ) ;
#43 = ORIENTED_EDGE ( 'NONE', *, *, #331, .F. ) ;
#44 = CARTESIAN_POINT ( 'NONE',  ( 0.1562499999999999167, 2.500000000000000000, 0.000000000000000000 ) ) ;
#45 = AXIS2_PLACEMENT_3D ( 'NONE', #189, #339, #110 ) ;
#46 = AXIS2_PLACEMENT_3D ( 'NONE', #49, #161, #337 ) ;
#47 = DIRECTION ( 'NONE',  ( -1.000000000000000000, 0.000000000000000000, 0.000000000000000000 ) ) ;
#48 = EDGE_CURVE ( 'NONE', #13, #332, #262, .T. ) ;
#49 = CARTESIAN_POINT ( 'NONE',  ( -1.913510623667739463E-17, 0.1562500000000000000, 0.000000000000000000 ) ) ;
#50 = CARTESIAN_POINT ( 'NONE',  ( -0.1562499999999999167, 2.500000000000000000, 0.000000000000000000 ) ) ;
#51 = PRESENTATION_STYLE_ASSIGNMENT (( #111 ) ) ;
#52 = MANIFOLD_SOLID_BREP ( 'Revolve - Tool Body (Straight Shanked)', #183 ) ;
#53 = DIMENSIONAL_EXPONENTS ( 1.000000000000000000, 0.000000000000000000, 0.000000000000000000, 0.000000000000000000, 0.000000000000000000, 0.000000000000000000, 0.000000000000000000 ) ;
#54 = FACE_OUTER_BOUND ( 'NONE', #327, .T. ) ;
#55 =( NAMED_UNIT ( * ) PLANE_ANGLE_UNIT ( ) SI_UNIT ( $, .RADIAN. ) );
#56 = VERTEX_POINT ( 'NONE', #107 ) ;
#57 = DIRECTION ( 'NONE',  ( -1.632862398863137774E-16, 1.000000000000000000, -0.000000000000000000 ) ) ;
#58 = VECTOR ( 'NONE', #277, 39.37007874015748143 ) ;
#59 = PRODUCT_DEFINITION_FORMATION_WITH_SPECIFIED_SOURCE ( 'ANY', '', #66, .NOT_KNOWN. ) ;
#60 =( NAMED_UNIT ( * ) SI_UNIT ( $, .STERADIAN. ) SOLID_ANGLE_UNIT ( ) );
#61 = ADVANCED_BREP_SHAPE_REPRESENTATION ( '83289', ( #290, #52, #192 ), #185 ) ;
#62 =( NAMED_UNIT ( * ) PLANE_ANGLE_UNIT ( ) SI_UNIT ( $, .RADIAN. ) );
#63 = ORIENTED_EDGE ( 'NONE', *, *, #24, .T. ) ;
#64 =( CONVERSION_BASED_UNIT ( 'INCH', #347 ) LENGTH_UNIT ( ) NAMED_UNIT ( #196 ) );
#65 = DIRECTION ( 'NONE',  ( -1.632862398863137774E-16, 1.000000000000000000, -0.000000000000000000 ) ) ;
#66 = PRODUCT ( '83289', '83289', '', ( #283 ) ) ;
#67 = CARTESIAN_POINT ( 'NONE',  ( -0.1562499999999995282, 1.000000000000000000, 0.000000000000000000 ) ) ;
#68 = CARTESIAN_POINT ( 'NONE',  ( -6.123233995736764803E-17, 2.500000000000000000, 0.000000000000000000 ) ) ;
#69 = EDGE_LOOP ( 'NONE', ( #43, #128, #335, #289, #123 ) ) ;
#70 = PRESENTATION_STYLE_ASSIGNMENT (( #132 ) ) ;
#71 = CIRCLE ( 'NONE', #240, 0.1562500000000000000 ) ;
#72 = PRESENTATION_LAYER_ASSIGNMENT (  '', '', ( #81 ) ) ;
#73 = CARTESIAN_POINT ( 'NONE',  ( 1.913510623667738231E-17, 1.000000000000000000, 0.1562499999999998612 ) ) ;
#74 = CARTESIAN_POINT ( 'NONE',  ( -6.123233995736766036E-17, 2.500000000000000000, 0.000000000000000000 ) ) ;
#75 = FILL_AREA_STYLE_COLOUR ( '', #209 ) ;
#76 = FACE_OUTER_BOUND ( 'NONE', #69, .T. ) ;
#77 = DIRECTION ( 'NONE',  ( -0.000000000000000000, -1.000000000000000000, -0.000000000000000000 ) ) ;
#78 = APPLICATION_CONTEXT ( 'automotive_design' ) ;
#79 = FILL_AREA_STYLE ('',( #163 ) ) ;
#80 = EDGE_CURVE ( 'NONE', #56, #42, #291, .T. ) ;
#81 = STYLED_ITEM ( 'NONE', ( #345 ), #361 ) ;
#82 = DIRECTION ( 'NONE',  ( -0.000000000000000000, -1.000000000000000000, -0.000000000000000000 ) ) ;
#83 = DIRECTION ( 'NONE',  ( 0.000000000000000000, 0.000000000000000000, -1.000000000000000000 ) ) ;
#84 = PLANE ( 'NONE',  #368 ) ;
#85 = DIMENSIONAL_EXPONENTS ( 1.000000000000000000, 0.000000000000000000, 0.000000000000000000, 0.000000000000000000, 0.000000000000000000, 0.000000000000000000, 0.000000000000000000 ) ;
#86 = SURFACE_STYLE_FILL_AREA ( #219 ) ;
#87 = SURFACE_SIDE_STYLE ('',( #195 ) ) ;
#88 = DIRECTION ( 'NONE',  ( -0.000000000000000000, -1.000000000000000000, -0.000000000000000000 ) ) ;
#89 = DIRECTION ( 'NONE',  ( 1.224646799147353207E-16, -0.000000000000000000, 1.000000000000000000 ) ) ;
#90 =( GEOMETRIC_REPRESENTATION_CONTEXT ( 3 ) GLOBAL_UNCERTAINTY_ASSIGNED_CONTEXT ( ( #305 ) ) GLOBAL_UNIT_ASSIGNED_CONTEXT ( ( #239, #270, #160 ) ) REPRESENTATION_CONTEXT ( 'NONE', 'WORKASPACE' ) );
#91 = SPHERICAL_SURFACE ( 'NONE', #46, 0.1562500000000000000 ) ;
#92 = DIRECTION ( 'NONE',  ( -1.000000000000000000, -1.632862398863137774E-16, 0.000000000000000000 ) ) ;
#93 = DIMENSIONAL_EXPONENTS ( 1.000000000000000000, 0.000000000000000000, 0.000000000000000000, 0.000000000000000000, 0.000000000000000000, 0.000000000000000000, 0.000000000000000000 ) ;
#94 = FILL_AREA_STYLE_COLOUR ( '', #184 ) ;
#95 = AXIS2_PLACEMENT_3D ( 'NONE', #34, #141, #92 ) ;
#96 = COLOUR_RGB ( '',1.000000000000000000, 0.000000000000000000, 0.000000000000000000 ) ;
#97 = APPLICATION_PROTOCOL_DEFINITION ( 'draft international standard', 'automotive_design', 1998, #78 ) ;
#98 = EDGE_LOOP ( 'NONE', ( #267, #237, #125, #299, #236 ) ) ;
#99 = EDGE_CURVE ( 'NONE', #126, #225, #181, .T. ) ;
#100 = SURFACE_STYLE_FILL_AREA ( #248 ) ;
#101 = ORIENTED_EDGE ( 'NONE', *, *, #261, .F. ) ;
#102 = CARTESIAN_POINT ( 'NONE',  ( 0.000000000000000000, 0.1562500000000000278, 0.000000000000000000 ) ) ;
#103 = ORIENTED_EDGE ( 'NONE', *, *, #48, .F. ) ;
#104 =( CONVERSION_BASED_UNIT ( 'INCH', #357 ) LENGTH_UNIT ( ) NAMED_UNIT ( #146 ) );
#105 = EDGE_LOOP ( 'NONE', ( #364, #351 ) ) ;
#106 = PRESENTATION_LAYER_ASSIGNMENT (  '', '', ( #121 ) ) ;
#107 = CARTESIAN_POINT ( 'NONE',  ( 1.913510623667739463E-17, 0.1562500000000000278, 0.1562500000000000000 ) ) ;
#108 =( LENGTH_UNIT ( ) NAMED_UNIT ( * ) SI_UNIT ( $, .METRE. ) );
#109 = DIRECTION ( 'NONE',  ( 0.000000000000000000, 0.000000000000000000, -1.000000000000000000 ) ) ;
#110 = DIRECTION ( 'NONE',  ( -1.000000000000000000, 0.000000000000000000, 0.000000000000000000 ) ) ;
#111 = SURFACE_STYLE_USAGE ( .BOTH. , #295 ) ;
#112 = FILL_AREA_STYLE_COLOUR ( '', #271 ) ;
#113 = PRESENTATION_LAYER_ASSIGNMENT (  '', '', ( #222 ) ) ;
#114 = CARTESIAN_POINT ( 'NONE',  ( 0.000000000000000000, 0.1562500000000000278, 0.000000000000000000 ) ) ;
#115 = AXIS2_PLACEMENT_3D ( 'NONE', #308, #18, #83 ) ;
#116 = SHAPE_DEFINITION_REPRESENTATION ( #12, #61 ) ;
#117 = DIRECTION ( 'NONE',  ( 0.000000000000000000, 0.000000000000000000, -1.000000000000000000 ) ) ;
#118 = FACE_OUTER_BOUND ( 'NONE', #105, .T. ) ;
#119 =( NAMED_UNIT ( * ) PLANE_ANGLE_UNIT ( ) SI_UNIT ( $, .RADIAN. ) );
#120 = STYLED_ITEM ( 'NONE', ( #133 ), #52 ) ;
#121 = STYLED_ITEM ( 'NONE', ( #355 ), #290 ) ;
#122 = PRODUCT_RELATED_PRODUCT_CATEGORY ( 'part', '', ( #66 ) ) ;
#123 = ORIENTED_EDGE ( 'NONE', *, *, #80, .F. ) ;
#124 = CARTESIAN_POINT ( 'NONE',  ( 0.000000000000000000, 0.000000000000000000, 0.000000000000000000 ) ) ;
#125 = ORIENTED_EDGE ( 'NONE', *, *, #249, .F. ) ;
#126 = VERTEX_POINT ( 'NONE', #372 ) ;
#127 = CIRCLE ( 'NONE', #338, 0.1562500000000000000 ) ;
#128 = ORIENTED_EDGE ( 'NONE', *, *, #261, .T. ) ;
#129 =( NAMED_UNIT ( * ) PLANE_ANGLE_UNIT ( ) SI_UNIT ( $, .RADIAN. ) );
#130 = LENGTH_MEASURE_WITH_UNIT ( LENGTH_MEASURE( 0.02539999999999999897 ), #108 );
#131 = AXIS2_PLACEMENT_3D ( 'NONE', #102, #20, #342 ) ;
#132 = SURFACE_STYLE_USAGE ( .BOTH. , #211 ) ;
#133 = PRESENTATION_STYLE_ASSIGNMENT (( #269 ) ) ;
#134 = SURFACE_SIDE_STYLE ('',( #304 ) ) ;
#135 = CARTESIAN_POINT ( 'NONE',  ( 0.000000000000000000, 0.000000000000000000, -0.1562499999999999445 ) ) ;
#136 = FACE_OUTER_BOUND ( 'NONE', #37, .T. ) ;
#137 = AXIS2_PLACEMENT_3D ( 'NONE', #28, #57, #251 ) ;
#138 = LENGTH_MEASURE_WITH_UNIT ( LENGTH_MEASURE( 0.02539999999999999897 ), #250 );
#139 = CARTESIAN_POINT ( 'NONE',  ( -1.913510623667739463E-17, 0.1562500000000000000, 0.000000000000000000 ) ) ;
#140 = DIRECTION ( 'NONE',  ( -1.000000000000000000, 0.000000000000000000, 0.000000000000000000 ) ) ;
#141 = DIRECTION ( 'NONE',  ( -1.632862398863137774E-16, 1.000000000000000000, 0.000000000000000000 ) ) ;
#142 = ORIENTED_EDGE ( 'NONE', *, *, #48, .T. ) ;
#143 = SURFACE_STYLE_USAGE ( .BOTH. , #87 ) ;
#144 = AXIS2_PLACEMENT_3D ( 'NONE', #247, #88, #19 ) ;
#145 = COLOUR_RGB ( '',1.000000000000000000, 0.000000000000000000, 0.000000000000000000 ) ;
#146 = DIMENSIONAL_EXPONENTS ( 1.000000000000000000, 0.000000000000000000, 0.000000000000000000, 0.000000000000000000, 0.000000000000000000, 0.000000000000000000, 0.000000000000000000 ) ;
#147 = CARTESIAN_POINT ( 'NONE',  ( -0.1562500000000000278, 2.500000000000000000, 0.000000000000000000 ) ) ;
#148 = EDGE_CURVE ( 'NONE', #126, #232, #27, .T. ) ;
#149 = VECTOR ( 'NONE', #359, 39.37007874015748143 ) ;
#150 = AXIS2_PLACEMENT_3D ( 'NONE', #6, #201, #228 ) ;
#151 = CARTESIAN_POINT ( 'NONE',  ( -0.1562500000000000000, 0.1562500000000000278, 1.913510623667738847E-17 ) ) ;
#152 = DIRECTION ( 'NONE',  ( 0.000000000000000000, 1.000000000000000000, 0.000000000000000000 ) ) ;
#153 = ORIENTED_EDGE ( 'NONE', *, *, #24, .F. ) ;
#154 = EDGE_CURVE ( 'NONE', #13, #317, #158, .T. ) ;
#155 = ORIENTED_EDGE ( 'NONE', *, *, #288, .F. ) ;
#156 = FILL_AREA_STYLE ('',( #39 ) ) ;
#157 = CYLINDRICAL_SURFACE ( 'NONE', #265, 0.1562499999999998335 ) ;
#158 = CIRCLE ( 'NONE', #45, 0.1562499999999996947 ) ;
#159 = STYLED_ITEM ( 'NONE', ( #348 ), #344 ) ;
#160 =( NAMED_UNIT ( * ) SI_UNIT ( $, .STERADIAN. ) SOLID_ANGLE_UNIT ( ) );
#161 = DIRECTION ( 'NONE',  ( 0.000000000000000000, 0.000000000000000000, 1.000000000000000000 ) ) ;
#162 = DIRECTION ( 'NONE',  ( 1.632862398863137774E-16, -1.000000000000000000, 0.000000000000000000 ) ) ;
#163 = FILL_AREA_STYLE_COLOUR ( '', #96 ) ;
#164 = ADVANCED_FACE ( 'NONE', ( #278 ), #84, .F. ) ;
#165 = AXIS2_PLACEMENT_3D ( 'NONE', #74, #178, #260 ) ;
#166 = CIRCLE ( 'NONE', #258, 0.1562499999999998612 ) ;
#167 =( GEOMETRIC_REPRESENTATION_CONTEXT ( 3 ) GLOBAL_UNCERTAINTY_ASSIGNED_CONTEXT ( ( #188 ) ) GLOBAL_UNIT_ASSIGNED_CONTEXT ( ( #104, #129, #11 ) ) REPRESENTATION_CONTEXT ( 'NONE', 'WORKASPACE' ) );
#168 = CARTESIAN_POINT ( 'NONE',  ( 0.000000000000000000, 0.1562500000000000278, 0.000000000000000000 ) ) ;
#169 =( LENGTH_UNIT ( ) NAMED_UNIT ( * ) SI_UNIT ( $, .METRE. ) );
#170 = DIRECTION ( 'NONE',  ( -0.000000000000000000, -1.000000000000000000, -0.000000000000000000 ) ) ;
#171 =( CONVERSION_BASED_UNIT ( 'INCH', #318 ) LENGTH_UNIT ( ) NAMED_UNIT ( #93 ) );
#172 = MECHANICAL_DESIGN_GEOMETRIC_PRESENTATION_REPRESENTATION (  '', ( #121 ), #292 ) ;
#173 = EDGE_LOOP ( 'NONE', ( #356, #101 ) ) ;
#174 = CARTESIAN_POINT ( 'NONE',  ( -9.567553118338697316E-18, 0.000000000000000000, 0.000000000000000000 ) ) ;
#175 = ORIENTED_EDGE ( 'NONE', *, *, #288, .T. ) ;
#176 = ORIENTED_EDGE ( 'NONE', *, *, #218, .T. ) ;
#177 = DIRECTION ( 'NONE',  ( 0.000000000000000000, 0.000000000000000000, -1.000000000000000000 ) ) ;
#178 = DIRECTION ( 'NONE',  ( -1.632862398863137774E-16, 1.000000000000000000, -0.000000000000000000 ) ) ;
#179 = FILL_AREA_STYLE ('',( #75 ) ) ;
#180 = ADVANCED_FACE ( 'NONE', ( #1 ), #157, .T. ) ;
#181 = LINE ( 'NONE', #135, #325 ) ;
#182 = SURFACE_STYLE_FILL_AREA ( #179 ) ;
#183 = CLOSED_SHELL ( 'NONE', ( #8, #281, #180, #164 ) ) ;
#184 = COLOUR_RGB ( '',1.000000000000000000, 0.000000000000000000, 0.000000000000000000 ) ;
#185 =( GEOMETRIC_REPRESENTATION_CONTEXT ( 3 ) GLOBAL_UNCERTAINTY_ASSIGNED_CONTEXT ( ( #276 ) ) GLOBAL_UNIT_ASSIGNED_CONTEXT ( ( #322, #119, #226 ) ) REPRESENTATION_CONTEXT ( 'NONE', 'WORKASPACE' ) );
#186 = DIRECTION ( 'NONE',  ( 0.000000000000000000, 0.000000000000000000, -1.000000000000000000 ) ) ;
#187 = CARTESIAN_POINT ( 'NONE',  ( 1.913510623667738539E-17, 0.000000000000000000, 0.1562499999999999445 ) ) ;
#188 = UNCERTAINTY_MEASURE_WITH_UNIT (LENGTH_MEASURE( 1.000000000000000082E-05 ), #104, 'distance_accuracy_value', 'NONE');
#189 = CARTESIAN_POINT ( 'NONE',  ( 1.836970198721030427E-16, 1.000000000000000000, 0.000000000000000000 ) ) ;
#190 = SURFACE_SIDE_STYLE ('',( #86 ) ) ;
#191 = PRESENTATION_LAYER_ASSIGNMENT (  '', '', ( #120 ) ) ;
#192 = AXIS2_PLACEMENT_3D ( 'NONE', #124, #230, #253 ) ;
#193 = CARTESIAN_POINT ( 'NONE',  ( 0.000000000000000000, 1.000000000000000000, 0.000000000000000000 ) ) ;
#194 = LENGTH_MEASURE_WITH_UNIT ( LENGTH_MEASURE( 0.02539999999999999897 ), #213 );
#195 = SURFACE_STYLE_FILL_AREA ( #349 ) ;
#196 = DIMENSIONAL_EXPONENTS ( 1.000000000000000000, 0.000000000000000000, 0.000000000000000000, 0.000000000000000000, 0.000000000000000000, 0.000000000000000000, 0.000000000000000000 ) ;
#197 = DIRECTION ( 'NONE',  ( -1.632862398863137774E-16, 1.000000000000000000, -0.000000000000000000 ) ) ;
#198 = AXIS2_PLACEMENT_3D ( 'NONE', #68, #65, #202 ) ;
#199 =( GEOMETRIC_REPRESENTATION_CONTEXT ( 3 ) GLOBAL_UNCERTAINTY_ASSIGNED_CONTEXT ( ( #256 ) ) GLOBAL_UNIT_ASSIGNED_CONTEXT ( ( #64, #55, #224 ) ) REPRESENTATION_CONTEXT ( 'NONE', 'WORKASPACE' ) );
#200 = EDGE_CURVE ( 'NONE', #225, #362, #254, .T. ) ;
#201 = DIRECTION ( 'NONE',  ( 0.000000000000000000, 0.000000000000000000, 1.000000000000000000 ) ) ;
#202 = DIRECTION ( 'NONE',  ( -1.000000000000000000, 0.000000000000000000, 0.000000000000000000 ) ) ;
#203 = DIRECTION ( 'NONE',  ( -0.000000000000000000, -1.000000000000000000, -0.000000000000000000 ) ) ;
#204 = PRESENTATION_LAYER_ASSIGNMENT (  '', '', ( #223 ) ) ;
#205 = FILL_AREA_STYLE_COLOUR ( '', #38 ) ;
#206 = LENGTH_MEASURE_WITH_UNIT ( LENGTH_MEASURE( 0.02539999999999999897 ), #233 );
#207 = MECHANICAL_DESIGN_GEOMETRIC_PRESENTATION_REPRESENTATION (  '', ( #120 ), #90 ) ;
#208 = VERTEX_POINT ( 'NONE', #147 ) ;
#209 = COLOUR_RGB ( '',1.000000000000000000, 0.000000000000000000, 0.000000000000000000 ) ;
#210 = UNCERTAINTY_MEASURE_WITH_UNIT (LENGTH_MEASURE( 1.000000000000000082E-05 ), #241, 'distance_accuracy_value', 'NONE');
#211 = SURFACE_SIDE_STYLE ('',( #363 ) ) ;
#212 = CARTESIAN_POINT ( 'NONE',  ( -6.123233995736766036E-17, 2.500000000000000000, 0.000000000000000000 ) ) ;
#213 =( LENGTH_UNIT ( ) NAMED_UNIT ( * ) SI_UNIT ( $, .METRE. ) );
#214 = AXIS2_PLACEMENT_3D ( 'NONE', #287, #197, #220 ) ;
#215 =( CONVERSION_BASED_UNIT ( 'INCH', #138 ) LENGTH_UNIT ( ) NAMED_UNIT ( #217 ) );
#216 =( GEOMETRIC_REPRESENTATION_CONTEXT ( 3 ) GLOBAL_UNCERTAINTY_ASSIGNED_CONTEXT ( ( #367 ) ) GLOBAL_UNIT_ASSIGNED_CONTEXT ( ( #171, #62, #60 ) ) REPRESENTATION_CONTEXT ( 'NONE', 'WORKASPACE' ) );
#217 = DIMENSIONAL_EXPONENTS ( 1.000000000000000000, 0.000000000000000000, 0.000000000000000000, 0.000000000000000000, 0.000000000000000000, 0.000000000000000000, 0.000000000000000000 ) ;
#218 = EDGE_CURVE ( 'NONE', #42, #225, #71, .T. ) ;
#219 = FILL_AREA_STYLE ('',( #373 ) ) ;
#220 = DIRECTION ( 'NONE',  ( -1.000000000000000000, 0.000000000000000000, 0.000000000000000000 ) ) ;
#221 = SURFACE_STYLE_USAGE ( .BOTH. , #134 ) ;
#222 = STYLED_ITEM ( 'NONE', ( #70 ), #309 ) ;
#223 = STYLED_ITEM ( 'NONE', ( #360 ), #323 ) ;
#224 =( NAMED_UNIT ( * ) SI_UNIT ( $, .STERADIAN. ) SOLID_ANGLE_UNIT ( ) );
#225 = VERTEX_POINT ( 'NONE', #242 ) ;
#226 =( NAMED_UNIT ( * ) SI_UNIT ( $, .STERADIAN. ) SOLID_ANGLE_UNIT ( ) );
#227 = EDGE_CURVE ( 'NONE', #317, #208, #370, .T. ) ;
#228 = DIRECTION ( 'NONE',  ( 1.000000000000000000, 0.000000000000000000, 0.000000000000000000 ) ) ;
#229 = ORIENTED_EDGE ( 'NONE', *, *, #227, .F. ) ;
#230 = DIRECTION ( 'NONE',  ( 0.000000000000000000, 0.000000000000000000, 1.000000000000000000 ) ) ;
#231 = CYLINDRICAL_SURFACE ( 'NONE', #32, 0.1562499999999999445 ) ;
#232 = VERTEX_POINT ( 'NONE', #73 ) ;
#233 =( LENGTH_UNIT ( ) NAMED_UNIT ( * ) SI_UNIT ( $, .METRE. ) );
#234 = PRESENTATION_LAYER_ASSIGNMENT (  '', '', ( #40 ) ) ;
#235 = ORIENTED_EDGE ( 'NONE', *, *, #154, .T. ) ;
#236 = ORIENTED_EDGE ( 'NONE', *, *, #99, .F. ) ;
#237 = ORIENTED_EDGE ( 'NONE', *, *, #331, .T. ) ;
#238 = ADVANCED_FACE ( 'NONE', ( #5 ), #307, .T. ) ;
#239 =( CONVERSION_BASED_UNIT ( 'INCH', #130 ) LENGTH_UNIT ( ) NAMED_UNIT ( #53 ) );
#240 = AXIS2_PLACEMENT_3D ( 'NONE', #114, #170, #341 ) ;
#241 =( CONVERSION_BASED_UNIT ( 'INCH', #206 ) LENGTH_UNIT ( ) NAMED_UNIT ( #85 ) );
#242 = CARTESIAN_POINT ( 'NONE',  ( 0.000000000000000000, 0.1562500000000000278, -0.1562500000000000000 ) ) ;
#243 = CARTESIAN_POINT ( 'NONE',  ( 0.000000000000000000, 1.000000000000000000, 0.000000000000000000 ) ) ;
#244 =( NAMED_UNIT ( * ) PLANE_ANGLE_UNIT ( ) SI_UNIT ( $, .RADIAN. ) );
#245 = AXIS2_PLACEMENT_3D ( 'NONE', #168, #282, #3 ) ;
#246 = CARTESIAN_POINT ( 'NONE',  ( 0.1562500000000000000, 0.1562500000000000278, 0.000000000000000000 ) ) ;
#247 = CARTESIAN_POINT ( 'NONE',  ( 0.000000000000000000, 0.1562500000000000278, 0.000000000000000000 ) ) ;
#248 = FILL_AREA_STYLE ('',( #94 ) ) ;
#249 = EDGE_CURVE ( 'NONE', #362, #56, #320, .T. ) ;
#250 =( LENGTH_UNIT ( ) NAMED_UNIT ( * ) SI_UNIT ( $, .METRE. ) );
#251 = DIRECTION ( 'NONE',  ( -1.000000000000000000, 0.000000000000000000, 0.000000000000000000 ) ) ;
#252 = ORIENTED_EDGE ( 'NONE', *, *, #200, .T. ) ;
#253 = DIRECTION ( 'NONE',  ( 1.000000000000000000, 0.000000000000000000, 0.000000000000000000 ) ) ;
#254 = CIRCLE ( 'NONE', #144, 0.1562500000000000000 ) ;
#255 =( GEOMETRIC_REPRESENTATION_CONTEXT ( 3 ) GLOBAL_UNCERTAINTY_ASSIGNED_CONTEXT ( ( #315 ) ) GLOBAL_UNIT_ASSIGNED_CONTEXT ( ( #23, #244, #274 ) ) REPRESENTATION_CONTEXT ( 'NONE', 'WORKASPACE' ) );
#256 = UNCERTAINTY_MEASURE_WITH_UNIT (LENGTH_MEASURE( 1.000000000000000082E-05 ), #64, 'distance_accuracy_value', 'NONE');
#257 =( LENGTH_UNIT ( ) NAMED_UNIT ( * ) SI_UNIT ( $, .METRE. ) );
#258 = AXIS2_PLACEMENT_3D ( 'NONE', #26, #203, #117 ) ;
#259 = MECHANICAL_DESIGN_GEOMETRIC_PRESENTATION_REPRESENTATION (  '', ( #81 ), #216 ) ;
#260 = DIRECTION ( 'NONE',  ( -1.000000000000000000, 0.000000000000000000, 0.000000000000000000 ) ) ;
#261 = EDGE_CURVE ( 'NONE', #232, #126, #166, .T. ) ;
#262 = LINE ( 'NONE', #296, #149 ) ;
#263 = VERTEX_POINT ( 'NONE', #174 ) ;
#264 = SURFACE_STYLE_USAGE ( .BOTH. , #36 ) ;
#265 = AXIS2_PLACEMENT_3D ( 'NONE', #212, #303, #47 ) ;
#266 = ORIENTED_EDGE ( 'NONE', *, *, #350, .T. ) ;
#267 = ORIENTED_EDGE ( 'NONE', *, *, #148, .T. ) ;
#268 = EDGE_CURVE ( 'NONE', #317, #13, #286, .T. ) ;
#269 = SURFACE_STYLE_USAGE ( .BOTH. , #297 ) ;
#270 =( NAMED_UNIT ( * ) PLANE_ANGLE_UNIT ( ) SI_UNIT ( $, .RADIAN. ) );
#271 = COLOUR_RGB ( '',0.7921568627450980005, 0.8196078431372548767, 0.9333333333333333481 ) ;
#272 =( NAMED_UNIT ( * ) SI_UNIT ( $, .STERADIAN. ) SOLID_ANGLE_UNIT ( ) );
#273 = EDGE_CURVE ( 'NONE', #42, #263, #127, .T. ) ;
#274 =( NAMED_UNIT ( * ) SI_UNIT ( $, .STERADIAN. ) SOLID_ANGLE_UNIT ( ) );
#275 = CARTESIAN_POINT ( 'NONE',  ( -1.913510623667739463E-17, 0.1562500000000000000, 0.000000000000000000 ) ) ;
#276 = UNCERTAINTY_MEASURE_WITH_UNIT (LENGTH_MEASURE( 1.000000000000000082E-05 ), #322, 'distance_accuracy_value', 'NONE');
#277 = DIRECTION ( 'NONE',  ( -1.632862398863137774E-16, 1.000000000000000000, -0.000000000000000000 ) ) ;
#278 = FACE_OUTER_BOUND ( 'NONE', #354, .T. ) ;
#279 = AXIS2_PLACEMENT_3D ( 'NONE', #193, #152, #284 ) ;
#280 = CARTESIAN_POINT ( 'NONE',  ( 0.1562499999999999167, 2.500000000000000000, 1.913510623667738231E-17 ) ) ;
#281 = ADVANCED_FACE ( 'NONE', ( #118 ), #319, .F. ) ;
#282 = DIRECTION ( 'NONE',  ( -0.000000000000000000, -1.000000000000000000, -0.000000000000000000 ) ) ;
#283 = PRODUCT_CONTEXT ( 'NONE', #78, 'mechanical' ) ;
#284 = DIRECTION ( 'NONE',  ( 0.000000000000000000, -0.000000000000000000, 1.000000000000000000 ) ) ;
#285 = DIMENSIONAL_EXPONENTS ( 1.000000000000000000, 0.000000000000000000, 0.000000000000000000, 0.000000000000000000, 0.000000000000000000, 0.000000000000000000, 0.000000000000000000 ) ;
#286 = CIRCLE ( 'NONE', #214, 0.1562499999999996947 ) ;
#287 = CARTESIAN_POINT ( 'NONE',  ( 1.836970198721030427E-16, 1.000000000000000000, 0.000000000000000000 ) ) ;
#288 = EDGE_CURVE ( 'NONE', #208, #332, #298, .T. ) ;
#289 = ORIENTED_EDGE ( 'NONE', *, *, #218, .F. ) ;
#290 = MANIFOLD_SOLID_BREP ( 'Revolve - Cutting Edge', #333 ) ;
#291 = CIRCLE ( 'NONE', #131, 0.1562500000000000000 ) ;
#292 =( GEOMETRIC_REPRESENTATION_CONTEXT ( 3 ) GLOBAL_UNCERTAINTY_ASSIGNED_CONTEXT ( ( #210 ) ) GLOBAL_UNIT_ASSIGNED_CONTEXT ( ( #241, #369, #16 ) ) REPRESENTATION_CONTEXT ( 'NONE', 'WORKASPACE' ) );
#293 = PRESENTATION_LAYER_ASSIGNMENT (  '', '', ( #159 ) ) ;
#294 = FACE_OUTER_BOUND ( 'NONE', #25, .T. ) ;
#295 = SURFACE_SIDE_STYLE ('',( #100 ) ) ;
#296 = CARTESIAN_POINT ( 'NONE',  ( 0.1562499999999997780, 2.500000000000000000, 1.913510623667737614E-17 ) ) ;
#297 = SURFACE_SIDE_STYLE ('',( #329 ) ) ;
#298 = CIRCLE ( 'NONE', #137, 0.1562499999999999722 ) ;
#299 = ORIENTED_EDGE ( 'NONE', *, *, #200, .F. ) ;
#300 = ORIENTED_EDGE ( 'NONE', *, *, #227, .T. ) ;
#301 = FACE_OUTER_BOUND ( 'NONE', #98, .T. ) ;
#302 = CARTESIAN_POINT ( 'NONE',  ( 0.000000000000000000, 0.000000000000000000, 0.000000000000000000 ) ) ;
#303 = DIRECTION ( 'NONE',  ( -1.632862398863137774E-16, 1.000000000000000000, -0.000000000000000000 ) ) ;
#304 = SURFACE_STYLE_FILL_AREA ( #79 ) ;
#305 = UNCERTAINTY_MEASURE_WITH_UNIT (LENGTH_MEASURE( 1.000000000000000082E-05 ), #239, 'distance_accuracy_value', 'NONE');
#306 = SURFACE_STYLE_USAGE ( .BOTH. , #190 ) ;
#307 = PLANE ( 'NONE',  #279 ) ;
#308 = CARTESIAN_POINT ( 'NONE',  ( 0.000000000000000000, 0.000000000000000000, 0.000000000000000000 ) ) ;
#309 = ADVANCED_FACE ( 'NONE', ( #301 ), #231, .T. ) ;
#310 = MECHANICAL_DESIGN_GEOMETRIC_PRESENTATION_REPRESENTATION (  '', ( #222 ), #167 ) ;
#311 = DIRECTION ( 'NONE',  ( 1.000000000000000000, 0.000000000000000000, -1.224646799147353207E-16 ) ) ;
#312 = DIMENSIONAL_EXPONENTS ( 1.000000000000000000, 0.000000000000000000, 0.000000000000000000, 0.000000000000000000, 0.000000000000000000, 0.000000000000000000, 0.000000000000000000 ) ;
#313 = ORIENTED_EDGE ( 'NONE', *, *, #249, .T. ) ;
#314 = DIRECTION ( 'NONE',  ( -0.000000000000000000, -1.000000000000000000, -0.000000000000000000 ) ) ;
#315 = UNCERTAINTY_MEASURE_WITH_UNIT (LENGTH_MEASURE( 1.000000000000000082E-05 ), #23, 'distance_accuracy_value', 'NONE');
#316 =( LENGTH_UNIT ( ) NAMED_UNIT ( * ) SI_UNIT ( $, .METRE. ) );
#317 = VERTEX_POINT ( 'NONE', #67 ) ;
#318 = LENGTH_MEASURE_WITH_UNIT ( LENGTH_MEASURE( 0.02539999999999999897 ), #169 );
#319 = PLANE ( 'NONE',  #95 ) ;
#320 = CIRCLE ( 'NONE', #245, 0.1562500000000000000 ) ;
#321 = VECTOR ( 'NONE', #314, 39.37007874015748143 ) ;
#322 =( CONVERSION_BASED_UNIT ( 'INCH', #353 ) LENGTH_UNIT ( ) NAMED_UNIT ( #285 ) );
#323 = ADVANCED_FACE ( 'NONE', ( #76 ), #365, .T. ) ;
#324 = EDGE_LOOP ( 'NONE', ( #103, #235, #300, #153 ) ) ;
#325 = VECTOR ( 'NONE', #77, 39.37007874015748143 ) ;
#326 =( GEOMETRIC_REPRESENTATION_CONTEXT ( 3 ) GLOBAL_UNCERTAINTY_ASSIGNED_CONTEXT ( ( #371 ) ) GLOBAL_UNIT_ASSIGNED_CONTEXT ( ( #215, #340, #272 ) ) REPRESENTATION_CONTEXT ( 'NONE', 'WORKASPACE' ) );
#327 = EDGE_LOOP ( 'NONE', ( #10, #176, #252, #266 ) ) ;
#328 = DIRECTION ( 'NONE',  ( -0.000000000000000000, -1.000000000000000000, -0.000000000000000000 ) ) ;
#329 = SURFACE_STYLE_FILL_AREA ( #14 ) ;
#330 =( LENGTH_UNIT ( ) NAMED_UNIT ( * ) SI_UNIT ( $, .METRE. ) );
#331 = EDGE_CURVE ( 'NONE', #232, #56, #2, .T. ) ;
#332 = VERTEX_POINT ( 'NONE', #280 ) ;
#333 = CLOSED_SHELL ( 'NONE', ( #361, #309, #238, #323, #344 ) ) ;
#334 = MECHANICAL_DESIGN_GEOMETRIC_PRESENTATION_REPRESENTATION (  '', ( #40 ), #199 ) ;
#335 = ORIENTED_EDGE ( 'NONE', *, *, #99, .T. ) ;
#336 = PRODUCT_DEFINITION ( 'UNKNOWN', '', #59, #346 ) ;
#337 = DIRECTION ( 'NONE',  ( 1.000000000000000000, 0.000000000000000000, 0.000000000000000000 ) ) ;
#338 = AXIS2_PLACEMENT_3D ( 'NONE', #139, #89, #311 ) ;
#339 = DIRECTION ( 'NONE',  ( -1.632862398863137774E-16, 1.000000000000000000, -0.000000000000000000 ) ) ;
#340 =( NAMED_UNIT ( * ) PLANE_ANGLE_UNIT ( ) SI_UNIT ( $, .RADIAN. ) );
#341 = DIRECTION ( 'NONE',  ( 0.000000000000000000, 0.000000000000000000, -1.000000000000000000 ) ) ;
#342 = DIRECTION ( 'NONE',  ( 0.000000000000000000, 0.000000000000000000, -1.000000000000000000 ) ) ;
#343 = APPLICATION_CONTEXT ( 'automotive_design' ) ;
#344 = ADVANCED_FACE ( 'NONE', ( #54 ), #91, .T. ) ;
#345 = PRESENTATION_STYLE_ASSIGNMENT (( #306 ) ) ;
#346 = PRODUCT_DEFINITION_CONTEXT ( 'detailed design', #343, 'design' ) ;
#347 = LENGTH_MEASURE_WITH_UNIT ( LENGTH_MEASURE( 0.02539999999999999897 ), #316 );
#348 = PRESENTATION_STYLE_ASSIGNMENT (( #221 ) ) ;
#349 = FILL_AREA_STYLE ('',( #112 ) ) ;
#350 = EDGE_CURVE ( 'NONE', #362, #263, #358, .T. ) ;
#351 = ORIENTED_EDGE ( 'NONE', *, *, #154, .F. ) ;
#352 = AXIS2_PLACEMENT_3D ( 'NONE', #243, #82, #186 ) ;
#353 = LENGTH_MEASURE_WITH_UNIT ( LENGTH_MEASURE( 0.02539999999999999897 ), #257 );
#354 = EDGE_LOOP ( 'NONE', ( #175, #63 ) ) ;
#355 = PRESENTATION_STYLE_ASSIGNMENT (( #143 ) ) ;
#356 = ORIENTED_EDGE ( 'NONE', *, *, #148, .F. ) ;
#357 = LENGTH_MEASURE_WITH_UNIT ( LENGTH_MEASURE( 0.02539999999999999897 ), #330 );
#358 = CIRCLE ( 'NONE', #41, 0.1562500000000000000 ) ;
#359 = DIRECTION ( 'NONE',  ( -1.632862398863137774E-16, 1.000000000000000000, -0.000000000000000000 ) ) ;
#360 = PRESENTATION_STYLE_ASSIGNMENT (( #264 ) ) ;
#361 = ADVANCED_FACE ( 'NONE', ( #136 ), #30, .T. ) ;
#362 = VERTEX_POINT ( 'NONE', #246 ) ;
#363 = SURFACE_STYLE_FILL_AREA ( #156 ) ;
#364 = ORIENTED_EDGE ( 'NONE', *, *, #268, .F. ) ;
#365 = CYLINDRICAL_SURFACE ( 'NONE', #115, 0.1562499999999999445 ) ;
#366 = CIRCLE ( 'NONE', #198, 0.1562499999999999722 ) ;
#367 = UNCERTAINTY_MEASURE_WITH_UNIT (LENGTH_MEASURE( 1.000000000000000082E-05 ), #171, 'distance_accuracy_value', 'NONE');
#368 = AXIS2_PLACEMENT_3D ( 'NONE', #44, #162, #21 ) ;
#369 =( NAMED_UNIT ( * ) PLANE_ANGLE_UNIT ( ) SI_UNIT ( $, .RADIAN. ) );
#370 = LINE ( 'NONE', #50, #58 ) ;
#371 = UNCERTAINTY_MEASURE_WITH_UNIT (LENGTH_MEASURE( 1.000000000000000082E-05 ), #215, 'distance_accuracy_value', 'NONE');
#372 = CARTESIAN_POINT ( 'NONE',  ( 0.000000000000000000, 1.000000000000000000, -0.1562499999999998612 ) ) ;
#373 = FILL_AREA_STYLE_COLOUR ( '', #145 ) ;
ENDSEC;
END-ISO-10303-21;
