ISO-10303-21;
HEADER;
FILE_DESCRIPTION (( 'STEP AP214' ),
    '1' );
FILE_NAME ('30227W.STEP',
    '2023-06-22T18:11:42',
    ( '' ),
    ( '' ),
    'SwSTEP 2.0',
    'SolidWorks 2023',
    '' );
FILE_SCHEMA (( 'AUTOMOTIVE_DESIGN' ));
ENDSEC;

DATA;
#1 = ADVANCED_FACE ( 'NONE', ( #24 ), #44, .T. ) ;
#2 = PRODUCT_CONTEXT ( 'NONE', #93, 'mechanical' ) ;
#3 = PRESENTATION_LAYER_ASSIGNMENT (  '', '', ( #17 ) ) ;
#4 = FILL_AREA_STYLE ('',( #75 ) ) ;
#5 = DIRECTION ( 'NONE',  ( -0.000000000000000000, -1.000000000000000000, -0.000000000000000000 ) ) ;
#6 = DIRECTION ( 'NONE',  ( 1.000000000000000000, 0.000000000000000000, 0.000000000000000000 ) ) ;
#7 = UNCERTAINTY_MEASURE_WITH_UNIT (LENGTH_MEASURE( 1.000000000000000082E-05 ), #289, 'distance_accuracy_value', 'NONE');
#8 = CARTESIAN_POINT ( 'NONE',  ( 0.000000000000000000, 0.000000000000000000, 0.000000000000000000 ) ) ;
#9 = EDGE_LOOP ( 'NONE', ( #37, #18, #87, #194 ) ) ;
#10 = AXIS2_PLACEMENT_3D ( 'NONE', #101, #222, #287 ) ;
#11 = DIRECTION ( 'NONE',  ( -0.000000000000000000, -1.000000000000000000, -0.000000000000000000 ) ) ;
#12 = ORIENTED_EDGE ( 'NONE', *, *, #33, .T. ) ;
#13 = SURFACE_SIDE_STYLE ('',( #297 ) ) ;
#14 = ORIENTED_EDGE ( 'NONE', *, *, #33, .F. ) ;
#15 = CIRCLE ( 'NONE', #10, 0.1562500000000000000 ) ;
#16 = LENGTH_MEASURE_WITH_UNIT ( LENGTH_MEASURE( 0.02539999999999999897 ), #212 );
#17 = STYLED_ITEM ( 'NONE', ( #45 ), #269 ) ;
#18 = ORIENTED_EDGE ( 'NONE', *, *, #211, .T. ) ;
#19 = ADVANCED_FACE ( 'NONE', ( #244 ), #224, .T. ) ;
#20 =( NAMED_UNIT ( * ) SI_UNIT ( $, .STERADIAN. ) SOLID_ANGLE_UNIT ( ) );
#21 = CIRCLE ( 'NONE', #47, 0.1562500000000000000 ) ;
#22 = AXIS2_PLACEMENT_3D ( 'NONE', #276, #214, #65 ) ;
#23 = VERTEX_POINT ( 'NONE', #217 ) ;
#24 = FACE_OUTER_BOUND ( 'NONE', #9, .T. ) ;
#25 = CYLINDRICAL_SURFACE ( 'NONE', #182, 0.1562500000000000000 ) ;
#26 = COLOUR_RGB ( '',1.000000000000000000, 0.000000000000000000, 0.000000000000000000 ) ;
#27 = SURFACE_STYLE_USAGE ( .BOTH. , #172 ) ;
#28 = CARTESIAN_POINT ( 'NONE',  ( 0.000000000000000000, 0.000000000000000000, 0.000000000000000000 ) ) ;
#29 = DIRECTION ( 'NONE',  ( -1.000000000000000000, 8.164311994315692567E-17, 0.000000000000000000 ) ) ;
#30 = VECTOR ( 'NONE', #153, 39.37007874015748143 ) ;
#31 = AXIS2_PLACEMENT_3D ( 'NONE', #129, #266, #251 ) ;
#32 = DIRECTION ( 'NONE',  ( 0.000000000000000000, 0.000000000000000000, -1.000000000000000000 ) ) ;
#33 = EDGE_CURVE ( 'NONE', #185, #256, #228, .T. ) ;
#34 = UNCERTAINTY_MEASURE_WITH_UNIT (LENGTH_MEASURE( 1.000000000000000082E-05 ), #162, 'distance_accuracy_value', 'NONE');
#35 = DIRECTION ( 'NONE',  ( 0.000000000000000000, 0.000000000000000000, -1.000000000000000000 ) ) ;
#36 =( NAMED_UNIT ( * ) SI_UNIT ( $, .STERADIAN. ) SOLID_ANGLE_UNIT ( ) );
#37 = ORIENTED_EDGE ( 'NONE', *, *, #53, .T. ) ;
#38 = SURFACE_STYLE_FILL_AREA ( #152 ) ;
#39 = UNCERTAINTY_MEASURE_WITH_UNIT (LENGTH_MEASURE( 1.000000000000000082E-05 ), #237, 'distance_accuracy_value', 'NONE');
#40 = SURFACE_SIDE_STYLE ('',( #38 ) ) ;
#41 = EDGE_LOOP ( 'NONE', ( #154, #273, #64, #14 ) ) ;
#42 = COLOUR_RGB ( '',0.7921568627450980005, 0.8196078431372548767, 0.9333333333333333481 ) ;
#43 = CARTESIAN_POINT ( 'NONE',  ( 0.1562500000000000000, 2.000000000000000000, 1.913510623667738847E-17 ) ) ;
#44 = CYLINDRICAL_SURFACE ( 'NONE', #147, 0.1562499999999999445 ) ;
#45 = PRESENTATION_STYLE_ASSIGNMENT (( #166 ) ) ;
#46 = PRODUCT_DEFINITION_FORMATION_WITH_SPECIFIED_SOURCE ( 'ANY', '', #291, .NOT_KNOWN. ) ;
#47 = AXIS2_PLACEMENT_3D ( 'NONE', #8, #208, #255 ) ;
#48 = ORIENTED_EDGE ( 'NONE', *, *, #236, .T. ) ;
#49 =( CONVERSION_BASED_UNIT ( 'INCH', #284 ) LENGTH_UNIT ( ) NAMED_UNIT ( #81 ) );
#50 = SURFACE_STYLE_USAGE ( .BOTH. , #66 ) ;
#51 = VECTOR ( 'NONE', #193, 39.37007874015748143 ) ;
#52 = COLOUR_RGB ( '',1.000000000000000000, 0.000000000000000000, 0.000000000000000000 ) ;
#53 = EDGE_CURVE ( 'NONE', #74, #233, #133, .T. ) ;
#54 =( NAMED_UNIT ( * ) SI_UNIT ( $, .STERADIAN. ) SOLID_ANGLE_UNIT ( ) );
#55 = PLANE ( 'NONE',  #168 ) ;
#56 = LENGTH_MEASURE_WITH_UNIT ( LENGTH_MEASURE( 0.02539999999999999897 ), #164 );
#57 = VECTOR ( 'NONE', #302, 39.37007874015748143 ) ;
#58 =( GEOMETRIC_REPRESENTATION_CONTEXT ( 3 ) GLOBAL_UNCERTAINTY_ASSIGNED_CONTEXT ( ( #252 ) ) GLOBAL_UNIT_ASSIGNED_CONTEXT ( ( #243, #238, #20 ) ) REPRESENTATION_CONTEXT ( 'NONE', 'WORKASPACE' ) );
#59 = FILL_AREA_STYLE_COLOUR ( '', #88 ) ;
#60 =( GEOMETRIC_REPRESENTATION_CONTEXT ( 3 ) GLOBAL_UNCERTAINTY_ASSIGNED_CONTEXT ( ( #34 ) ) GLOBAL_UNIT_ASSIGNED_CONTEXT ( ( #162, #221, #54 ) ) REPRESENTATION_CONTEXT ( 'NONE', 'WORKASPACE' ) );
#61 = ADVANCED_FACE ( 'NONE', ( #143 ), #55, .F. ) ;
#62 = FILL_AREA_STYLE_COLOUR ( '', #262 ) ;
#63 = CARTESIAN_POINT ( 'NONE',  ( 1.913510623667739463E-17, 0.000000000000000000, 0.1562500000000000000 ) ) ;
#64 = ORIENTED_EDGE ( 'NONE', *, *, #78, .T. ) ;
#65 = DIRECTION ( 'NONE',  ( 0.000000000000000000, 0.000000000000000000, -1.000000000000000000 ) ) ;
#66 = SURFACE_SIDE_STYLE ('',( #161 ) ) ;
#67 = EDGE_CURVE ( 'NONE', #233, #74, #15, .T. ) ;
#68 = STYLED_ITEM ( 'NONE', ( #200 ), #177 ) ;
#69 = CLOSED_SHELL ( 'NONE', ( #1, #61, #19, #250 ) ) ;
#70 = CARTESIAN_POINT ( 'NONE',  ( 0.000000000000000000, 0.5000000000000000000, 0.000000000000000000 ) ) ;
#71 = DIRECTION ( 'NONE',  ( 0.000000000000000000, 1.000000000000000000, 0.000000000000000000 ) ) ;
#72 = CIRCLE ( 'NONE', #198, 0.1562500000000000000 ) ;
#73 = AXIS2_PLACEMENT_3D ( 'NONE', #100, #202, #165 ) ;
#74 = VERTEX_POINT ( 'NONE', #102 ) ;
#75 = FILL_AREA_STYLE_COLOUR ( '', #144 ) ;
#76 =( NAMED_UNIT ( * ) SI_UNIT ( $, .STERADIAN. ) SOLID_ANGLE_UNIT ( ) );
#77 = SURFACE_STYLE_FILL_AREA ( #4 ) ;
#78 = EDGE_CURVE ( 'NONE', #158, #256, #173, .T. ) ;
#79 = DIRECTION ( 'NONE',  ( 0.000000000000000000, -1.000000000000000000, -0.000000000000000000 ) ) ;
#80 = FILL_AREA_STYLE ('',( #125 ) ) ;
#81 = DIMENSIONAL_EXPONENTS ( 1.000000000000000000, 0.000000000000000000, 0.000000000000000000, 0.000000000000000000, 0.000000000000000000, 0.000000000000000000, 0.000000000000000000 ) ;
#82 = DIRECTION ( 'NONE',  ( 8.164311994315692567E-17, 1.000000000000000000, -0.000000000000000000 ) ) ;
#83 = UNCERTAINTY_MEASURE_WITH_UNIT (LENGTH_MEASURE( 1.000000000000000082E-05 ), #108, 'distance_accuracy_value', 'NONE');
#84 = DIRECTION ( 'NONE',  ( 0.000000000000000000, 0.000000000000000000, -1.000000000000000000 ) ) ;
#85 = LENGTH_MEASURE_WITH_UNIT ( LENGTH_MEASURE( 0.02539999999999999897 ), #229 );
#86 = DIMENSIONAL_EXPONENTS ( 1.000000000000000000, 0.000000000000000000, 0.000000000000000000, 0.000000000000000000, 0.000000000000000000, 0.000000000000000000, 0.000000000000000000 ) ;
#87 = ORIENTED_EDGE ( 'NONE', *, *, #283, .F. ) ;
#88 = COLOUR_RGB ( '',0.7921568627450980005, 0.8196078431372548767, 0.9333333333333333481 ) ;
#89 = DIRECTION ( 'NONE',  ( -8.164311994315692567E-17, -1.000000000000000000, 0.000000000000000000 ) ) ;
#90 = ORIENTED_EDGE ( 'NONE', *, *, #211, .F. ) ;
#91 = EDGE_CURVE ( 'NONE', #23, #158, #305, .T. ) ;
#92 = VERTEX_POINT ( 'NONE', #117 ) ;
#93 = APPLICATION_CONTEXT ( 'automotive_design' ) ;
#94 = LENGTH_MEASURE_WITH_UNIT ( LENGTH_MEASURE( 0.02539999999999999897 ), #138 );
#95 = CARTESIAN_POINT ( 'NONE',  ( 1.224646799147353700E-16, 2.000000000000000000, 0.000000000000000000 ) ) ;
#96 =( LENGTH_UNIT ( ) NAMED_UNIT ( * ) SI_UNIT ( $, .METRE. ) );
#97 = FILL_AREA_STYLE ('',( #121 ) ) ;
#98 = CIRCLE ( 'NONE', #230, 0.1562499999999998612 ) ;
#99 = FACE_OUTER_BOUND ( 'NONE', #210, .T. ) ;
#100 = CARTESIAN_POINT ( 'NONE',  ( 1.224646799147353700E-16, 2.000000000000000000, 0.000000000000000000 ) ) ;
#101 = CARTESIAN_POINT ( 'NONE',  ( 0.000000000000000000, 0.5000000000000001110, 0.000000000000000000 ) ) ;
#102 = CARTESIAN_POINT ( 'NONE',  ( -0.1562500000000000000, 0.5000000000000001110, 0.000000000000000000 ) ) ;
#103 = CARTESIAN_POINT ( 'NONE',  ( 0.000000000000000000, 0.5000000000000001110, 0.000000000000000000 ) ) ;
#104 = EDGE_CURVE ( 'NONE', #23, #185, #306, .T. ) ;
#105 = CARTESIAN_POINT ( 'NONE',  ( 0.000000000000000000, 0.5000000000000000000, 0.000000000000000000 ) ) ;
#106 = DIRECTION ( 'NONE',  ( -1.000000000000000000, 0.000000000000000000, 0.000000000000000000 ) ) ;
#107 = CARTESIAN_POINT ( 'NONE',  ( 0.000000000000000000, 0.000000000000000000, 0.000000000000000000 ) ) ;
#108 =( CONVERSION_BASED_UNIT ( 'INCH', #270 ) LENGTH_UNIT ( ) NAMED_UNIT ( #253 ) );
#109 = AXIS2_PLACEMENT_3D ( 'NONE', #70, #71, #234 ) ;
#110 = DIMENSIONAL_EXPONENTS ( 1.000000000000000000, 0.000000000000000000, 0.000000000000000000, 0.000000000000000000, 0.000000000000000000, 0.000000000000000000, 0.000000000000000000 ) ;
#111 = PLANE ( 'NONE',  #268 ) ;
#112 = CARTESIAN_POINT ( 'NONE',  ( 0.1562500000000000000, 0.5000000000000001110, 1.913510623667738847E-17 ) ) ;
#113 = PRODUCT_DEFINITION_SHAPE ( 'NONE', 'NONE',  #219 ) ;
#114 = MECHANICAL_DESIGN_GEOMETRIC_PRESENTATION_REPRESENTATION (  '', ( #17 ), #245 ) ;
#115 = EDGE_LOOP ( 'NONE', ( #48, #258, #232, #183 ) ) ;
#116 = ORIENTED_EDGE ( 'NONE', *, *, #67, .F. ) ;
#117 = CARTESIAN_POINT ( 'NONE',  ( -0.1562499999999997224, 2.000000000000000000, 0.000000000000000000 ) ) ;
#118 = CARTESIAN_POINT ( 'NONE',  ( 1.224646799147353700E-16, 2.000000000000000000, 0.000000000000000000 ) ) ;
#119 = CIRCLE ( 'NONE', #295, 0.1562499999999998612 ) ;
#120 = CYLINDRICAL_SURFACE ( 'NONE', #22, 0.1562500000000000000 ) ;
#121 = FILL_AREA_STYLE_COLOUR ( '', #42 ) ;
#122 = PRESENTATION_STYLE_ASSIGNMENT (( #259 ) ) ;
#123 = PRESENTATION_STYLE_ASSIGNMENT (( #27 ) ) ;
#124 = APPLICATION_PROTOCOL_DEFINITION ( 'draft international standard', 'automotive_design', 1998, #93 ) ;
#125 = FILL_AREA_STYLE_COLOUR ( '', #26 ) ;
#126 = FACE_OUTER_BOUND ( 'NONE', #115, .T. ) ;
#127 = PRESENTATION_LAYER_ASSIGNMENT (  '', '', ( #281 ) ) ;
#128 =( NAMED_UNIT ( * ) SI_UNIT ( $, .STERADIAN. ) SOLID_ANGLE_UNIT ( ) );
#129 = CARTESIAN_POINT ( 'NONE',  ( 0.000000000000000000, 0.5000000000000000000, 0.000000000000000000 ) ) ;
#130 = DIMENSIONAL_EXPONENTS ( 1.000000000000000000, 0.000000000000000000, 0.000000000000000000, 0.000000000000000000, 0.000000000000000000, 0.000000000000000000, 0.000000000000000000 ) ;
#131 = CARTESIAN_POINT ( 'NONE',  ( 0.1562500000000000000, 2.000000000000000000, 0.000000000000000000 ) ) ;
#132 = EDGE_CURVE ( 'NONE', #303, #92, #119, .T. ) ;
#133 = CIRCLE ( 'NONE', #261, 0.1562500000000000000 ) ;
#134 = AXIS2_PLACEMENT_3D ( 'NONE', #107, #225, #6 ) ;
#135 =( NAMED_UNIT ( * ) PLANE_ANGLE_UNIT ( ) SI_UNIT ( $, .RADIAN. ) );
#136 = ORIENTED_EDGE ( 'NONE', *, *, #91, .F. ) ;
#137 =( GEOMETRIC_REPRESENTATION_CONTEXT ( 3 ) GLOBAL_UNCERTAINTY_ASSIGNED_CONTEXT ( ( #296 ) ) GLOBAL_UNIT_ASSIGNED_CONTEXT ( ( #150, #135, #181 ) ) REPRESENTATION_CONTEXT ( 'NONE', 'WORKASPACE' ) );
#138 =( LENGTH_UNIT ( ) NAMED_UNIT ( * ) SI_UNIT ( $, .METRE. ) );
#139 = EDGE_LOOP ( 'NONE', ( #209, #275 ) ) ;
#140 = FACE_OUTER_BOUND ( 'NONE', #41, .T. ) ;
#141 = MECHANICAL_DESIGN_GEOMETRIC_PRESENTATION_REPRESENTATION (  '', ( #68 ), #151 ) ;
#142 = STYLED_ITEM ( 'NONE', ( #122 ), #279 ) ;
#143 = FACE_OUTER_BOUND ( 'NONE', #149, .T. ) ;
#144 = COLOUR_RGB ( '',1.000000000000000000, 0.000000000000000000, 0.000000000000000000 ) ;
#145 = DIRECTION ( 'NONE',  ( 8.164311994315692567E-17, 1.000000000000000000, -0.000000000000000000 ) ) ;
#146 = SHAPE_DEFINITION_REPRESENTATION ( #113, #309 ) ;
#147 = AXIS2_PLACEMENT_3D ( 'NONE', #118, #307, #106 ) ;
#148 = EDGE_CURVE ( 'NONE', #74, #92, #215, .T. ) ;
#149 = EDGE_LOOP ( 'NONE', ( #300, #116 ) ) ;
#150 =( CONVERSION_BASED_UNIT ( 'INCH', #85 ) LENGTH_UNIT ( ) NAMED_UNIT ( #130 ) );
#151 =( GEOMETRIC_REPRESENTATION_CONTEXT ( 3 ) GLOBAL_UNCERTAINTY_ASSIGNED_CONTEXT ( ( #83 ) ) GLOBAL_UNIT_ASSIGNED_CONTEXT ( ( #108, #274, #36 ) ) REPRESENTATION_CONTEXT ( 'NONE', 'WORKASPACE' ) );
#152 = FILL_AREA_STYLE ('',( #62 ) ) ;
#153 = DIRECTION ( 'NONE',  ( 8.164311994315692567E-17, 1.000000000000000000, -0.000000000000000000 ) ) ;
#154 = ORIENTED_EDGE ( 'NONE', *, *, #104, .F. ) ;
#155 = MANIFOLD_SOLID_BREP ( 'Revolve - Tool Body (Straight Shanked)', #69 ) ;
#156 = AXIS2_PLACEMENT_3D ( 'NONE', #28, #79, #240 ) ;
#157 = CARTESIAN_POINT ( 'NONE',  ( 1.224646799147353700E-16, 2.000000000000000000, 0.000000000000000000 ) ) ;
#158 = VERTEX_POINT ( 'NONE', #246 ) ;
#159 = ADVANCED_FACE ( 'NONE', ( #99 ), #280, .T. ) ;
#160 = AXIS2_PLACEMENT_3D ( 'NONE', #171, #5, #32 ) ;
#161 = SURFACE_STYLE_FILL_AREA ( #97 ) ;
#162 =( CONVERSION_BASED_UNIT ( 'INCH', #56 ) LENGTH_UNIT ( ) NAMED_UNIT ( #86 ) );
#163 = SURFACE_STYLE_FILL_AREA ( #218 ) ;
#164 =( LENGTH_UNIT ( ) NAMED_UNIT ( * ) SI_UNIT ( $, .METRE. ) );
#165 = DIRECTION ( 'NONE',  ( -1.000000000000000000, 0.000000000000000000, 0.000000000000000000 ) ) ;
#166 = SURFACE_STYLE_USAGE ( .BOTH. , #40 ) ;
#167 = APPLICATION_CONTEXT ( 'automotive_design' ) ;
#168 = AXIS2_PLACEMENT_3D ( 'NONE', #241, #82, #29 ) ;
#169 =( NAMED_UNIT ( * ) PLANE_ANGLE_UNIT ( ) SI_UNIT ( $, .RADIAN. ) );
#170 = SURFACE_SIDE_STYLE ('',( #216 ) ) ;
#171 = CARTESIAN_POINT ( 'NONE',  ( 0.000000000000000000, 0.000000000000000000, 0.000000000000000000 ) ) ;
#172 = SURFACE_SIDE_STYLE ('',( #77 ) ) ;
#173 = LINE ( 'NONE', #199, #195 ) ;
#174 = PRESENTATION_STYLE_ASSIGNMENT (( #201 ) ) ;
#175 = PRESENTATION_LAYER_ASSIGNMENT (  '', '', ( #242 ) ) ;
#176 =( GEOMETRIC_REPRESENTATION_CONTEXT ( 3 ) GLOBAL_UNCERTAINTY_ASSIGNED_CONTEXT ( ( #178 ) ) GLOBAL_UNIT_ASSIGNED_CONTEXT ( ( #49, #301, #128 ) ) REPRESENTATION_CONTEXT ( 'NONE', 'WORKASPACE' ) );
#177 = ADVANCED_FACE ( 'NONE', ( #126 ), #25, .T. ) ;
#178 = UNCERTAINTY_MEASURE_WITH_UNIT (LENGTH_MEASURE( 1.000000000000000082E-05 ), #49, 'distance_accuracy_value', 'NONE');
#179 = CARTESIAN_POINT ( 'NONE',  ( 0.000000000000000000, 0.000000000000000000, 0.000000000000000000 ) ) ;
#180 = ORIENTED_EDGE ( 'NONE', *, *, #148, .T. ) ;
#181 =( NAMED_UNIT ( * ) SI_UNIT ( $, .STERADIAN. ) SOLID_ANGLE_UNIT ( ) );
#182 = AXIS2_PLACEMENT_3D ( 'NONE', #179, #204, #84 ) ;
#183 = ORIENTED_EDGE ( 'NONE', *, *, #78, .F. ) ;
#184 = FACE_OUTER_BOUND ( 'NONE', #249, .T. ) ;
#185 = VERTEX_POINT ( 'NONE', #63 ) ;
#186 = PRODUCT_DEFINITION_CONTEXT ( 'detailed design', #167, 'design' ) ;
#187 = CARTESIAN_POINT ( 'NONE',  ( 1.913510623667739463E-17, 0.000000000000000000, 0.1562500000000000000 ) ) ;
#188 =( NAMED_UNIT ( * ) PLANE_ANGLE_UNIT ( ) SI_UNIT ( $, .RADIAN. ) );
#189 = EDGE_CURVE ( 'NONE', #256, #185, #21, .T. ) ;
#190 =( GEOMETRIC_REPRESENTATION_CONTEXT ( 3 ) GLOBAL_UNCERTAINTY_ASSIGNED_CONTEXT ( ( #7 ) ) GLOBAL_UNIT_ASSIGNED_CONTEXT ( ( #289, #169, #267 ) ) REPRESENTATION_CONTEXT ( 'NONE', 'WORKASPACE' ) );
#191 = SURFACE_SIDE_STYLE ('',( #163 ) ) ;
#192 = CARTESIAN_POINT ( 'NONE',  ( -0.1562499999999998057, 2.000000000000000000, 0.000000000000000000 ) ) ;
#193 = DIRECTION ( 'NONE',  ( 8.164311994315692567E-17, 1.000000000000000000, -0.000000000000000000 ) ) ;
#194 = ORIENTED_EDGE ( 'NONE', *, *, #148, .F. ) ;
#195 = VECTOR ( 'NONE', #290, 39.37007874015748143 ) ;
#196 = SURFACE_STYLE_USAGE ( .BOTH. , #170 ) ;
#197 = MECHANICAL_DESIGN_GEOMETRIC_PRESENTATION_REPRESENTATION (  '', ( #242 ), #190 ) ;
#198 = AXIS2_PLACEMENT_3D ( 'NONE', #105, #11, #35 ) ;
#199 = CARTESIAN_POINT ( 'NONE',  ( 0.000000000000000000, 0.000000000000000000, -0.1562500000000000000 ) ) ;
#200 = PRESENTATION_STYLE_ASSIGNMENT (( #196 ) ) ;
#201 = SURFACE_STYLE_USAGE ( .BOTH. , #13 ) ;
#202 = DIRECTION ( 'NONE',  ( 8.164311994315692567E-17, 1.000000000000000000, -0.000000000000000000 ) ) ;
#203 = DIMENSIONAL_EXPONENTS ( 1.000000000000000000, 0.000000000000000000, 0.000000000000000000, 0.000000000000000000, 0.000000000000000000, 0.000000000000000000, 0.000000000000000000 ) ;
#204 = DIRECTION ( 'NONE',  ( -0.000000000000000000, -1.000000000000000000, -0.000000000000000000 ) ) ;
#205 = PRESENTATION_LAYER_ASSIGNMENT (  '', '', ( #213 ) ) ;
#206 = DIRECTION ( 'NONE',  ( 1.000000000000000000, -8.164311994315692567E-17, 0.000000000000000000 ) ) ;
#207 = ORIENTED_EDGE ( 'NONE', *, *, #236, .F. ) ;
#208 = DIRECTION ( 'NONE',  ( -0.000000000000000000, -1.000000000000000000, -0.000000000000000000 ) ) ;
#209 = ORIENTED_EDGE ( 'NONE', *, *, #283, .T. ) ;
#210 = EDGE_LOOP ( 'NONE', ( #260, #12 ) ) ;
#211 = EDGE_CURVE ( 'NONE', #233, #303, #247, .T. ) ;
#212 =( LENGTH_UNIT ( ) NAMED_UNIT ( * ) SI_UNIT ( $, .METRE. ) );
#213 = STYLED_ITEM ( 'NONE', ( #292 ), #155 ) ;
#214 = DIRECTION ( 'NONE',  ( -0.000000000000000000, -1.000000000000000000, -0.000000000000000000 ) ) ;
#215 = LINE ( 'NONE', #192, #51 ) ;
#216 = SURFACE_STYLE_FILL_AREA ( #80 ) ;
#217 = CARTESIAN_POINT ( 'NONE',  ( 1.913510623667739463E-17, 0.5000000000000000000, 0.1562500000000000000 ) ) ;
#218 = FILL_AREA_STYLE ('',( #286 ) ) ;
#219 = PRODUCT_DEFINITION ( 'UNKNOWN', '', #46, #186 ) ;
#220 = APPLICATION_PROTOCOL_DEFINITION ( 'draft international standard', 'automotive_design', 1998, #167 ) ;
#221 =( NAMED_UNIT ( * ) PLANE_ANGLE_UNIT ( ) SI_UNIT ( $, .RADIAN. ) );
#222 = DIRECTION ( 'NONE',  ( 8.164311994315692567E-17, 1.000000000000000000, -0.000000000000000000 ) ) ;
#223 = MECHANICAL_DESIGN_GEOMETRIC_PRESENTATION_REPRESENTATION (  '', ( #142 ), #58 ) ;
#224 = CYLINDRICAL_SURFACE ( 'NONE', #73, 0.1562499999999999445 ) ;
#225 = DIRECTION ( 'NONE',  ( 0.000000000000000000, 0.000000000000000000, 1.000000000000000000 ) ) ;
#226 = FACE_OUTER_BOUND ( 'NONE', #139, .T. ) ;
#227 = CARTESIAN_POINT ( 'NONE',  ( 0.000000000000000000, 0.000000000000000000, -0.1562500000000000000 ) ) ;
#228 = CIRCLE ( 'NONE', #160, 0.1562500000000000000 ) ;
#229 =( LENGTH_UNIT ( ) NAMED_UNIT ( * ) SI_UNIT ( $, .METRE. ) );
#230 = AXIS2_PLACEMENT_3D ( 'NONE', #157, #304, #257 ) ;
#231 = FILL_AREA_STYLE ('',( #59 ) ) ;
#232 = ORIENTED_EDGE ( 'NONE', *, *, #189, .F. ) ;
#233 = VERTEX_POINT ( 'NONE', #112 ) ;
#234 = DIRECTION ( 'NONE',  ( 0.000000000000000000, -0.000000000000000000, 1.000000000000000000 ) ) ;
#235 = MECHANICAL_DESIGN_GEOMETRIC_PRESENTATION_REPRESENTATION (  '', ( #213 ), #60 ) ;
#236 = EDGE_CURVE ( 'NONE', #158, #23, #72, .T. ) ;
#237 =( CONVERSION_BASED_UNIT ( 'INCH', #16 ) LENGTH_UNIT ( ) NAMED_UNIT ( #248 ) );
#238 =( NAMED_UNIT ( * ) PLANE_ANGLE_UNIT ( ) SI_UNIT ( $, .RADIAN. ) );
#239 = DIRECTION ( 'NONE',  ( 8.164311994315692567E-17, 1.000000000000000000, -0.000000000000000000 ) ) ;
#240 = DIRECTION ( 'NONE',  ( 0.000000000000000000, 0.000000000000000000, -1.000000000000000000 ) ) ;
#241 = CARTESIAN_POINT ( 'NONE',  ( 5.207499245353677666E-34, 0.5000000000000000000, 0.000000000000000000 ) ) ;
#242 = STYLED_ITEM ( 'NONE', ( #123 ), #159 ) ;
#243 =( CONVERSION_BASED_UNIT ( 'INCH', #94 ) LENGTH_UNIT ( ) NAMED_UNIT ( #203 ) );
#244 = FACE_OUTER_BOUND ( 'NONE', #263, .T. ) ;
#245 =( GEOMETRIC_REPRESENTATION_CONTEXT ( 3 ) GLOBAL_UNCERTAINTY_ASSIGNED_CONTEXT ( ( #39 ) ) GLOBAL_UNIT_ASSIGNED_CONTEXT ( ( #237, #188, #76 ) ) REPRESENTATION_CONTEXT ( 'NONE', 'WORKASPACE' ) );
#246 = CARTESIAN_POINT ( 'NONE',  ( 0.000000000000000000, 0.5000000000000000000, -0.1562500000000000000 ) ) ;
#247 = LINE ( 'NONE', #293, #30 ) ;
#248 = DIMENSIONAL_EXPONENTS ( 1.000000000000000000, 0.000000000000000000, 0.000000000000000000, 0.000000000000000000, 0.000000000000000000, 0.000000000000000000, 0.000000000000000000 ) ;
#249 = EDGE_LOOP ( 'NONE', ( #207, #136 ) ) ;
#250 = ADVANCED_FACE ( 'NONE', ( #226 ), #111, .F. ) ;
#251 = DIRECTION ( 'NONE',  ( 0.000000000000000000, 0.000000000000000000, -1.000000000000000000 ) ) ;
#252 = UNCERTAINTY_MEASURE_WITH_UNIT (LENGTH_MEASURE( 1.000000000000000082E-05 ), #243, 'distance_accuracy_value', 'NONE');
#253 = DIMENSIONAL_EXPONENTS ( 1.000000000000000000, 0.000000000000000000, 0.000000000000000000, 0.000000000000000000, 0.000000000000000000, 0.000000000000000000, 0.000000000000000000 ) ;
#254 = ORIENTED_EDGE ( 'NONE', *, *, #132, .F. ) ;
#255 = DIRECTION ( 'NONE',  ( 0.000000000000000000, 0.000000000000000000, -1.000000000000000000 ) ) ;
#256 = VERTEX_POINT ( 'NONE', #227 ) ;
#257 = DIRECTION ( 'NONE',  ( -1.000000000000000000, 0.000000000000000000, 0.000000000000000000 ) ) ;
#258 = ORIENTED_EDGE ( 'NONE', *, *, #104, .T. ) ;
#259 = SURFACE_STYLE_USAGE ( .BOTH. , #191 ) ;
#260 = ORIENTED_EDGE ( 'NONE', *, *, #189, .T. ) ;
#261 = AXIS2_PLACEMENT_3D ( 'NONE', #103, #145, #294 ) ;
#262 = COLOUR_RGB ( '',1.000000000000000000, 0.000000000000000000, 0.000000000000000000 ) ;
#263 = EDGE_LOOP ( 'NONE', ( #90, #298, #180, #254 ) ) ;
#264 = MANIFOLD_SOLID_BREP ( 'Revolve - Cutting Edge', #265 ) ;
#265 = CLOSED_SHELL ( 'NONE', ( #177, #269, #279, #159 ) ) ;
#266 = DIRECTION ( 'NONE',  ( -0.000000000000000000, -1.000000000000000000, -0.000000000000000000 ) ) ;
#267 =( NAMED_UNIT ( * ) SI_UNIT ( $, .STERADIAN. ) SOLID_ANGLE_UNIT ( ) );
#268 = AXIS2_PLACEMENT_3D ( 'NONE', #131, #89, #206 ) ;
#269 = ADVANCED_FACE ( 'NONE', ( #184 ), #271, .T. ) ;
#270 = LENGTH_MEASURE_WITH_UNIT ( LENGTH_MEASURE( 0.02539999999999999897 ), #299 );
#271 = PLANE ( 'NONE',  #109 ) ;
#272 = MECHANICAL_DESIGN_GEOMETRIC_PRESENTATION_REPRESENTATION (  '', ( #281 ), #137 ) ;
#273 = ORIENTED_EDGE ( 'NONE', *, *, #91, .T. ) ;
#274 =( NAMED_UNIT ( * ) PLANE_ANGLE_UNIT ( ) SI_UNIT ( $, .RADIAN. ) );
#275 = ORIENTED_EDGE ( 'NONE', *, *, #132, .T. ) ;
#276 = CARTESIAN_POINT ( 'NONE',  ( 0.000000000000000000, 0.000000000000000000, 0.000000000000000000 ) ) ;
#277 = DIRECTION ( 'NONE',  ( -1.000000000000000000, 0.000000000000000000, 0.000000000000000000 ) ) ;
#278 = PRESENTATION_LAYER_ASSIGNMENT (  '', '', ( #142 ) ) ;
#279 = ADVANCED_FACE ( 'NONE', ( #140 ), #120, .T. ) ;
#280 = PLANE ( 'NONE',  #156 ) ;
#281 = STYLED_ITEM ( 'NONE', ( #174 ), #264 ) ;
#282 = LENGTH_MEASURE_WITH_UNIT ( LENGTH_MEASURE( 0.02539999999999999897 ), #285 );
#283 = EDGE_CURVE ( 'NONE', #92, #303, #98, .T. ) ;
#284 = LENGTH_MEASURE_WITH_UNIT ( LENGTH_MEASURE( 0.02539999999999999897 ), #96 );
#285 =( LENGTH_UNIT ( ) NAMED_UNIT ( * ) SI_UNIT ( $, .METRE. ) );
#286 = FILL_AREA_STYLE_COLOUR ( '', #52 ) ;
#287 = DIRECTION ( 'NONE',  ( -1.000000000000000000, 0.000000000000000000, 0.000000000000000000 ) ) ;
#288 = PRESENTATION_LAYER_ASSIGNMENT (  '', '', ( #68 ) ) ;
#289 =( CONVERSION_BASED_UNIT ( 'INCH', #282 ) LENGTH_UNIT ( ) NAMED_UNIT ( #110 ) );
#290 = DIRECTION ( 'NONE',  ( -0.000000000000000000, -1.000000000000000000, -0.000000000000000000 ) ) ;
#291 = PRODUCT ( '30227W', '30227W', '', ( #2 ) ) ;
#292 = PRESENTATION_STYLE_ASSIGNMENT (( #50 ) ) ;
#293 = CARTESIAN_POINT ( 'NONE',  ( 0.1562500000000000833, 2.000000000000000000, 1.913510623667738539E-17 ) ) ;
#294 = DIRECTION ( 'NONE',  ( -1.000000000000000000, 0.000000000000000000, 0.000000000000000000 ) ) ;
#295 = AXIS2_PLACEMENT_3D ( 'NONE', #95, #239, #277 ) ;
#296 = UNCERTAINTY_MEASURE_WITH_UNIT (LENGTH_MEASURE( 1.000000000000000082E-05 ), #150, 'distance_accuracy_value', 'NONE');
#297 = SURFACE_STYLE_FILL_AREA ( #231 ) ;
#298 = ORIENTED_EDGE ( 'NONE', *, *, #67, .T. ) ;
#299 =( LENGTH_UNIT ( ) NAMED_UNIT ( * ) SI_UNIT ( $, .METRE. ) );
#300 = ORIENTED_EDGE ( 'NONE', *, *, #53, .F. ) ;
#301 =( NAMED_UNIT ( * ) PLANE_ANGLE_UNIT ( ) SI_UNIT ( $, .RADIAN. ) );
#302 = DIRECTION ( 'NONE',  ( -0.000000000000000000, -1.000000000000000000, -0.000000000000000000 ) ) ;
#303 = VERTEX_POINT ( 'NONE', #43 ) ;
#304 = DIRECTION ( 'NONE',  ( 8.164311994315692567E-17, 1.000000000000000000, -0.000000000000000000 ) ) ;
#305 = CIRCLE ( 'NONE', #31, 0.1562500000000000000 ) ;
#306 = LINE ( 'NONE', #187, #57 ) ;
#307 = DIRECTION ( 'NONE',  ( 8.164311994315692567E-17, 1.000000000000000000, -0.000000000000000000 ) ) ;
#308 = PRODUCT_RELATED_PRODUCT_CATEGORY ( 'part', '', ( #291 ) ) ;
#309 = ADVANCED_BREP_SHAPE_REPRESENTATION ( '30227W', ( #264, #155, #134 ), #176 ) ;
ENDSEC;
END-ISO-10303-21;
