ISO-10303-21;
HEADER;
FILE_DESCRIPTION (( 'STEP AP214' ),
    '1' );
FILE_NAME ('59676.STEP',
    '2023-07-24T15:52:41',
    ( '' ),
    ( '' ),
    'SwSTEP 2.0',
    'SolidWorks 2023',
    '' );
FILE_SCHEMA (( 'AUTOMOTIVE_DESIGN' ));
ENDSEC;

DATA;
#1 = VERTEX_POINT ( 'NONE', #41 ) ;
#2 = DIRECTION ( 'NONE',  ( 0.000000000000000000, 0.000000000000000000, -1.000000000000000000 ) ) ;
#3 = STYLED_ITEM ( 'NONE', ( #124 ), #30 ) ;
#4 = AXIS2_PLACEMENT_3D ( 'NONE', #188, #258, #86 ) ;
#5 = EDGE_LOOP ( 'NONE', ( #137, #82 ) ) ;
#6 =( LENGTH_UNIT ( ) NAMED_UNIT ( * ) SI_UNIT ( .MILLI., .METRE. ) );
#7 = DIRECTION ( 'NONE',  ( 0.000000000000000000, 0.000000000000000000, -1.000000000000000000 ) ) ;
#8 = DIRECTION ( 'NONE',  ( 0.000000000000000000, 1.000000000000000000, 0.000000000000000000 ) ) ;
#9 = COLOUR_RGB ( '',1.000000000000000000, 0.000000000000000000, 0.000000000000000000 ) ;
#10 = CARTESIAN_POINT ( 'NONE',  ( 0.000000000000000000, 0.000000000000000000, -8.000000000000000000 ) ) ;
#11 = UNCERTAINTY_MEASURE_WITH_UNIT (LENGTH_MEASURE( 1.000000000000000082E-05 ), #42, 'distance_accuracy_value', 'NONE');
#12 =( NAMED_UNIT ( * ) PLANE_ANGLE_UNIT ( ) SI_UNIT ( $, .RADIAN. ) );
#13 = EDGE_CURVE ( 'NONE', #198, #259, #142, .T. ) ;
#14 = FILL_AREA_STYLE ('',( #122 ) ) ;
#15 =( GEOMETRIC_REPRESENTATION_CONTEXT ( 3 ) GLOBAL_UNCERTAINTY_ASSIGNED_CONTEXT ( ( #205 ) ) GLOBAL_UNIT_ASSIGNED_CONTEXT ( ( #253, #12, #257 ) ) REPRESENTATION_CONTEXT ( 'NONE', 'WORKASPACE' ) );
#16 = DIRECTION ( 'NONE',  ( -3.498990854706722745E-17, 1.000000000000000000, -0.000000000000000000 ) ) ;
#17 = DIRECTION ( 'NONE',  ( -0.000000000000000000, -1.000000000000000000, -0.000000000000000000 ) ) ;
#18 = DIRECTION ( 'NONE',  ( -1.000000000000000000, 0.000000000000000000, 0.000000000000000000 ) ) ;
#19 = EDGE_CURVE ( 'NONE', #263, #176, #177, .T. ) ;
#20 = EDGE_CURVE ( 'NONE', #263, #259, #244, .T. ) ;
#21 = CARTESIAN_POINT ( 'NONE',  ( 8.000000000000000000, 89.00000000000000000, 9.797174393178825657E-16 ) ) ;
#22 = MECHANICAL_DESIGN_GEOMETRIC_PRESENTATION_REPRESENTATION (  '', ( #270 ), #169 ) ;
#23 = APPLICATION_CONTEXT ( 'automotive_design' ) ;
#24 = ORIENTED_EDGE ( 'NONE', *, *, #249, .F. ) ;
#25 = CARTESIAN_POINT ( 'NONE',  ( 0.000000000000000000, 0.000000000000000000, 0.000000000000000000 ) ) ;
#26 = VERTEX_POINT ( 'NONE', #21 ) ;
#27 = DIRECTION ( 'NONE',  ( -3.498990854706722745E-17, 1.000000000000000000, -0.000000000000000000 ) ) ;
#28 = ORIENTED_EDGE ( 'NONE', *, *, #19, .F. ) ;
#29 = CARTESIAN_POINT ( 'NONE',  ( 7.999999999999998224, 89.00000000000000000, 9.797174393178825657E-16 ) ) ;
#30 = MANIFOLD_SOLID_BREP ( 'Revolve - Tool Body (Straight Shanked)', #149 ) ;
#31 = FILL_AREA_STYLE_COLOUR ( '', #129 ) ;
#32 = ADVANCED_FACE ( 'NONE', ( #34 ), #123, .T. ) ;
#33 = CARTESIAN_POINT ( 'NONE',  ( 0.000000000000000000, 0.000000000000000000, -8.000000000000000000 ) ) ;
#34 = FACE_OUTER_BOUND ( 'NONE', #227, .T. ) ;
#35 = AXIS2_PLACEMENT_3D ( 'NONE', #212, #81, #37 ) ;
#36 =( NAMED_UNIT ( * ) PLANE_ANGLE_UNIT ( ) SI_UNIT ( $, .RADIAN. ) );
#37 = DIRECTION ( 'NONE',  ( -1.000000000000000000, 0.000000000000000000, 0.000000000000000000 ) ) ;
#38 =( GEOMETRIC_REPRESENTATION_CONTEXT ( 3 ) GLOBAL_UNCERTAINTY_ASSIGNED_CONTEXT ( ( #189 ) ) GLOBAL_UNIT_ASSIGNED_CONTEXT ( ( #79, #36, #254 ) ) REPRESENTATION_CONTEXT ( 'NONE', 'WORKASPACE' ) );
#39 = PRESENTATION_LAYER_ASSIGNMENT (  '', '', ( #3 ) ) ;
#40 = AXIS2_PLACEMENT_3D ( 'NONE', #126, #103, #55 ) ;
#41 = CARTESIAN_POINT ( 'NONE',  ( -8.000000000000000000, 40.00000000000000000, 0.000000000000000000 ) ) ;
#42 =( LENGTH_UNIT ( ) NAMED_UNIT ( * ) SI_UNIT ( .MILLI., .METRE. ) );
#43 = DIRECTION ( 'NONE',  ( -0.000000000000000000, -1.000000000000000000, -0.000000000000000000 ) ) ;
#44 = SURFACE_SIDE_STYLE ('',( #159 ) ) ;
#45 = COLOUR_RGB ( '',1.000000000000000000, 0.000000000000000000, 0.000000000000000000 ) ;
#46 = AXIS2_PLACEMENT_3D ( 'NONE', #128, #283, #281 ) ;
#47 = PRESENTATION_STYLE_ASSIGNMENT (( #264 ) ) ;
#48 = ORIENTED_EDGE ( 'NONE', *, *, #267, .T. ) ;
#49 = PRESENTATION_STYLE_ASSIGNMENT (( #285 ) ) ;
#50 = AXIS2_PLACEMENT_3D ( 'NONE', #158, #197, #287 ) ;
#51 = EDGE_CURVE ( 'NONE', #176, #263, #211, .T. ) ;
#52 = LINE ( 'NONE', #33, #247 ) ;
#53 = PRESENTATION_LAYER_ASSIGNMENT (  '', '', ( #223 ) ) ;
#54 = PLANE ( 'NONE',  #240 ) ;
#55 = DIRECTION ( 'NONE',  ( -1.000000000000000000, 0.000000000000000000, 0.000000000000000000 ) ) ;
#56 = EDGE_LOOP ( 'NONE', ( #92, #28 ) ) ;
#57 = CYLINDRICAL_SURFACE ( 'NONE', #216, 8.000000000000000000 ) ;
#58 = FACE_OUTER_BOUND ( 'NONE', #195, .T. ) ;
#59 = DIRECTION ( 'NONE',  ( -1.000000000000000000, 0.000000000000000000, 0.000000000000000000 ) ) ;
#60 = CARTESIAN_POINT ( 'NONE',  ( -1.714505518806293849E-15, 89.00000000000000000, 0.000000000000000000 ) ) ;
#61 = EDGE_CURVE ( 'NONE', #224, #26, #200, .T. ) ;
#62 = MECHANICAL_DESIGN_GEOMETRIC_PRESENTATION_REPRESENTATION (  '', ( #84 ), #15 ) ;
#63 = DIRECTION ( 'NONE',  ( -3.498990854706722745E-17, 1.000000000000000000, -0.000000000000000000 ) ) ;
#64 = DIRECTION ( 'NONE',  ( -0.000000000000000000, -1.000000000000000000, -0.000000000000000000 ) ) ;
#65 = ORIENTED_EDGE ( 'NONE', *, *, #51, .T. ) ;
#66 = PLANE ( 'NONE',  #4 ) ;
#67 = ORIENTED_EDGE ( 'NONE', *, *, #279, .F. ) ;
#68 = CARTESIAN_POINT ( 'NONE',  ( 0.000000000000000000, 40.00000000000000000, 0.000000000000000000 ) ) ;
#69 = PRESENTATION_LAYER_ASSIGNMENT (  '', '', ( #84 ) ) ;
#70 = FACE_OUTER_BOUND ( 'NONE', #71, .T. ) ;
#71 = EDGE_LOOP ( 'NONE', ( #155, #67 ) ) ;
#72 = DIRECTION ( 'NONE',  ( -3.498990854706722745E-17, 1.000000000000000000, -0.000000000000000000 ) ) ;
#73 = DIRECTION ( 'NONE',  ( -0.000000000000000000, -1.000000000000000000, -0.000000000000000000 ) ) ;
#74 = MECHANICAL_DESIGN_GEOMETRIC_PRESENTATION_REPRESENTATION (  '', ( #286 ), #38 ) ;
#75 = DIRECTION ( 'NONE',  ( 3.498990854706722745E-17, -1.000000000000000000, 0.000000000000000000 ) ) ;
#76 = CARTESIAN_POINT ( 'NONE',  ( 8.000000000000000000, 40.00000000000000000, 9.797174393178825657E-16 ) ) ;
#77 = SURFACE_STYLE_USAGE ( .BOTH. , #125 ) ;
#78 = AXIS2_PLACEMENT_3D ( 'NONE', #102, #145, #167 ) ;
#79 =( LENGTH_UNIT ( ) NAMED_UNIT ( * ) SI_UNIT ( .MILLI., .METRE. ) );
#80 = PRESENTATION_STYLE_ASSIGNMENT (( #77 ) ) ;
#81 = DIRECTION ( 'NONE',  ( -3.498990854706722745E-17, 1.000000000000000000, -0.000000000000000000 ) ) ;
#82 = ORIENTED_EDGE ( 'NONE', *, *, #193, .T. ) ;
#83 = EDGE_CURVE ( 'NONE', #1, #113, #140, .T. ) ;
#84 = STYLED_ITEM ( 'NONE', ( #80 ), #239 ) ;
#85 = FACE_OUTER_BOUND ( 'NONE', #194, .T. ) ;
#86 = DIRECTION ( 'NONE',  ( 0.000000000000000000, 0.000000000000000000, -1.000000000000000000 ) ) ;
#87 = CARTESIAN_POINT ( 'NONE',  ( 1.925929944387235853E-31, 40.00000000000000000, 0.000000000000000000 ) ) ;
#88 = ORIENTED_EDGE ( 'NONE', *, *, #83, .F. ) ;
#89 = AXIS2_PLACEMENT_3D ( 'NONE', #68, #117, #141 ) ;
#90 = EDGE_LOOP ( 'NONE', ( #173, #139 ) ) ;
#91 = SURFACE_STYLE_USAGE ( .BOTH. , #44 ) ;
#92 = ORIENTED_EDGE ( 'NONE', *, *, #51, .F. ) ;
#93 = FACE_OUTER_BOUND ( 'NONE', #90, .T. ) ;
#94 = ORIENTED_EDGE ( 'NONE', *, *, #193, .F. ) ;
#95 = PRESENTATION_STYLE_ASSIGNMENT (( #91 ) ) ;
#96 = VECTOR ( 'NONE', #43, 1000.000000000000000 ) ;
#97 = FACE_OUTER_BOUND ( 'NONE', #219, .T. ) ;
#98 = CARTESIAN_POINT ( 'NONE',  ( -8.000000000000003553, 89.00000000000000000, 0.000000000000000000 ) ) ;
#99 = AXIS2_PLACEMENT_3D ( 'NONE', #132, #17, #171 ) ;
#100 = CARTESIAN_POINT ( 'NONE',  ( -1.714505518806293849E-15, 89.00000000000000000, 0.000000000000000000 ) ) ;
#101 =( NAMED_UNIT ( * ) SI_UNIT ( $, .STERADIAN. ) SOLID_ANGLE_UNIT ( ) );
#102 = CARTESIAN_POINT ( 'NONE',  ( 0.000000000000000000, 0.000000000000000000, 0.000000000000000000 ) ) ;
#103 = DIRECTION ( 'NONE',  ( -3.498990854706722745E-17, 1.000000000000000000, -0.000000000000000000 ) ) ;
#104 = VECTOR ( 'NONE', #27, 1000.000000000000000 ) ;
#105 =( GEOMETRIC_REPRESENTATION_CONTEXT ( 3 ) GLOBAL_UNCERTAINTY_ASSIGNED_CONTEXT ( ( #11 ) ) GLOBAL_UNIT_ASSIGNED_CONTEXT ( ( #42, #170, #214 ) ) REPRESENTATION_CONTEXT ( 'NONE', 'WORKASPACE' ) );
#106 =( NAMED_UNIT ( * ) PLANE_ANGLE_UNIT ( ) SI_UNIT ( $, .RADIAN. ) );
#107 = ADVANCED_FACE ( 'NONE', ( #97 ), #222, .T. ) ;
#108 = AXIS2_PLACEMENT_3D ( 'NONE', #25, #73, #7 ) ;
#109 = PRODUCT_CONTEXT ( 'NONE', #23, 'mechanical' ) ;
#110 = FILL_AREA_STYLE_COLOUR ( '', #172 ) ;
#111 = COLOUR_RGB ( '',0.7921568627450980005, 0.8196078431372548767, 0.9333333333333333481 ) ;
#112 = FILL_AREA_STYLE ('',( #245 ) ) ;
#113 = VERTEX_POINT ( 'NONE', #98 ) ;
#114 = CARTESIAN_POINT ( 'NONE',  ( -8.000000000000001776, 89.00000000000000000, 0.000000000000000000 ) ) ;
#115 = ORIENTED_EDGE ( 'NONE', *, *, #13, .F. ) ;
#116 = CARTESIAN_POINT ( 'NONE',  ( 0.000000000000000000, 40.00000000000000000, -8.000000000000000000 ) ) ;
#117 = DIRECTION ( 'NONE',  ( -0.000000000000000000, -1.000000000000000000, -0.000000000000000000 ) ) ;
#118 = ADVANCED_FACE ( 'NONE', ( #70 ), #135, .F. ) ;
#119 = PRESENTATION_LAYER_ASSIGNMENT (  '', '', ( #270 ) ) ;
#120 = SURFACE_STYLE_USAGE ( .BOTH. , #234 ) ;
#121 = MECHANICAL_DESIGN_GEOMETRIC_PRESENTATION_REPRESENTATION (  '', ( #223 ), #196 ) ;
#122 = FILL_AREA_STYLE_COLOUR ( '', #111 ) ;
#123 = CYLINDRICAL_SURFACE ( 'NONE', #184, 8.000000000000000000 ) ;
#124 = PRESENTATION_STYLE_ASSIGNMENT (( #120 ) ) ;
#125 = SURFACE_SIDE_STYLE ('',( #275 ) ) ;
#126 = CARTESIAN_POINT ( 'NONE',  ( -1.714505518806293849E-15, 89.00000000000000000, 0.000000000000000000 ) ) ;
#127 = APPLICATION_PROTOCOL_DEFINITION ( 'draft international standard', 'automotive_design', 1998, #23 ) ;
#128 = CARTESIAN_POINT ( 'NONE',  ( 0.000000000000000000, 0.000000000000000000, 0.000000000000000000 ) ) ;
#129 = COLOUR_RGB ( '',0.7921568627450980005, 0.8196078431372548767, 0.9333333333333333481 ) ;
#130 = PRESENTATION_LAYER_ASSIGNMENT (  '', '', ( #286 ) ) ;
#131 = FILL_AREA_STYLE ('',( #231 ) ) ;
#132 = CARTESIAN_POINT ( 'NONE',  ( 0.000000000000000000, 0.000000000000000000, 0.000000000000000000 ) ) ;
#133 = SURFACE_SIDE_STYLE ('',( #282 ) ) ;
#134 = ORIENTED_EDGE ( 'NONE', *, *, #61, .T. ) ;
#135 = PLANE ( 'NONE',  #50 ) ;
#136 = CIRCLE ( 'NONE', #78, 8.000000000000000000 ) ;
#137 = ORIENTED_EDGE ( 'NONE', *, *, #249, .T. ) ;
#138 = PRODUCT_RELATED_PRODUCT_CATEGORY ( 'part', '', ( #144 ) ) ;
#139 = ORIENTED_EDGE ( 'NONE', *, *, #206, .T. ) ;
#140 = LINE ( 'NONE', #114, #181 ) ;
#141 = DIRECTION ( 'NONE',  ( 0.000000000000000000, 0.000000000000000000, -1.000000000000000000 ) ) ;
#142 = CIRCLE ( 'NONE', #99, 8.000000000000000000 ) ;
#143 = STYLED_ITEM ( 'NONE', ( #95 ), #107 ) ;
#144 = PRODUCT ( '59676', '59676', '', ( #109 ) ) ;
#145 = DIRECTION ( 'NONE',  ( -0.000000000000000000, -1.000000000000000000, -0.000000000000000000 ) ) ;
#146 = PRODUCT_DEFINITION ( 'UNKNOWN', '', #204, #163 ) ;
#147 = CARTESIAN_POINT ( 'NONE',  ( 8.000000000000000000, 89.00000000000000000, 0.000000000000000000 ) ) ;
#148 = SURFACE_SIDE_STYLE ('',( #235 ) ) ;
#149 = CLOSED_SHELL ( 'NONE', ( #166, #118, #288, #217 ) ) ;
#150 = AXIS2_PLACEMENT_3D ( 'NONE', #87, #16, #59 ) ;
#151 = CARTESIAN_POINT ( 'NONE',  ( -1.714505518806293849E-15, 89.00000000000000000, 0.000000000000000000 ) ) ;
#152 = SHAPE_DEFINITION_REPRESENTATION ( #226, #160 ) ;
#153 = DIRECTION ( 'NONE',  ( 0.000000000000000000, 0.000000000000000000, -1.000000000000000000 ) ) ;
#154 = ADVANCED_FACE ( 'NONE', ( #93 ), #66, .T. ) ;
#155 = ORIENTED_EDGE ( 'NONE', *, *, #238, .F. ) ;
#156 = MECHANICAL_DESIGN_GEOMETRIC_PRESENTATION_REPRESENTATION (  '', ( #143 ), #230 ) ;
#157 = ORIENTED_EDGE ( 'NONE', *, *, #61, .F. ) ;
#158 = CARTESIAN_POINT ( 'NONE',  ( 4.897174800528513241E-33, 40.00000000000000000, 0.000000000000000000 ) ) ;
#159 = SURFACE_STYLE_FILL_AREA ( #180 ) ;
#160 = ADVANCED_BREP_SHAPE_REPRESENTATION ( '59676', ( #218, #30, #46 ), #105 ) ;
#161 = SURFACE_STYLE_FILL_AREA ( #276 ) ;
#162 = DIRECTION ( 'NONE',  ( -3.498990854706722745E-17, 1.000000000000000000, -0.000000000000000000 ) ) ;
#163 = PRODUCT_DEFINITION_CONTEXT ( 'detailed design', #179, 'design' ) ;
#164 = FACE_OUTER_BOUND ( 'NONE', #56, .T. ) ;
#165 = AXIS2_PLACEMENT_3D ( 'NONE', #60, #242, #18 ) ;
#166 = ADVANCED_FACE ( 'NONE', ( #58 ), #260, .T. ) ;
#167 = DIRECTION ( 'NONE',  ( 0.000000000000000000, 0.000000000000000000, -1.000000000000000000 ) ) ;
#168 = ORIENTED_EDGE ( 'NONE', *, *, #20, .F. ) ;
#169 =( GEOMETRIC_REPRESENTATION_CONTEXT ( 3 ) GLOBAL_UNCERTAINTY_ASSIGNED_CONTEXT ( ( #250 ) ) GLOBAL_UNIT_ASSIGNED_CONTEXT ( ( #183, #106, #233 ) ) REPRESENTATION_CONTEXT ( 'NONE', 'WORKASPACE' ) );
#170 =( NAMED_UNIT ( * ) PLANE_ANGLE_UNIT ( ) SI_UNIT ( $, .RADIAN. ) );
#171 = DIRECTION ( 'NONE',  ( 0.000000000000000000, 0.000000000000000000, -1.000000000000000000 ) ) ;
#172 = COLOUR_RGB ( '',1.000000000000000000, 0.000000000000000000, 0.000000000000000000 ) ;
#173 = ORIENTED_EDGE ( 'NONE', *, *, #13, .T. ) ;
#174 =( NAMED_UNIT ( * ) SI_UNIT ( $, .STERADIAN. ) SOLID_ANGLE_UNIT ( ) );
#175 = SURFACE_SIDE_STYLE ('',( #248 ) ) ;
#176 = VERTEX_POINT ( 'NONE', #116 ) ;
#177 = CIRCLE ( 'NONE', #215, 8.000000000000000000 ) ;
#178 = AXIS2_PLACEMENT_3D ( 'NONE', #185, #8, #278 ) ;
#179 = APPLICATION_CONTEXT ( 'automotive_design' ) ;
#180 = FILL_AREA_STYLE ('',( #110 ) ) ;
#181 = VECTOR ( 'NONE', #72, 1000.000000000000000 ) ;
#182 = DIRECTION ( 'NONE',  ( -1.000000000000000000, 0.000000000000000000, 0.000000000000000000 ) ) ;
#183 =( LENGTH_UNIT ( ) NAMED_UNIT ( * ) SI_UNIT ( .MILLI., .METRE. ) );
#184 = AXIS2_PLACEMENT_3D ( 'NONE', #266, #269, #2 ) ;
#185 = CARTESIAN_POINT ( 'NONE',  ( 0.000000000000000000, 40.00000000000000000, 0.000000000000000000 ) ) ;
#186 = FILL_AREA_STYLE_COLOUR ( '', #45 ) ;
#187 = ORIENTED_EDGE ( 'NONE', *, *, #19, .T. ) ;
#188 = CARTESIAN_POINT ( 'NONE',  ( 0.000000000000000000, 0.000000000000000000, 0.000000000000000000 ) ) ;
#189 = UNCERTAINTY_MEASURE_WITH_UNIT (LENGTH_MEASURE( 1.000000000000000082E-05 ), #79, 'distance_accuracy_value', 'NONE');
#190 = DIRECTION ( 'NONE',  ( -1.000000000000000000, 0.000000000000000000, 0.000000000000000000 ) ) ;
#191 = COLOUR_RGB ( '',1.000000000000000000, 0.000000000000000000, 0.000000000000000000 ) ;
#192 = AXIS2_PLACEMENT_3D ( 'NONE', #100, #162, #182 ) ;
#193 = EDGE_CURVE ( 'NONE', #26, #113, #237, .T. ) ;
#194 = EDGE_LOOP ( 'NONE', ( #157, #284, #221, #94 ) ) ;
#195 = EDGE_LOOP ( 'NONE', ( #241, #134, #24, #88 ) ) ;
#196 =( GEOMETRIC_REPRESENTATION_CONTEXT ( 3 ) GLOBAL_UNCERTAINTY_ASSIGNED_CONTEXT ( ( #213 ) ) GLOBAL_UNIT_ASSIGNED_CONTEXT ( ( #199, #203, #268 ) ) REPRESENTATION_CONTEXT ( 'NONE', 'WORKASPACE' ) );
#197 = DIRECTION ( 'NONE',  ( -3.498990854706722745E-17, 1.000000000000000000, 0.000000000000000000 ) ) ;
#198 = VERTEX_POINT ( 'NONE', #10 ) ;
#199 =( LENGTH_UNIT ( ) NAMED_UNIT ( * ) SI_UNIT ( .MILLI., .METRE. ) );
#200 = LINE ( 'NONE', #29, #104 ) ;
#201 = ORIENTED_EDGE ( 'NONE', *, *, #206, .F. ) ;
#202 = MECHANICAL_DESIGN_GEOMETRIC_PRESENTATION_REPRESENTATION (  '', ( #3 ), #236 ) ;
#203 =( NAMED_UNIT ( * ) PLANE_ANGLE_UNIT ( ) SI_UNIT ( $, .RADIAN. ) );
#204 = PRODUCT_DEFINITION_FORMATION_WITH_SPECIFIED_SOURCE ( 'ANY', '', #144, .NOT_KNOWN. ) ;
#205 = UNCERTAINTY_MEASURE_WITH_UNIT (LENGTH_MEASURE( 1.000000000000000082E-05 ), #253, 'distance_accuracy_value', 'NONE');
#206 = EDGE_CURVE ( 'NONE', #259, #198, #136, .T. ) ;
#207 = PLANE ( 'NONE',  #178 ) ;
#208 = UNCERTAINTY_MEASURE_WITH_UNIT (LENGTH_MEASURE( 1.000000000000000082E-05 ), #6, 'distance_accuracy_value', 'NONE');
#209 = SURFACE_STYLE_USAGE ( .BOTH. , #148 ) ;
#210 = PRESENTATION_STYLE_ASSIGNMENT (( #209 ) ) ;
#211 = CIRCLE ( 'NONE', #89, 8.000000000000000000 ) ;
#212 = CARTESIAN_POINT ( 'NONE',  ( 1.925929944387235853E-31, 40.00000000000000000, 0.000000000000000000 ) ) ;
#213 = UNCERTAINTY_MEASURE_WITH_UNIT (LENGTH_MEASURE( 1.000000000000000082E-05 ), #199, 'distance_accuracy_value', 'NONE');
#214 =( NAMED_UNIT ( * ) SI_UNIT ( $, .STERADIAN. ) SOLID_ANGLE_UNIT ( ) );
#215 = AXIS2_PLACEMENT_3D ( 'NONE', #262, #64, #153 ) ;
#216 = AXIS2_PLACEMENT_3D ( 'NONE', #151, #63, #190 ) ;
#217 = ADVANCED_FACE ( 'NONE', ( #232 ), #54, .F. ) ;
#218 = MANIFOLD_SOLID_BREP ( 'Revolve - Cutting Edge', #265 ) ;
#219 = EDGE_LOOP ( 'NONE', ( #65, #246, #115, #225 ) ) ;
#220 = DIRECTION ( 'NONE',  ( -0.000000000000000000, -1.000000000000000000, -0.000000000000000000 ) ) ;
#221 = ORIENTED_EDGE ( 'NONE', *, *, #83, .T. ) ;
#222 = CYLINDRICAL_SURFACE ( 'NONE', #108, 8.000000000000000000 ) ;
#223 = STYLED_ITEM ( 'NONE', ( #49 ), #32 ) ;
#224 = VERTEX_POINT ( 'NONE', #76 ) ;
#225 = ORIENTED_EDGE ( 'NONE', *, *, #267, .F. ) ;
#226 = PRODUCT_DEFINITION_SHAPE ( 'NONE', 'NONE',  #146 ) ;
#227 = EDGE_LOOP ( 'NONE', ( #168, #187, #48, #201 ) ) ;
#228 =( NAMED_UNIT ( * ) PLANE_ANGLE_UNIT ( ) SI_UNIT ( $, .RADIAN. ) );
#229 =( LENGTH_UNIT ( ) NAMED_UNIT ( * ) SI_UNIT ( .MILLI., .METRE. ) );
#230 =( GEOMETRIC_REPRESENTATION_CONTEXT ( 3 ) GLOBAL_UNCERTAINTY_ASSIGNED_CONTEXT ( ( #273 ) ) GLOBAL_UNIT_ASSIGNED_CONTEXT ( ( #229, #228, #174 ) ) REPRESENTATION_CONTEXT ( 'NONE', 'WORKASPACE' ) );
#231 = FILL_AREA_STYLE_COLOUR ( '', #191 ) ;
#232 = FACE_OUTER_BOUND ( 'NONE', #5, .T. ) ;
#233 =( NAMED_UNIT ( * ) SI_UNIT ( $, .STERADIAN. ) SOLID_ANGLE_UNIT ( ) );
#234 = SURFACE_SIDE_STYLE ('',( #161 ) ) ;
#235 = SURFACE_STYLE_FILL_AREA ( #14 ) ;
#236 =( GEOMETRIC_REPRESENTATION_CONTEXT ( 3 ) GLOBAL_UNCERTAINTY_ASSIGNED_CONTEXT ( ( #208 ) ) GLOBAL_UNIT_ASSIGNED_CONTEXT ( ( #6, #274, #101 ) ) REPRESENTATION_CONTEXT ( 'NONE', 'WORKASPACE' ) );
#237 = CIRCLE ( 'NONE', #40, 8.000000000000001776 ) ;
#238 = EDGE_CURVE ( 'NONE', #1, #224, #277, .T. ) ;
#239 = ADVANCED_FACE ( 'NONE', ( #164 ), #207, .T. ) ;
#240 = AXIS2_PLACEMENT_3D ( 'NONE', #147, #75, #256 ) ;
#241 = ORIENTED_EDGE ( 'NONE', *, *, #238, .T. ) ;
#242 = DIRECTION ( 'NONE',  ( -3.498990854706722745E-17, 1.000000000000000000, -0.000000000000000000 ) ) ;
#243 = CARTESIAN_POINT ( 'NONE',  ( 9.797174393178825657E-16, 0.000000000000000000, 8.000000000000000000 ) ) ;
#244 = LINE ( 'NONE', #243, #96 ) ;
#245 = FILL_AREA_STYLE_COLOUR ( '', #9 ) ;
#246 = ORIENTED_EDGE ( 'NONE', *, *, #20, .T. ) ;
#247 = VECTOR ( 'NONE', #220, 1000.000000000000000 ) ;
#248 = SURFACE_STYLE_FILL_AREA ( #112 ) ;
#249 = EDGE_CURVE ( 'NONE', #113, #26, #255, .T. ) ;
#250 = UNCERTAINTY_MEASURE_WITH_UNIT (LENGTH_MEASURE( 1.000000000000000082E-05 ), #183, 'distance_accuracy_value', 'NONE');
#251 = PRESENTATION_LAYER_ASSIGNMENT (  '', '', ( #143 ) ) ;
#252 = CARTESIAN_POINT ( 'NONE',  ( 9.797174393178825657E-16, 40.00000000000000000, 8.000000000000000000 ) ) ;
#253 =( LENGTH_UNIT ( ) NAMED_UNIT ( * ) SI_UNIT ( .MILLI., .METRE. ) );
#254 =( NAMED_UNIT ( * ) SI_UNIT ( $, .STERADIAN. ) SOLID_ANGLE_UNIT ( ) );
#255 = CIRCLE ( 'NONE', #192, 8.000000000000001776 ) ;
#256 = DIRECTION ( 'NONE',  ( 1.000000000000000000, 3.498990854706722745E-17, 0.000000000000000000 ) ) ;
#257 =( NAMED_UNIT ( * ) SI_UNIT ( $, .STERADIAN. ) SOLID_ANGLE_UNIT ( ) );
#258 = DIRECTION ( 'NONE',  ( 0.000000000000000000, -1.000000000000000000, -0.000000000000000000 ) ) ;
#259 = VERTEX_POINT ( 'NONE', #272 ) ;
#260 = CYLINDRICAL_SURFACE ( 'NONE', #165, 8.000000000000000000 ) ;
#261 = APPLICATION_PROTOCOL_DEFINITION ( 'draft international standard', 'automotive_design', 1998, #179 ) ;
#262 = CARTESIAN_POINT ( 'NONE',  ( 0.000000000000000000, 40.00000000000000000, 0.000000000000000000 ) ) ;
#263 = VERTEX_POINT ( 'NONE', #252 ) ;
#264 = SURFACE_STYLE_USAGE ( .BOTH. , #175 ) ;
#265 = CLOSED_SHELL ( 'NONE', ( #107, #239, #32, #154 ) ) ;
#266 = CARTESIAN_POINT ( 'NONE',  ( 0.000000000000000000, 0.000000000000000000, 0.000000000000000000 ) ) ;
#267 = EDGE_CURVE ( 'NONE', #176, #198, #52, .T. ) ;
#268 =( NAMED_UNIT ( * ) SI_UNIT ( $, .STERADIAN. ) SOLID_ANGLE_UNIT ( ) );
#269 = DIRECTION ( 'NONE',  ( -0.000000000000000000, -1.000000000000000000, -0.000000000000000000 ) ) ;
#270 = STYLED_ITEM ( 'NONE', ( #210 ), #218 ) ;
#271 = CIRCLE ( 'NONE', #150, 8.000000000000000000 ) ;
#272 = CARTESIAN_POINT ( 'NONE',  ( 9.797174393178825657E-16, 0.000000000000000000, 8.000000000000000000 ) ) ;
#273 = UNCERTAINTY_MEASURE_WITH_UNIT (LENGTH_MEASURE( 1.000000000000000082E-05 ), #229, 'distance_accuracy_value', 'NONE');
#274 =( NAMED_UNIT ( * ) PLANE_ANGLE_UNIT ( ) SI_UNIT ( $, .RADIAN. ) );
#275 = SURFACE_STYLE_FILL_AREA ( #280 ) ;
#276 = FILL_AREA_STYLE ('',( #31 ) ) ;
#277 = CIRCLE ( 'NONE', #35, 8.000000000000000000 ) ;
#278 = DIRECTION ( 'NONE',  ( 0.000000000000000000, -0.000000000000000000, 1.000000000000000000 ) ) ;
#279 = EDGE_CURVE ( 'NONE', #224, #1, #271, .T. ) ;
#280 = FILL_AREA_STYLE ('',( #186 ) ) ;
#281 = DIRECTION ( 'NONE',  ( 1.000000000000000000, 0.000000000000000000, 0.000000000000000000 ) ) ;
#282 = SURFACE_STYLE_FILL_AREA ( #131 ) ;
#283 = DIRECTION ( 'NONE',  ( 0.000000000000000000, 0.000000000000000000, 1.000000000000000000 ) ) ;
#284 = ORIENTED_EDGE ( 'NONE', *, *, #279, .T. ) ;
#285 = SURFACE_STYLE_USAGE ( .BOTH. , #133 ) ;
#286 = STYLED_ITEM ( 'NONE', ( #47 ), #154 ) ;
#287 = DIRECTION ( 'NONE',  ( -1.000000000000000000, -3.498990854706722745E-17, 0.000000000000000000 ) ) ;
#288 = ADVANCED_FACE ( 'NONE', ( #85 ), #57, .T. ) ;
ENDSEC;
END-ISO-10303-21;
