ISO-10303-21;
HEADER;
FILE_DESCRIPTION (( 'STEP AP214' ),
    '1' );
FILE_NAME ('Micro_GEMM-100-4X.STEP',
    '2021-09-01T21:56:01',
    ( '' ),
    ( '' ),
    'SwSTEP 2.0',
    'SolidWorks 2020',
    '' );
FILE_SCHEMA (( 'AUTOMOTIVE_DESIGN' ));
ENDSEC;

DATA;
#1 = CIRCLE ( 'NONE', #200, 0.1966536494999999996 ) ;
#2 = AXIS2_PLACEMENT_3D ( 'NONE', #291, #170, #240 ) ;
#3 = COLOUR_RGB ( '',0.7921568627450980005, 0.8196078431372548767, 0.9333333333333333481 ) ;
#4 = PRODUCT_DEFINITION ( 'UNKNOWN', '', #283, #234 ) ;
#5 = DIRECTION ( 'NONE',  ( 1.000000000000000000, 0.0000000000000000000, 0.0000000000000000000 ) ) ;
#6 = DIRECTION ( 'NONE',  ( -0.0000000000000000000, -0.0000000000000000000, -1.000000000000000000 ) ) ;
#7 = DIRECTION ( 'NONE',  ( -0.0000000000000000000, -0.0000000000000000000, -1.000000000000000000 ) ) ;
#8 = DIRECTION ( 'NONE',  ( 0.7071067811865354713, 8.659560562354783714E-17, -0.7071067811865594521 ) ) ;
#9 = LINE ( 'NONE', #70, #76 ) ;
#10 = CARTESIAN_POINT ( 'NONE',  ( 1.060718027907086782E-16, 0.0000000000000000000, 0.8661419999999999675 ) ) ;
#11 = ORIENTED_EDGE ( 'NONE', *, *, #91, .T. ) ;
#12 = CARTESIAN_POINT ( 'NONE',  ( 1.060718027907086782E-16, 0.0000000000000000000, 0.8661419999999999675 ) ) ;
#13 = CIRCLE ( 'NONE', #299, 0.1818505000000002481 ) ;
#14 = EDGE_LOOP ( 'NONE', ( #226, #141, #11, #15 ) ) ;
#15 = ORIENTED_EDGE ( 'NONE', *, *, #56, .F. ) ;
#16 = ORIENTED_EDGE ( 'NONE', *, *, #117, .T. ) ;
#17 = AXIS2_PLACEMENT_3D ( 'NONE', #57, #42, #244 ) ;
#18 = APPLICATION_CONTEXT ( 'automotive_design' ) ;
#19 = FACE_OUTER_BOUND ( 'NONE', #221, .T. ) ;
#20 = AXIS2_PLACEMENT_3D ( 'NONE', #253, #255, #45 ) ;
#21 = DIRECTION ( 'NONE',  ( 1.224646799147353207E-16, 0.0000000000000000000, 1.000000000000000000 ) ) ;
#22 = LINE ( 'NONE', #229, #197 ) ;
#23 = ADVANCED_FACE ( 'NONE', ( #238 ), #51, .T. ) ;
#24 = CIRCLE ( 'NONE', #77, 0.1966536494999999996 ) ;
#25 = AXIS2_PLACEMENT_3D ( 'NONE', #145, #26, #285 ) ;
#26 = DIRECTION ( 'NONE',  ( -1.224646799147353207E-16, -0.0000000000000000000, -1.000000000000000000 ) ) ;
#27 = SURFACE_SIDE_STYLE ('',( #256 ) ) ;
#28 = PLANE ( 'NONE',  #289 ) ;
#29 = CARTESIAN_POINT ( 'NONE',  ( 0.0000000000000000000, 0.0000000000000000000, 2.819646000000000097 ) ) ;
#30 = EDGE_LOOP ( 'NONE', ( #290, #103 ) ) ;
#31 =( GEOMETRIC_REPRESENTATION_CONTEXT ( 3 ) GLOBAL_UNCERTAINTY_ASSIGNED_CONTEXT ( ( #207 ) ) GLOBAL_UNIT_ASSIGNED_CONTEXT ( ( #294, #199, #98 ) ) REPRESENTATION_CONTEXT ( 'NONE', 'WORKASPACE' ) );
#32 = CARTESIAN_POINT ( 'NONE',  ( 0.0000000000000000000, 0.0000000000000000000, 2.834646000000000665 ) ) ;
#33 = ADVANCED_FACE ( 'NONE', ( #169 ), #115, .T. ) ;
#34 = SHAPE_DEFINITION_REPRESENTATION ( #259, #206 ) ;
#35 = PRODUCT ( 'Micro_GEMM-100-4X', 'Micro_GEMM-100-4X', '', ( #72 ) ) ;
#36 = DIRECTION ( 'NONE',  ( -1.224646799147353207E-16, -0.0000000000000000000, -1.000000000000000000 ) ) ;
#37 = EDGE_LOOP ( 'NONE', ( #152, #250, #270, #204 ) ) ;
#38 = AXIS2_PLACEMENT_3D ( 'NONE', #88, #113, #231 ) ;
#39 = ORIENTED_EDGE ( 'NONE', *, *, #272, .F. ) ;
#40 = FACE_OUTER_BOUND ( 'NONE', #175, .T. ) ;
#41 = ORIENTED_EDGE ( 'NONE', *, *, #159, .F. ) ;
#42 = DIRECTION ( 'NONE',  ( 0.0000000000000000000, 0.0000000000000000000, -1.000000000000000000 ) ) ;
#43 = PRODUCT_RELATED_PRODUCT_CATEGORY ( 'part', '', ( #35 ) ) ;
#44 = FILL_AREA_STYLE ('',( #246 ) ) ;
#45 = DIRECTION ( 'NONE',  ( -1.000000000000000000, 0.0000000000000000000, 1.224646799147353207E-16 ) ) ;
#46 = EDGE_CURVE ( 'NONE', #134, #54, #9, .T. ) ;
#47 = CARTESIAN_POINT ( 'NONE',  ( 0.1968504999999999838, 2.410723347355560646E-17, 2.819646000000000097 ) ) ;
#48 = CARTESIAN_POINT ( 'NONE',  ( 1.062085217056285306E-16, 0.0000000000000000000, 0.8672583946618326323 ) ) ;
#49 = CARTESIAN_POINT ( 'NONE',  ( 0.1968505000000000948, 2.410723347355561570E-17, 0.8672583946618326323 ) ) ;
#50 = FACE_OUTER_BOUND ( 'NONE', #30, .T. ) ;
#51 = PLANE ( 'NONE',  #273 ) ;
#52 = FACE_OUTER_BOUND ( 'NONE', #267, .T. ) ;
#53 = AXIS2_PLACEMENT_3D ( 'NONE', #12, #60, #177 ) ;
#54 = VERTEX_POINT ( 'NONE', #284 ) ;
#55 = ORIENTED_EDGE ( 'NONE', *, *, #220, .T. ) ;
#56 = EDGE_CURVE ( 'NONE', #127, #224, #64, .T. ) ;
#57 = CARTESIAN_POINT ( 'NONE',  ( 0.0000000000000000000, 0.0000000000000000000, 2.834646000000000665 ) ) ;
#58 = VERTEX_POINT ( 'NONE', #71 ) ;
#59 = ORIENTED_EDGE ( 'NONE', *, *, #46, .T. ) ;
#60 = DIRECTION ( 'NONE',  ( -1.224646799147353207E-16, -0.0000000000000000000, -1.000000000000000000 ) ) ;
#61 = ORIENTED_EDGE ( 'NONE', *, *, #66, .T. ) ;
#62 = DIRECTION ( 'NONE',  ( 1.000000000000000000, 0.0000000000000000000, 0.0000000000000000000 ) ) ;
#63 = LINE ( 'NONE', #161, #89 ) ;
#64 = CIRCLE ( 'NONE', #25, 0.1966536494999999996 ) ;
#65 = CARTESIAN_POINT ( 'NONE',  ( 1.060718027907086782E-16, 0.0000000000000000000, 0.8661419999999999675 ) ) ;
#66 = EDGE_CURVE ( 'NONE', #58, #198, #288, .T. ) ;
#67 = FILL_AREA_STYLE ('',( #280 ) ) ;
#68 = DIRECTION ( 'NONE',  ( -1.000000000000000000, 0.0000000000000000000, 0.0000000000000000000 ) ) ;
#69 = CIRCLE ( 'NONE', #153, 0.1818505000000002481 ) ;
#70 = CARTESIAN_POINT ( 'NONE',  ( -0.1968504999999999838, 0.0000000000000000000, 2.834646000000000665 ) ) ;
#71 = CARTESIAN_POINT ( 'NONE',  ( 0.1818505000000002481, 2.318874837419510283E-17, 2.834646000000000665 ) ) ;
#72 = PRODUCT_CONTEXT ( 'NONE', #90, 'mechanical' ) ;
#73 = CARTESIAN_POINT ( 'NONE',  ( -0.1966536494999999163, 2.408312624008205170E-17, 0.8661419999999999675 ) ) ;
#74 = ORIENTED_EDGE ( 'NONE', *, *, #46, .F. ) ;
#75 = EDGE_CURVE ( 'NONE', #243, #54, #148, .T. ) ;
#76 = VECTOR ( 'NONE', #192, 39.37007874015748143 ) ;
#77 = AXIS2_PLACEMENT_3D ( 'NONE', #96, #261, #188 ) ;
#78 = DIRECTION ( 'NONE',  ( 0.0000000000000000000, 0.0000000000000000000, 1.000000000000000000 ) ) ;
#79 = EDGE_CURVE ( 'NONE', #100, #54, #237, .T. ) ;
#80 = ORIENTED_EDGE ( 'NONE', *, *, #257, .T. ) ;
#81 = ORIENTED_EDGE ( 'NONE', *, *, #164, .F. ) ;
#82 = VERTEX_POINT ( 'NONE', #171 ) ;
#83 = CARTESIAN_POINT ( 'NONE',  ( 0.0000000000000000000, 0.0000000000000000000, 2.819646000000000097 ) ) ;
#84 = EDGE_CURVE ( 'NONE', #224, #127, #24, .T. ) ;
#85 = ADVANCED_FACE ( 'NONE', ( #52 ), #212, .T. ) ;
#86 = SURFACE_STYLE_USAGE ( .BOTH. , #292 ) ;
#87 = DIMENSIONAL_EXPONENTS ( 1.000000000000000000, 0.0000000000000000000, 0.0000000000000000000, 0.0000000000000000000, 0.0000000000000000000, 0.0000000000000000000, 0.0000000000000000000 ) ;
#88 = CARTESIAN_POINT ( 'NONE',  ( 0.0000000000000000000, 0.0000000000000000000, 2.834646000000000665 ) ) ;
#89 = VECTOR ( 'NONE', #282, 39.37007874015748143 ) ;
#90 = APPLICATION_CONTEXT ( 'automotive_design' ) ;
#91 = EDGE_CURVE ( 'NONE', #100, #224, #144, .T. ) ;
#92 = ORIENTED_EDGE ( 'NONE', *, *, #266, .T. ) ;
#93 = EDGE_CURVE ( 'NONE', #100, #82, #1, .T. ) ;
#94 =( LENGTH_UNIT ( ) NAMED_UNIT ( * ) SI_UNIT ( $, .METRE. ) );
#95 = DIRECTION ( 'NONE',  ( 0.0000000000000000000, 0.0000000000000000000, 1.000000000000000000 ) ) ;
#96 = CARTESIAN_POINT ( 'NONE',  ( 2.949332346337811403E-33, 0.0000000000000000000, 2.408312624008205170E-17 ) ) ;
#97 = ADVANCED_FACE ( 'NONE', ( #191 ), #167, .T. ) ;
#98 =( NAMED_UNIT ( * ) SI_UNIT ( $, .STERADIAN. ) SOLID_ANGLE_UNIT ( ) );
#99 = CARTESIAN_POINT ( 'NONE',  ( 0.0000000000000000000, 0.0000000000000000000, 0.0000000000000000000 ) ) ;
#100 = VERTEX_POINT ( 'NONE', #219 ) ;
#101 = PRESENTATION_STYLE_ASSIGNMENT (( #213 ) ) ;
#102 = CARTESIAN_POINT ( 'NONE',  ( 0.0000000000000000000, 0.0000000000000000000, 2.834646000000000665 ) ) ;
#103 = ORIENTED_EDGE ( 'NONE', *, *, #56, .T. ) ;
#104 = ADVANCED_FACE ( 'NONE', ( #50 ), #28, .F. ) ;
#105 =( LENGTH_UNIT ( ) NAMED_UNIT ( * ) SI_UNIT ( $, .METRE. ) );
#106 = EDGE_LOOP ( 'NONE', ( #248, #174, #202, #155 ) ) ;
#107 = ORIENTED_EDGE ( 'NONE', *, *, #79, .T. ) ;
#108 = VECTOR ( 'NONE', #7, 39.37007874015748143 ) ;
#109 = AXIS2_PLACEMENT_3D ( 'NONE', #83, #126, #112 ) ;
#110 = MECHANICAL_DESIGN_GEOMETRIC_PRESENTATION_REPRESENTATION (  '', ( #277 ), #31 ) ;
#111 = MECHANICAL_DESIGN_GEOMETRIC_PRESENTATION_REPRESENTATION (  '', ( #196 ), #147 ) ;
#112 = DIRECTION ( 'NONE',  ( 1.000000000000000000, 0.0000000000000000000, 0.0000000000000000000 ) ) ;
#113 = DIRECTION ( 'NONE',  ( 0.0000000000000000000, 0.0000000000000000000, -1.000000000000000000 ) ) ;
#114 = CARTESIAN_POINT ( 'NONE',  ( 1.062085217056285306E-16, 0.0000000000000000000, 0.8672583946618326323 ) ) ;
#115 = CONICAL_SURFACE ( 'NONE', #287, 0.1966536494999999996, 0.1745329251994339748 ) ;
#116 = DIRECTION ( 'NONE',  ( -0.1736481776669312471, 2.126576849575783933E-17, 0.9848077530122077983 ) ) ;
#117 = EDGE_CURVE ( 'NONE', #82, #243, #214, .T. ) ;
#118 =( CONVERSION_BASED_UNIT ( 'INCH', #184 ) LENGTH_UNIT ( ) NAMED_UNIT ( #87 ) );
#119 = DIRECTION ( 'NONE',  ( 1.000000000000000000, 0.0000000000000000000, -0.0000000000000000000 ) ) ;
#120 = DIRECTION ( 'NONE',  ( 1.000000000000000000, 0.0000000000000000000, 0.0000000000000000000 ) ) ;
#121 = ORIENTED_EDGE ( 'NONE', *, *, #79, .F. ) ;
#122 = AXIS2_PLACEMENT_3D ( 'NONE', #65, #21, #5 ) ;
#123 = ADVANCED_FACE ( 'NONE', ( #40 ), #128, .T. ) ;
#124 = DIRECTION ( 'NONE',  ( -1.224646799147353207E-16, -0.0000000000000000000, -1.000000000000000000 ) ) ;
#125 = ORIENTED_EDGE ( 'NONE', *, *, #194, .T. ) ;
#126 = DIRECTION ( 'NONE',  ( 0.0000000000000000000, 0.0000000000000000000, -1.000000000000000000 ) ) ;
#127 = VERTEX_POINT ( 'NONE', #183 ) ;
#128 = CONICAL_SURFACE ( 'NONE', #17, 0.1818505000000002481, 0.7853981633974312926 ) ;
#129 = AXIS2_PLACEMENT_3D ( 'NONE', #114, #163, #189 ) ;
#130 = SURFACE_STYLE_FILL_AREA ( #44 ) ;
#131 = ORIENTED_EDGE ( 'NONE', *, *, #117, .F. ) ;
#132 =( LENGTH_UNIT ( ) NAMED_UNIT ( * ) SI_UNIT ( $, .METRE. ) );
#133 = CARTESIAN_POINT ( 'NONE',  ( -0.1818505000000002481, 0.0000000000000000000, 2.834646000000000665 ) ) ;
#134 = VERTEX_POINT ( 'NONE', #151 ) ;
#135 = DIRECTION ( 'NONE',  ( 0.0000000000000000000, 0.0000000000000000000, 1.000000000000000000 ) ) ;
#136 = EDGE_CURVE ( 'NONE', #178, #58, #13, .T. ) ;
#137 = VECTOR ( 'NONE', #281, 39.37007874015748143 ) ;
#138 = FACE_OUTER_BOUND ( 'NONE', #37, .T. ) ;
#139 =( NAMED_UNIT ( * ) SI_UNIT ( $, .STERADIAN. ) SOLID_ANGLE_UNIT ( ) );
#140 = DIRECTION ( 'NONE',  ( 1.000000000000000000, 0.0000000000000000000, 0.0000000000000000000 ) ) ;
#141 = ORIENTED_EDGE ( 'NONE', *, *, #164, .T. ) ;
#142 = AXIS2_PLACEMENT_3D ( 'NONE', #48, #286, #146 ) ;
#143 = APPLICATION_PROTOCOL_DEFINITION ( 'draft international standard', 'automotive_design', 1998, #90 ) ;
#144 = LINE ( 'NONE', #242, #137 ) ;
#145 = CARTESIAN_POINT ( 'NONE',  ( 2.949332346337811403E-33, 0.0000000000000000000, 2.408312624008205170E-17 ) ) ;
#146 = DIRECTION ( 'NONE',  ( 1.000000000000000000, 0.0000000000000000000, 0.0000000000000000000 ) ) ;
#147 =( GEOMETRIC_REPRESENTATION_CONTEXT ( 3 ) GLOBAL_UNCERTAINTY_ASSIGNED_CONTEXT ( ( #166 ) ) GLOBAL_UNIT_ASSIGNED_CONTEXT ( ( #181, #208, #275 ) ) REPRESENTATION_CONTEXT ( 'NONE', 'WORKASPACE' ) );
#148 = CIRCLE ( 'NONE', #142, 0.1968504999999999838 ) ;
#149 = CARTESIAN_POINT ( 'NONE',  ( 0.0000000000000000000, 0.0000000000000000000, 2.834646000000000665 ) ) ;
#150 = ORIENTED_EDGE ( 'NONE', *, *, #75, .F. ) ;
#151 = CARTESIAN_POINT ( 'NONE',  ( -0.1968504999999999838, 0.0000000000000000000, 2.819646000000000097 ) ) ;
#152 = ORIENTED_EDGE ( 'NONE', *, *, #93, .T. ) ;
#153 = AXIS2_PLACEMENT_3D ( 'NONE', #225, #165, #140 ) ;
#154 = CYLINDRICAL_SURFACE ( 'NONE', #158, 0.1968504999999999838 ) ;
#155 = ORIENTED_EDGE ( 'NONE', *, *, #257, .F. ) ;
#156 = PRESENTATION_LAYER_ASSIGNMENT (  '', '', ( #196 ) ) ;
#157 = COLOUR_RGB ( '',0.7921568627450980005, 0.8196078431372548767, 0.9333333333333333481 ) ;
#158 = AXIS2_PLACEMENT_3D ( 'NONE', #102, #249, #252 ) ;
#159 = EDGE_CURVE ( 'NONE', #134, #198, #264, .T. ) ;
#160 = DIMENSIONAL_EXPONENTS ( 1.000000000000000000, 0.0000000000000000000, 0.0000000000000000000, 0.0000000000000000000, 0.0000000000000000000, 0.0000000000000000000, 0.0000000000000000000 ) ;
#161 = CARTESIAN_POINT ( 'NONE',  ( 0.1966536494999999996, 2.408312624008205170E-17, -2.408312624008205170E-17 ) ) ;
#162 = AXIS2_PLACEMENT_3D ( 'NONE', #29, #168, #120 ) ;
#163 = DIRECTION ( 'NONE',  ( -1.224646799147353207E-16, -0.0000000000000000000, -1.000000000000000000 ) ) ;
#164 = EDGE_CURVE ( 'NONE', #82, #100, #185, .T. ) ;
#165 = DIRECTION ( 'NONE',  ( 0.0000000000000000000, 0.0000000000000000000, 1.000000000000000000 ) ) ;
#166 = UNCERTAINTY_MEASURE_WITH_UNIT (LENGTH_MEASURE( 1.000000000000000082E-05 ), #181, 'distance_accuracy_value', 'NONE');
#167 = CYLINDRICAL_SURFACE ( 'NONE', #251, 0.1966536494999999996 ) ;
#168 = DIRECTION ( 'NONE',  ( 0.0000000000000000000, 0.0000000000000000000, -1.000000000000000000 ) ) ;
#169 = FACE_OUTER_BOUND ( 'NONE', #295, .T. ) ;
#170 = DIRECTION ( 'NONE',  ( 0.0000000000000000000, 0.0000000000000000000, 1.000000000000000000 ) ) ;
#171 = CARTESIAN_POINT ( 'NONE',  ( 0.1966536495000001106, 0.0000000000000000000, 0.8661419999999999675 ) ) ;
#172 = ORIENTED_EDGE ( 'NONE', *, *, #266, .F. ) ;
#173 = CONICAL_SURFACE ( 'NONE', #38, 0.1818505000000002481, 0.7853981633974312926 ) ;
#174 = ORIENTED_EDGE ( 'NONE', *, *, #136, .F. ) ;
#175 = EDGE_LOOP ( 'NONE', ( #265, #61, #41, #39 ) ) ;
#176 = ADVANCED_FACE ( 'NONE', ( #19 ), #154, .T. ) ;
#177 = DIRECTION ( 'NONE',  ( -1.000000000000000000, 0.0000000000000000000, 0.0000000000000000000 ) ) ;
#178 = VERTEX_POINT ( 'NONE', #133 ) ;
#179 = CARTESIAN_POINT ( 'NONE',  ( 0.0000000000000000000, 0.0000000000000000000, 2.834646000000000665 ) ) ;
#180 = EDGE_LOOP ( 'NONE', ( #245, #125 ) ) ;
#181 =( CONVERSION_BASED_UNIT ( 'INCH', #203 ) LENGTH_UNIT ( ) NAMED_UNIT ( #227 ) );
#182 = CLOSED_SHELL ( 'NONE', ( #247, #33, #123, #85, #176, #23, #230, #211, #97, #104 ) ) ;
#183 = CARTESIAN_POINT ( 'NONE',  ( 0.1966536494999999996, 2.408312624008205170E-17, 0.0000000000000000000 ) ) ;
#184 = LENGTH_MEASURE_WITH_UNIT ( LENGTH_MEASURE( 0.02539999999999999897 ), #94 );
#185 = CIRCLE ( 'NONE', #53, 0.1966536494999999996 ) ;
#186 = MANIFOLD_SOLID_BREP ( 'Cut-Revolve1', #182 ) ;
#187 = CARTESIAN_POINT ( 'NONE',  ( 0.1968504999999999838, 2.410723347355560646E-17, 2.834646000000000665 ) ) ;
#188 = DIRECTION ( 'NONE',  ( -1.000000000000000000, 0.0000000000000000000, 1.224646799147353207E-16 ) ) ;
#189 = DIRECTION ( 'NONE',  ( 1.000000000000000000, 0.0000000000000000000, 0.0000000000000000000 ) ) ;
#190 = CIRCLE ( 'NONE', #162, 0.1968504999999999838 ) ;
#191 = FACE_OUTER_BOUND ( 'NONE', #14, .T. ) ;
#192 = DIRECTION ( 'NONE',  ( -0.0000000000000000000, -0.0000000000000000000, -1.000000000000000000 ) ) ;
#193 = LENGTH_MEASURE_WITH_UNIT ( LENGTH_MEASURE( 0.02539999999999999897 ), #132 );
#194 = EDGE_CURVE ( 'NONE', #58, #178, #69, .T. ) ;
#195 = CARTESIAN_POINT ( 'NONE',  ( 1.060718027907086782E-16, 0.0000000000000000000, 0.8661419999999999675 ) ) ;
#196 = STYLED_ITEM ( 'NONE', ( #223 ), #186 ) ;
#197 = VECTOR ( 'NONE', #215, 39.37007874015748854 ) ;
#198 = VERTEX_POINT ( 'NONE', #47 ) ;
#199 =( NAMED_UNIT ( * ) PLANE_ANGLE_UNIT ( ) SI_UNIT ( $, .RADIAN. ) );
#200 = AXIS2_PLACEMENT_3D ( 'NONE', #10, #36, #68 ) ;
#201 = ORIENTED_EDGE ( 'NONE', *, *, #220, .F. ) ;
#202 = ORIENTED_EDGE ( 'NONE', *, *, #272, .T. ) ;
#203 = LENGTH_MEASURE_WITH_UNIT ( LENGTH_MEASURE( 0.02539999999999999897 ), #105 );
#204 = ORIENTED_EDGE ( 'NONE', *, *, #91, .F. ) ;
#205 = CONICAL_SURFACE ( 'NONE', #122, 0.1966536494999999996, 0.1745329251994339748 ) ;
#206 = ADVANCED_BREP_SHAPE_REPRESENTATION ( 'Micro_GEMM-100-4X', ( #186, #2 ), #262 ) ;
#207 = UNCERTAINTY_MEASURE_WITH_UNIT (LENGTH_MEASURE( 1.000000000000000082E-05 ), #294, 'distance_accuracy_value', 'NONE');
#208 =( NAMED_UNIT ( * ) PLANE_ANGLE_UNIT ( ) SI_UNIT ( $, .RADIAN. ) );
#209 = CARTESIAN_POINT ( 'NONE',  ( -0.1966536494999999996, 0.0000000000000000000, 4.816625248016410340E-17 ) ) ;
#210 = VECTOR ( 'NONE', #116, 39.37007874015748143 ) ;
#211 = ADVANCED_FACE ( 'NONE', ( #278 ), #205, .T. ) ;
#212 = CYLINDRICAL_SURFACE ( 'NONE', #233, 0.1968504999999999838 ) ;
#213 = SURFACE_STYLE_USAGE ( .BOTH. , #27 ) ;
#214 = LINE ( 'NONE', #268, #274 ) ;
#215 = DIRECTION ( 'NONE',  ( -0.7071067811865354713, 0.0000000000000000000, -0.7071067811865594521 ) ) ;
#216 = DIRECTION ( 'NONE',  ( 1.224646799147353207E-16, 0.0000000000000000000, 1.000000000000000000 ) ) ;
#217 = DIRECTION ( 'NONE',  ( -1.000000000000000000, 0.0000000000000000000, 0.0000000000000000000 ) ) ;
#218 = APPLICATION_PROTOCOL_DEFINITION ( 'draft international standard', 'automotive_design', 1998, #18 ) ;
#219 = CARTESIAN_POINT ( 'NONE',  ( -0.1966536494999999163, 2.409517985681882600E-17, 0.8661419999999999675 ) ) ;
#220 = EDGE_CURVE ( 'NONE', #54, #243, #297, .T. ) ;
#221 = EDGE_LOOP ( 'NONE', ( #172, #80, #59, #150 ) ) ;
#222 = ORIENTED_EDGE ( 'NONE', *, *, #75, .T. ) ;
#223 = PRESENTATION_STYLE_ASSIGNMENT (( #86 ) ) ;
#224 = VERTEX_POINT ( 'NONE', #209 ) ;
#225 = CARTESIAN_POINT ( 'NONE',  ( 0.0000000000000000000, 0.0000000000000000000, 2.834646000000000665 ) ) ;
#226 = ORIENTED_EDGE ( 'NONE', *, *, #241, .F. ) ;
#227 = DIMENSIONAL_EXPONENTS ( 1.000000000000000000, 0.0000000000000000000, 0.0000000000000000000, 0.0000000000000000000, 0.0000000000000000000, 0.0000000000000000000, 0.0000000000000000000 ) ;
#228 = PRESENTATION_LAYER_ASSIGNMENT (  '', '', ( #277 ) ) ;
#229 = CARTESIAN_POINT ( 'NONE',  ( -0.1818505000000002481, 0.0000000000000000000, 2.834646000000000665 ) ) ;
#230 = ADVANCED_FACE ( 'NONE', ( #236 ), #173, .T. ) ;
#231 = DIRECTION ( 'NONE',  ( -1.000000000000000000, 0.0000000000000000000, 0.0000000000000000000 ) ) ;
#232 = CARTESIAN_POINT ( 'NONE',  ( 0.1818505000000002481, 2.227026327483460228E-17, 2.834646000000000665 ) ) ;
#233 = AXIS2_PLACEMENT_3D ( 'NONE', #32, #6, #217 ) ;
#234 = PRODUCT_DEFINITION_CONTEXT ( 'detailed design', #18, 'design' ) ;
#235 = DIRECTION ( 'NONE',  ( 1.000000000000000000, 0.0000000000000000000, -0.0000000000000000000 ) ) ;
#236 = FACE_OUTER_BOUND ( 'NONE', #106, .T. ) ;
#237 = LINE ( 'NONE', #73, #210 ) ;
#238 = FACE_OUTER_BOUND ( 'NONE', #180, .T. ) ;
#239 = VECTOR ( 'NONE', #8, 39.37007874015748854 ) ;
#240 = DIRECTION ( 'NONE',  ( 1.000000000000000000, 0.0000000000000000000, 0.0000000000000000000 ) ) ;
#241 = EDGE_CURVE ( 'NONE', #82, #127, #63, .T. ) ;
#242 = CARTESIAN_POINT ( 'NONE',  ( -0.1966536494999999996, 0.0000000000000000000, 2.408312624008205170E-17 ) ) ;
#243 = VERTEX_POINT ( 'NONE', #49 ) ;
#244 = DIRECTION ( 'NONE',  ( -1.000000000000000000, 0.0000000000000000000, 0.0000000000000000000 ) ) ;
#245 = ORIENTED_EDGE ( 'NONE', *, *, #136, .T. ) ;
#246 = FILL_AREA_STYLE_COLOUR ( '', #3 ) ;
#247 = ADVANCED_FACE ( 'NONE', ( #138 ), #279, .T. ) ;
#248 = ORIENTED_EDGE ( 'NONE', *, *, #66, .F. ) ;
#249 = DIRECTION ( 'NONE',  ( -0.0000000000000000000, -0.0000000000000000000, -1.000000000000000000 ) ) ;
#250 = ORIENTED_EDGE ( 'NONE', *, *, #241, .T. ) ;
#251 = AXIS2_PLACEMENT_3D ( 'NONE', #260, #124, #258 ) ;
#252 = DIRECTION ( 'NONE',  ( -1.000000000000000000, 0.0000000000000000000, 0.0000000000000000000 ) ) ;
#253 = CARTESIAN_POINT ( 'NONE',  ( 0.0000000000000000000, 0.0000000000000000000, 0.0000000000000000000 ) ) ;
#254 =( NAMED_UNIT ( * ) PLANE_ANGLE_UNIT ( ) SI_UNIT ( $, .RADIAN. ) );
#255 = DIRECTION ( 'NONE',  ( -1.224646799147353207E-16, -0.0000000000000000000, -1.000000000000000000 ) ) ;
#256 = SURFACE_STYLE_FILL_AREA ( #67 ) ;
#257 = EDGE_CURVE ( 'NONE', #198, #134, #190, .T. ) ;
#258 = DIRECTION ( 'NONE',  ( -1.000000000000000000, 0.0000000000000000000, 1.224646799147353207E-16 ) ) ;
#259 = PRODUCT_DEFINITION_SHAPE ( 'NONE', 'NONE',  #4 ) ;
#260 = CARTESIAN_POINT ( 'NONE',  ( 0.0000000000000000000, 0.0000000000000000000, 0.0000000000000000000 ) ) ;
#261 = DIRECTION ( 'NONE',  ( -1.224646799147353207E-16, -0.0000000000000000000, -1.000000000000000000 ) ) ;
#262 =( GEOMETRIC_REPRESENTATION_CONTEXT ( 3 ) GLOBAL_UNCERTAINTY_ASSIGNED_CONTEXT ( ( #271 ) ) GLOBAL_UNIT_ASSIGNED_CONTEXT ( ( #118, #254, #139 ) ) REPRESENTATION_CONTEXT ( 'NONE', 'WORKASPACE' ) );
#263 = DIRECTION ( 'NONE',  ( 1.000000000000000000, 0.0000000000000000000, 0.0000000000000000000 ) ) ;
#264 = CIRCLE ( 'NONE', #109, 0.1968504999999999838 ) ;
#265 = ORIENTED_EDGE ( 'NONE', *, *, #194, .F. ) ;
#266 = EDGE_CURVE ( 'NONE', #198, #243, #276, .T. ) ;
#267 = EDGE_LOOP ( 'NONE', ( #269, #92, #201, #74 ) ) ;
#268 = CARTESIAN_POINT ( 'NONE',  ( 0.1966536495000001106, 0.0000000000000000000, 0.8661419999999999675 ) ) ;
#269 = ORIENTED_EDGE ( 'NONE', *, *, #159, .T. ) ;
#270 = ORIENTED_EDGE ( 'NONE', *, *, #84, .F. ) ;
#271 = UNCERTAINTY_MEASURE_WITH_UNIT (LENGTH_MEASURE( 1.000000000000000082E-05 ), #118, 'distance_accuracy_value', 'NONE');
#272 = EDGE_CURVE ( 'NONE', #178, #134, #22, .T. ) ;
#273 = AXIS2_PLACEMENT_3D ( 'NONE', #149, #95, #235 ) ;
#274 = VECTOR ( 'NONE', #296, 39.37007874015748143 ) ;
#275 =( NAMED_UNIT ( * ) SI_UNIT ( $, .STERADIAN. ) SOLID_ANGLE_UNIT ( ) );
#276 = LINE ( 'NONE', #187, #108 ) ;
#277 = STYLED_ITEM ( 'NONE', ( #101 ), #206 ) ;
#278 = FACE_OUTER_BOUND ( 'NONE', #293, .T. ) ;
#279 = CYLINDRICAL_SURFACE ( 'NONE', #20, 0.1966536494999999996 ) ;
#280 = FILL_AREA_STYLE_COLOUR ( '', #157 ) ;
#281 = DIRECTION ( 'NONE',  ( -1.224646799147353207E-16, -0.0000000000000000000, -1.000000000000000000 ) ) ;
#282 = DIRECTION ( 'NONE',  ( -1.224646799147353207E-16, -0.0000000000000000000, -1.000000000000000000 ) ) ;
#283 = PRODUCT_DEFINITION_FORMATION_WITH_SPECIFIED_SOURCE ( 'ANY', '', #35, .NOT_KNOWN. ) ;
#284 = CARTESIAN_POINT ( 'NONE',  ( -0.1968504999999999006, 0.0000000000000000000, 0.8672583946618326323 ) ) ;
#285 = DIRECTION ( 'NONE',  ( -1.000000000000000000, 0.0000000000000000000, 1.224646799147353207E-16 ) ) ;
#286 = DIRECTION ( 'NONE',  ( -1.224646799147353207E-16, -0.0000000000000000000, -1.000000000000000000 ) ) ;
#287 = AXIS2_PLACEMENT_3D ( 'NONE', #195, #216, #263 ) ;
#288 = LINE ( 'NONE', #232, #239 ) ;
#289 = AXIS2_PLACEMENT_3D ( 'NONE', #99, #78, #119 ) ;
#290 = ORIENTED_EDGE ( 'NONE', *, *, #84, .T. ) ;
#291 = CARTESIAN_POINT ( 'NONE',  ( 0.0000000000000000000, 0.0000000000000000000, 0.0000000000000000000 ) ) ;
#292 = SURFACE_SIDE_STYLE ('',( #130 ) ) ;
#293 = EDGE_LOOP ( 'NONE', ( #121, #81, #16, #222 ) ) ;
#294 =( CONVERSION_BASED_UNIT ( 'INCH', #193 ) LENGTH_UNIT ( ) NAMED_UNIT ( #160 ) );
#295 = EDGE_LOOP ( 'NONE', ( #298, #107, #55, #131 ) ) ;
#296 = DIRECTION ( 'NONE',  ( 0.1736481776669314692, 0.0000000000000000000, 0.9848077530122077983 ) ) ;
#297 = CIRCLE ( 'NONE', #129, 0.1968504999999999838 ) ;
#298 = ORIENTED_EDGE ( 'NONE', *, *, #93, .F. ) ;
#299 = AXIS2_PLACEMENT_3D ( 'NONE', #179, #135, #62 ) ;
ENDSEC;
END-ISO-10303-21;
