ISO-10303-21;
HEADER;
FILE_DESCRIPTION (( 'STEP AP214' ),
    '1' );
FILE_NAME ('00570.STEP',
    '2023-06-22T14:11:13',
    ( '' ),
    ( '' ),
    'SwSTEP 2.0',
    'SolidWorks 2023',
    '' );
FILE_SCHEMA (( 'AUTOMOTIVE_DESIGN' ));
ENDSEC;

DATA;
#1 = FACE_OUTER_BOUND ( 'NONE', #103, .T. ) ;
#2 = ORIENTED_EDGE ( 'NONE', *, *, #294, .F. ) ;
#3 =( GEOMETRIC_REPRESENTATION_CONTEXT ( 3 ) GLOBAL_UNCERTAINTY_ASSIGNED_CONTEXT ( ( #199 ) ) GLOBAL_UNIT_ASSIGNED_CONTEXT ( ( #258, #280, #93 ) ) REPRESENTATION_CONTEXT ( 'NONE', 'WORKASPACE' ) );
#4 = SHAPE_DEFINITION_REPRESENTATION ( #80, #170 ) ;
#5 = AXIS2_PLACEMENT_3D ( 'NONE', #233, #120, #53 ) ;
#6 = VERTEX_POINT ( 'NONE', #145 ) ;
#7 = SURFACE_STYLE_FILL_AREA ( #56 ) ;
#8 = CARTESIAN_POINT ( 'NONE',  ( -6.123233995736759873E-17, 3.500000000000000000, 0.000000000000000000 ) ) ;
#9 =( NAMED_UNIT ( * ) SI_UNIT ( $, .STERADIAN. ) SOLID_ANGLE_UNIT ( ) );
#10 = ORIENTED_EDGE ( 'NONE', *, *, #89, .T. ) ;
#11 = ADVANCED_FACE ( 'NONE', ( #238 ), #215, .T. ) ;
#12 =( CONVERSION_BASED_UNIT ( 'INCH', #295 ) LENGTH_UNIT ( ) NAMED_UNIT ( #76 ) );
#13 =( GEOMETRIC_REPRESENTATION_CONTEXT ( 3 ) GLOBAL_UNCERTAINTY_ASSIGNED_CONTEXT ( ( #44 ) ) GLOBAL_UNIT_ASSIGNED_CONTEXT ( ( #299, #201, #277 ) ) REPRESENTATION_CONTEXT ( 'NONE', 'WORKASPACE' ) );
#14 = SURFACE_STYLE_USAGE ( .BOTH. , #63 ) ;
#15 = SURFACE_STYLE_FILL_AREA ( #284 ) ;
#16 = CYLINDRICAL_SURFACE ( 'NONE', #291, 0.3125000000000000000 ) ;
#17 = DIRECTION ( 'NONE',  ( -0.000000000000000000, -1.000000000000000000, -0.000000000000000000 ) ) ;
#18 = PRODUCT_DEFINITION_CONTEXT ( 'detailed design', #206, 'design' ) ;
#19 = AXIS2_PLACEMENT_3D ( 'NONE', #154, #17, #227 ) ;
#20 =( NAMED_UNIT ( * ) SI_UNIT ( $, .STERADIAN. ) SOLID_ANGLE_UNIT ( ) );
#21 = DIMENSIONAL_EXPONENTS ( 1.000000000000000000, 0.000000000000000000, 0.000000000000000000, 0.000000000000000000, 0.000000000000000000, 0.000000000000000000, 0.000000000000000000 ) ;
#22 = DIRECTION ( 'NONE',  ( 0.000000000000000000, -0.000000000000000000, 1.000000000000000000 ) ) ;
#23 = PRESENTATION_STYLE_ASSIGNMENT (( #308 ) ) ;
#24 = DIRECTION ( 'NONE',  ( -1.000000000000000000, 0.000000000000000000, 0.000000000000000000 ) ) ;
#25 = CARTESIAN_POINT ( 'NONE',  ( 0.000000000000000000, 0.000000000000000000, 0.000000000000000000 ) ) ;
#26 = ADVANCED_FACE ( 'NONE', ( #1 ), #99, .T. ) ;
#27 = DIRECTION ( 'NONE',  ( -3.265724797726272713E-17, 1.000000000000000000, -0.000000000000000000 ) ) ;
#28 = LINE ( 'NONE', #49, #243 ) ;
#29 = CIRCLE ( 'NONE', #309, 0.3125000000000000000 ) ;
#30 = CARTESIAN_POINT ( 'NONE',  ( -0.3125000000000000000, 1.625000000000000000, 0.000000000000000000 ) ) ;
#31 = DIRECTION ( 'NONE',  ( -3.265724797726272713E-17, 1.000000000000000000, -0.000000000000000000 ) ) ;
#32 = ORIENTED_EDGE ( 'NONE', *, *, #54, .F. ) ;
#33 =( NAMED_UNIT ( * ) PLANE_ANGLE_UNIT ( ) SI_UNIT ( $, .RADIAN. ) );
#34 = PRESENTATION_STYLE_ASSIGNMENT (( #289 ) ) ;
#35 = EDGE_LOOP ( 'NONE', ( #126, #10, #130, #214 ) ) ;
#36 = DIRECTION ( 'NONE',  ( -0.000000000000000000, -1.000000000000000000, -0.000000000000000000 ) ) ;
#37 = EDGE_LOOP ( 'NONE', ( #246, #172 ) ) ;
#38 = UNCERTAINTY_MEASURE_WITH_UNIT (LENGTH_MEASURE( 1.000000000000000082E-05 ), #155, 'distance_accuracy_value', 'NONE');
#39 = STYLED_ITEM ( 'NONE', ( #187 ), #174 ) ;
#40 = CARTESIAN_POINT ( 'NONE',  ( 0.000000000000000000, 1.625000000000000000, 0.000000000000000000 ) ) ;
#41 = LENGTH_MEASURE_WITH_UNIT ( LENGTH_MEASURE( 0.02539999999999999897 ), #114 );
#42 =( NAMED_UNIT ( * ) PLANE_ANGLE_UNIT ( ) SI_UNIT ( $, .RADIAN. ) );
#43 = CARTESIAN_POINT ( 'NONE',  ( 3.827021247335478926E-17, 0.000000000000000000, 0.3125000000000000000 ) ) ;
#44 = UNCERTAINTY_MEASURE_WITH_UNIT (LENGTH_MEASURE( 1.000000000000000082E-05 ), #299, 'distance_accuracy_value', 'NONE');
#45 = FILL_AREA_STYLE ('',( #136 ) ) ;
#46 =( GEOMETRIC_REPRESENTATION_CONTEXT ( 3 ) GLOBAL_UNCERTAINTY_ASSIGNED_CONTEXT ( ( #257 ) ) GLOBAL_UNIT_ASSIGNED_CONTEXT ( ( #149, #59, #129 ) ) REPRESENTATION_CONTEXT ( 'NONE', 'WORKASPACE' ) );
#47 = ADVANCED_FACE ( 'NONE', ( #274 ), #16, .T. ) ;
#48 = CARTESIAN_POINT ( 'NONE',  ( 0.000000000000000000, 1.625000000000000000, 0.000000000000000000 ) ) ;
#49 = CARTESIAN_POINT ( 'NONE',  ( 0.3124999999999999445, 3.500000000000000000, 3.827021247335478926E-17 ) ) ;
#50 =( CONVERSION_BASED_UNIT ( 'INCH', #241 ) LENGTH_UNIT ( ) NAMED_UNIT ( #182 ) );
#51 = PRESENTATION_LAYER_ASSIGNMENT (  '', '', ( #143 ) ) ;
#52 = EDGE_LOOP ( 'NONE', ( #242, #269 ) ) ;
#53 = DIRECTION ( 'NONE',  ( 1.000000000000000000, 0.000000000000000000, 0.000000000000000000 ) ) ;
#54 = EDGE_CURVE ( 'NONE', #173, #211, #29, .T. ) ;
#55 = FILL_AREA_STYLE_COLOUR ( '', #75 ) ;
#56 = FILL_AREA_STYLE ('',( #55 ) ) ;
#57 = ORIENTED_EDGE ( 'NONE', *, *, #142, .F. ) ;
#58 = COLOUR_RGB ( '',1.000000000000000000, 0.000000000000000000, 0.000000000000000000 ) ;
#59 =( NAMED_UNIT ( * ) PLANE_ANGLE_UNIT ( ) SI_UNIT ( $, .RADIAN. ) );
#60 =( GEOMETRIC_REPRESENTATION_CONTEXT ( 3 ) GLOBAL_UNCERTAINTY_ASSIGNED_CONTEXT ( ( #248 ) ) GLOBAL_UNIT_ASSIGNED_CONTEXT ( ( #50, #33, #9 ) ) REPRESENTATION_CONTEXT ( 'NONE', 'WORKASPACE' ) );
#61 = EDGE_LOOP ( 'NONE', ( #191, #32 ) ) ;
#62 =( LENGTH_UNIT ( ) NAMED_UNIT ( * ) SI_UNIT ( $, .METRE. ) );
#63 = SURFACE_SIDE_STYLE ('',( #85 ) ) ;
#64 =( NAMED_UNIT ( * ) SI_UNIT ( $, .STERADIAN. ) SOLID_ANGLE_UNIT ( ) );
#65 = LINE ( 'NONE', #43, #131 ) ;
#66 = DIRECTION ( 'NONE',  ( -3.265724797726272713E-17, 1.000000000000000000, 0.000000000000000000 ) ) ;
#67 = LINE ( 'NONE', #138, #102 ) ;
#68 = CARTESIAN_POINT ( 'NONE',  ( 0.3125000000000000000, 3.500000000000000000, 0.000000000000000000 ) ) ;
#69 = FACE_OUTER_BOUND ( 'NONE', #35, .T. ) ;
#70 = DIMENSIONAL_EXPONENTS ( 1.000000000000000000, 0.000000000000000000, 0.000000000000000000, 0.000000000000000000, 0.000000000000000000, 0.000000000000000000, 0.000000000000000000 ) ;
#71 = CARTESIAN_POINT ( 'NONE',  ( -6.123233995736759873E-17, 3.500000000000000000, 0.000000000000000000 ) ) ;
#72 = UNCERTAINTY_MEASURE_WITH_UNIT (LENGTH_MEASURE( 1.000000000000000082E-05 ), #12, 'distance_accuracy_value', 'NONE');
#73 = CIRCLE ( 'NONE', #219, 0.3125000000000000555 ) ;
#74 = CARTESIAN_POINT ( 'NONE',  ( 0.3125000000000000000, 3.500000000000000000, 3.827021247335478926E-17 ) ) ;
#75 = COLOUR_RGB ( '',1.000000000000000000, 0.000000000000000000, 0.000000000000000000 ) ;
#76 = DIMENSIONAL_EXPONENTS ( 1.000000000000000000, 0.000000000000000000, 0.000000000000000000, 0.000000000000000000, 0.000000000000000000, 0.000000000000000000, 0.000000000000000000 ) ;
#77 = FILL_AREA_STYLE ('',( #139 ) ) ;
#78 = DIRECTION ( 'NONE',  ( -1.000000000000000000, 0.000000000000000000, 0.000000000000000000 ) ) ;
#79 = ORIENTED_EDGE ( 'NONE', *, *, #184, .T. ) ;
#80 = PRODUCT_DEFINITION_SHAPE ( 'NONE', 'NONE',  #105 ) ;
#81 =( LENGTH_UNIT ( ) NAMED_UNIT ( * ) SI_UNIT ( $, .METRE. ) );
#82 = ORIENTED_EDGE ( 'NONE', *, *, #54, .T. ) ;
#83 = COLOUR_RGB ( '',1.000000000000000000, 0.000000000000000000, 0.000000000000000000 ) ;
#84 = CIRCLE ( 'NONE', #237, 0.3125000000000000000 ) ;
#85 = SURFACE_STYLE_FILL_AREA ( #221 ) ;
#86 = CIRCLE ( 'NONE', #232, 0.3125000000000000000 ) ;
#87 = CARTESIAN_POINT ( 'NONE',  ( 1.666399758513172697E-34, 1.625000000000000000, 0.000000000000000000 ) ) ;
#88 = DIRECTION ( 'NONE',  ( -0.000000000000000000, -1.000000000000000000, -0.000000000000000000 ) ) ;
#89 = EDGE_CURVE ( 'NONE', #173, #290, #65, .T. ) ;
#90 = DIRECTION ( 'NONE',  ( -3.265724797726272713E-17, 1.000000000000000000, -0.000000000000000000 ) ) ;
#91 = DIRECTION ( 'NONE',  ( 0.000000000000000000, 0.000000000000000000, -1.000000000000000000 ) ) ;
#92 = CIRCLE ( 'NONE', #235, 0.3125000000000000555 ) ;
#93 =( NAMED_UNIT ( * ) SI_UNIT ( $, .STERADIAN. ) SOLID_ANGLE_UNIT ( ) );
#94 = SURFACE_SIDE_STYLE ('',( #231 ) ) ;
#95 = SURFACE_STYLE_USAGE ( .BOTH. , #118 ) ;
#96 =( LENGTH_UNIT ( ) NAMED_UNIT ( * ) SI_UNIT ( $, .METRE. ) );
#97 = MECHANICAL_DESIGN_GEOMETRIC_PRESENTATION_REPRESENTATION (  '', ( #127 ), #151 ) ;
#98 = ADVANCED_FACE ( 'NONE', ( #278 ), #111, .F. ) ;
#99 = CYLINDRICAL_SURFACE ( 'NONE', #19, 0.3125000000000000000 ) ;
#100 = APPLICATION_PROTOCOL_DEFINITION ( 'draft international standard', 'automotive_design', 1998, #189 ) ;
#101 = ORIENTED_EDGE ( 'NONE', *, *, #121, .F. ) ;
#102 = VECTOR ( 'NONE', #305, 39.37007874015748143 ) ;
#103 = EDGE_LOOP ( 'NONE', ( #288, #82, #123, #101 ) ) ;
#104 = ORIENTED_EDGE ( 'NONE', *, *, #184, .F. ) ;
#105 = PRODUCT_DEFINITION ( 'UNKNOWN', '', #293, #18 ) ;
#106 = FACE_OUTER_BOUND ( 'NONE', #61, .T. ) ;
#107 = AXIS2_PLACEMENT_3D ( 'NONE', #68, #250, #218 ) ;
#108 = DIRECTION ( 'NONE',  ( 0.000000000000000000, 0.000000000000000000, -1.000000000000000000 ) ) ;
#109 = ADVANCED_FACE ( 'NONE', ( #176 ), #296, .F. ) ;
#110 = SURFACE_SIDE_STYLE ('',( #15 ) ) ;
#111 = PLANE ( 'NONE',  #107 ) ;
#112 = CARTESIAN_POINT ( 'NONE',  ( 0.3125000000000000000, 1.625000000000000000, 3.827021247335478926E-17 ) ) ;
#113 = COLOUR_RGB ( '',0.7921568627450980005, 0.8196078431372548767, 0.9333333333333333481 ) ;
#114 =( LENGTH_UNIT ( ) NAMED_UNIT ( * ) SI_UNIT ( $, .METRE. ) );
#115 = SURFACE_STYLE_USAGE ( .BOTH. , #94 ) ;
#116 = DIRECTION ( 'NONE',  ( 0.000000000000000000, -1.000000000000000000, -0.000000000000000000 ) ) ;
#117 = AXIS2_PLACEMENT_3D ( 'NONE', #25, #116, #183 ) ;
#118 = SURFACE_SIDE_STYLE ('',( #222 ) ) ;
#119 = CIRCLE ( 'NONE', #128, 0.3125000000000000000 ) ;
#120 = DIRECTION ( 'NONE',  ( 0.000000000000000000, 0.000000000000000000, 1.000000000000000000 ) ) ;
#121 = EDGE_CURVE ( 'NONE', #290, #168, #286, .T. ) ;
#122 = STYLED_ITEM ( 'NONE', ( #292 ), #141 ) ;
#123 = ORIENTED_EDGE ( 'NONE', *, *, #226, .T. ) ;
#124 = DIRECTION ( 'NONE',  ( 0.000000000000000000, 0.000000000000000000, -1.000000000000000000 ) ) ;
#125 = ORIENTED_EDGE ( 'NONE', *, *, #294, .T. ) ;
#126 = ORIENTED_EDGE ( 'NONE', *, *, #164, .T. ) ;
#127 = STYLED_ITEM ( 'NONE', ( #202 ), #234 ) ;
#128 = AXIS2_PLACEMENT_3D ( 'NONE', #216, #285, #245 ) ;
#129 =( NAMED_UNIT ( * ) SI_UNIT ( $, .STERADIAN. ) SOLID_ANGLE_UNIT ( ) );
#130 = ORIENTED_EDGE ( 'NONE', *, *, #272, .F. ) ;
#131 = VECTOR ( 'NONE', #181, 39.37007874015748143 ) ;
#132 = DIRECTION ( 'NONE',  ( -1.000000000000000000, -3.265724797726272713E-17, 0.000000000000000000 ) ) ;
#133 =( CONVERSION_BASED_UNIT ( 'INCH', #297 ) LENGTH_UNIT ( ) NAMED_UNIT ( #301 ) );
#134 = FILL_AREA_STYLE_COLOUR ( '', #58 ) ;
#135 = DIRECTION ( 'NONE',  ( 0.000000000000000000, 0.000000000000000000, -1.000000000000000000 ) ) ;
#136 = FILL_AREA_STYLE_COLOUR ( '', #113 ) ;
#137 = CARTESIAN_POINT ( 'NONE',  ( 3.827021247335478926E-17, 1.625000000000000000, 0.3125000000000000000 ) ) ;
#138 = CARTESIAN_POINT ( 'NONE',  ( 0.000000000000000000, 0.000000000000000000, -0.3125000000000000000 ) ) ;
#139 = FILL_AREA_STYLE_COLOUR ( '', #169 ) ;
#140 =( LENGTH_UNIT ( ) NAMED_UNIT ( * ) SI_UNIT ( $, .METRE. ) );
#141 = ADVANCED_FACE ( 'NONE', ( #106 ), #158, .T. ) ;
#142 = EDGE_CURVE ( 'NONE', #196, #6, #73, .T. ) ;
#143 = STYLED_ITEM ( 'NONE', ( #23 ), #229 ) ;
#144 = CARTESIAN_POINT ( 'NONE',  ( 3.827021247335478926E-17, 0.000000000000000000, 0.3125000000000000000 ) ) ;
#145 = CARTESIAN_POINT ( 'NONE',  ( -0.3125000000000001665, 3.500000000000000000, 0.000000000000000000 ) ) ;
#146 = PRESENTATION_LAYER_ASSIGNMENT (  '', '', ( #122 ) ) ;
#147 = SURFACE_SIDE_STYLE ('',( #7 ) ) ;
#148 = LINE ( 'NONE', #208, #287 ) ;
#149 =( CONVERSION_BASED_UNIT ( 'INCH', #171 ) LENGTH_UNIT ( ) NAMED_UNIT ( #70 ) );
#150 = ORIENTED_EDGE ( 'NONE', *, *, #204, .T. ) ;
#151 =( GEOMETRIC_REPRESENTATION_CONTEXT ( 3 ) GLOBAL_UNCERTAINTY_ASSIGNED_CONTEXT ( ( #252 ) ) GLOBAL_UNIT_ASSIGNED_CONTEXT ( ( #133, #42, #20 ) ) REPRESENTATION_CONTEXT ( 'NONE', 'WORKASPACE' ) );
#152 = EDGE_LOOP ( 'NONE', ( #79, #150, #240, #2 ) ) ;
#153 = EDGE_CURVE ( 'NONE', #6, #196, #92, .T. ) ;
#154 = CARTESIAN_POINT ( 'NONE',  ( 0.000000000000000000, 0.000000000000000000, 0.000000000000000000 ) ) ;
#155 =( CONVERSION_BASED_UNIT ( 'INCH', #273 ) LENGTH_UNIT ( ) NAMED_UNIT ( #21 ) );
#156 = PRESENTATION_LAYER_ASSIGNMENT (  '', '', ( #39 ) ) ;
#157 = PRESENTATION_STYLE_ASSIGNMENT (( #198 ) ) ;
#158 = PLANE ( 'NONE',  #270 ) ;
#159 = FILL_AREA_STYLE_COLOUR ( '', #213 ) ;
#160 = CYLINDRICAL_SURFACE ( 'NONE', #298, 0.3125000000000000000 ) ;
#161 = AXIS2_PLACEMENT_3D ( 'NONE', #8, #31, #210 ) ;
#162 = DIRECTION ( 'NONE',  ( -0.000000000000000000, -1.000000000000000000, -0.000000000000000000 ) ) ;
#163 = DIRECTION ( 'NONE',  ( -3.265724797726272713E-17, 1.000000000000000000, -0.000000000000000000 ) ) ;
#164 = EDGE_CURVE ( 'NONE', #211, #173, #265, .T. ) ;
#165 = FILL_AREA_STYLE ('',( #159 ) ) ;
#166 = CARTESIAN_POINT ( 'NONE',  ( 7.582401355855259480E-33, 1.625000000000000000, 0.000000000000000000 ) ) ;
#167 = ORIENTED_EDGE ( 'NONE', *, *, #204, .F. ) ;
#168 = VERTEX_POINT ( 'NONE', #307 ) ;
#169 = COLOUR_RGB ( '',1.000000000000000000, 0.000000000000000000, 0.000000000000000000 ) ;
#170 = ADVANCED_BREP_SHAPE_REPRESENTATION ( '00570', ( #229, #234, #5 ), #60 ) ;
#171 = LENGTH_MEASURE_WITH_UNIT ( LENGTH_MEASURE( 0.02539999999999999897 ), #96 );
#172 = ORIENTED_EDGE ( 'NONE', *, *, #142, .T. ) ;
#173 = VERTEX_POINT ( 'NONE', #137 ) ;
#174 = ADVANCED_FACE ( 'NONE', ( #230 ), #276, .T. ) ;
#175 = PRESENTATION_LAYER_ASSIGNMENT (  '', '', ( #261 ) ) ;
#176 = FACE_OUTER_BOUND ( 'NONE', #263, .T. ) ;
#177 = MECHANICAL_DESIGN_GEOMETRIC_PRESENTATION_REPRESENTATION (  '', ( #39 ), #249 ) ;
#178 = CARTESIAN_POINT ( 'NONE',  ( 0.000000000000000000, 0.000000000000000000, 0.000000000000000000 ) ) ;
#179 = DIRECTION ( 'NONE',  ( -1.000000000000000000, 0.000000000000000000, 0.000000000000000000 ) ) ;
#180 = DIMENSIONAL_EXPONENTS ( 1.000000000000000000, 0.000000000000000000, 0.000000000000000000, 0.000000000000000000, 0.000000000000000000, 0.000000000000000000, 0.000000000000000000 ) ;
#181 = DIRECTION ( 'NONE',  ( -0.000000000000000000, -1.000000000000000000, -0.000000000000000000 ) ) ;
#182 = DIMENSIONAL_EXPONENTS ( 1.000000000000000000, 0.000000000000000000, 0.000000000000000000, 0.000000000000000000, 0.000000000000000000, 0.000000000000000000, 0.000000000000000000 ) ;
#183 = DIRECTION ( 'NONE',  ( 0.000000000000000000, 0.000000000000000000, -1.000000000000000000 ) ) ;
#184 = EDGE_CURVE ( 'NONE', #266, #217, #86, .T. ) ;
#185 = MECHANICAL_DESIGN_GEOMETRIC_PRESENTATION_REPRESENTATION (  '', ( #122 ), #200 ) ;
#186 = CARTESIAN_POINT ( 'NONE',  ( 0.000000000000000000, 1.625000000000000000, 0.000000000000000000 ) ) ;
#187 = PRESENTATION_STYLE_ASSIGNMENT (( #115 ) ) ;
#188 =( LENGTH_UNIT ( ) NAMED_UNIT ( * ) SI_UNIT ( $, .METRE. ) );
#189 = APPLICATION_CONTEXT ( 'automotive_design' ) ;
#190 = MECHANICAL_DESIGN_GEOMETRIC_PRESENTATION_REPRESENTATION (  '', ( #255 ), #13 ) ;
#191 = ORIENTED_EDGE ( 'NONE', *, *, #164, .F. ) ;
#192 = FILL_AREA_STYLE_COLOUR ( '', #83 ) ;
#193 = PRODUCT_CONTEXT ( 'NONE', #189, 'mechanical' ) ;
#194 = AXIS2_PLACEMENT_3D ( 'NONE', #178, #220, #135 ) ;
#195 = EDGE_LOOP ( 'NONE', ( #167, #268, #125, #57 ) ) ;
#196 = VERTEX_POINT ( 'NONE', #74 ) ;
#197 =( LENGTH_UNIT ( ) NAMED_UNIT ( * ) SI_UNIT ( $, .METRE. ) );
#198 = SURFACE_STYLE_USAGE ( .BOTH. , #110 ) ;
#199 = UNCERTAINTY_MEASURE_WITH_UNIT (LENGTH_MEASURE( 1.000000000000000082E-05 ), #258, 'distance_accuracy_value', 'NONE');
#200 =( GEOMETRIC_REPRESENTATION_CONTEXT ( 3 ) GLOBAL_UNCERTAINTY_ASSIGNED_CONTEXT ( ( #38 ) ) GLOBAL_UNIT_ASSIGNED_CONTEXT ( ( #155, #203, #256 ) ) REPRESENTATION_CONTEXT ( 'NONE', 'WORKASPACE' ) );
#201 =( NAMED_UNIT ( * ) PLANE_ANGLE_UNIT ( ) SI_UNIT ( $, .RADIAN. ) );
#202 = PRESENTATION_STYLE_ASSIGNMENT (( #95 ) ) ;
#203 =( NAMED_UNIT ( * ) PLANE_ANGLE_UNIT ( ) SI_UNIT ( $, .RADIAN. ) );
#204 = EDGE_CURVE ( 'NONE', #217, #196, #28, .T. ) ;
#205 = LENGTH_MEASURE_WITH_UNIT ( LENGTH_MEASURE( 0.02539999999999999897 ), #140 );
#206 = APPLICATION_CONTEXT ( 'automotive_design' ) ;
#207 = DIRECTION ( 'NONE',  ( -3.265724797726272713E-17, 1.000000000000000000, -0.000000000000000000 ) ) ;
#208 = CARTESIAN_POINT ( 'NONE',  ( -0.3125000000000000555, 3.500000000000000000, 0.000000000000000000 ) ) ;
#209 = AXIS2_PLACEMENT_3D ( 'NONE', #87, #66, #132 ) ;
#210 = DIRECTION ( 'NONE',  ( -1.000000000000000000, 0.000000000000000000, 0.000000000000000000 ) ) ;
#211 = VERTEX_POINT ( 'NONE', #300 ) ;
#212 = APPLICATION_PROTOCOL_DEFINITION ( 'draft international standard', 'automotive_design', 1998, #206 ) ;
#213 = COLOUR_RGB ( '',0.7921568627450980005, 0.8196078431372548767, 0.9333333333333333481 ) ;
#214 = ORIENTED_EDGE ( 'NONE', *, *, #226, .F. ) ;
#215 = CYLINDRICAL_SURFACE ( 'NONE', #161, 0.3125000000000000000 ) ;
#216 = CARTESIAN_POINT ( 'NONE',  ( 0.000000000000000000, 0.000000000000000000, 0.000000000000000000 ) ) ;
#217 = VERTEX_POINT ( 'NONE', #112 ) ;
#218 = DIRECTION ( 'NONE',  ( 1.000000000000000000, 3.265724797726272713E-17, 0.000000000000000000 ) ) ;
#219 = AXIS2_PLACEMENT_3D ( 'NONE', #71, #27, #24 ) ;
#220 = DIRECTION ( 'NONE',  ( -0.000000000000000000, -1.000000000000000000, -0.000000000000000000 ) ) ;
#221 = FILL_AREA_STYLE ('',( #134 ) ) ;
#222 = SURFACE_STYLE_FILL_AREA ( #165 ) ;
#223 = DIMENSIONAL_EXPONENTS ( 1.000000000000000000, 0.000000000000000000, 0.000000000000000000, 0.000000000000000000, 0.000000000000000000, 0.000000000000000000, 0.000000000000000000 ) ;
#224 = CLOSED_SHELL ( 'NONE', ( #262, #141, #26, #174 ) ) ;
#225 = PRESENTATION_LAYER_ASSIGNMENT (  '', '', ( #127 ) ) ;
#226 = EDGE_CURVE ( 'NONE', #211, #168, #67, .T. ) ;
#227 = DIRECTION ( 'NONE',  ( 0.000000000000000000, 0.000000000000000000, -1.000000000000000000 ) ) ;
#228 = SURFACE_SIDE_STYLE ('',( #259 ) ) ;
#229 = MANIFOLD_SOLID_BREP ( 'Revolve - Cutting Edge', #224 ) ;
#230 = FACE_OUTER_BOUND ( 'NONE', #52, .T. ) ;
#231 = SURFACE_STYLE_FILL_AREA ( #77 ) ;
#232 = AXIS2_PLACEMENT_3D ( 'NONE', #254, #207, #179 ) ;
#233 = CARTESIAN_POINT ( 'NONE',  ( 0.000000000000000000, 0.000000000000000000, 0.000000000000000000 ) ) ;
#234 = MANIFOLD_SOLID_BREP ( 'Revolve - Tool Body (Straight Shanked)', #260 ) ;
#235 = AXIS2_PLACEMENT_3D ( 'NONE', #281, #90, #303 ) ;
#236 = EDGE_CURVE ( 'NONE', #217, #266, #84, .T. ) ;
#237 = AXIS2_PLACEMENT_3D ( 'NONE', #166, #279, #78 ) ;
#238 = FACE_OUTER_BOUND ( 'NONE', #152, .T. ) ;
#239 = PRODUCT ( '00570', '00570', '', ( #193 ) ) ;
#240 = ORIENTED_EDGE ( 'NONE', *, *, #153, .F. ) ;
#241 = LENGTH_MEASURE_WITH_UNIT ( LENGTH_MEASURE( 0.02539999999999999897 ), #81 );
#242 = ORIENTED_EDGE ( 'NONE', *, *, #272, .T. ) ;
#243 = VECTOR ( 'NONE', #163, 39.37007874015748143 ) ;
#244 = MECHANICAL_DESIGN_GEOMETRIC_PRESENTATION_REPRESENTATION (  '', ( #261 ), #46 ) ;
#245 = DIRECTION ( 'NONE',  ( 0.000000000000000000, 0.000000000000000000, -1.000000000000000000 ) ) ;
#246 = ORIENTED_EDGE ( 'NONE', *, *, #153, .T. ) ;
#247 =( NAMED_UNIT ( * ) PLANE_ANGLE_UNIT ( ) SI_UNIT ( $, .RADIAN. ) );
#248 = UNCERTAINTY_MEASURE_WITH_UNIT (LENGTH_MEASURE( 1.000000000000000082E-05 ), #50, 'distance_accuracy_value', 'NONE');
#249 =( GEOMETRIC_REPRESENTATION_CONTEXT ( 3 ) GLOBAL_UNCERTAINTY_ASSIGNED_CONTEXT ( ( #72 ) ) GLOBAL_UNIT_ASSIGNED_CONTEXT ( ( #12, #247, #64 ) ) REPRESENTATION_CONTEXT ( 'NONE', 'WORKASPACE' ) );
#250 = DIRECTION ( 'NONE',  ( 3.265724797726272713E-17, -1.000000000000000000, 0.000000000000000000 ) ) ;
#251 = DIRECTION ( 'NONE',  ( -3.265724797726272713E-17, 1.000000000000000000, -0.000000000000000000 ) ) ;
#252 = UNCERTAINTY_MEASURE_WITH_UNIT (LENGTH_MEASURE( 1.000000000000000082E-05 ), #133, 'distance_accuracy_value', 'NONE');
#253 = CARTESIAN_POINT ( 'NONE',  ( -6.123233995736759873E-17, 3.500000000000000000, 0.000000000000000000 ) ) ;
#254 = CARTESIAN_POINT ( 'NONE',  ( 7.582401355855259480E-33, 1.625000000000000000, 0.000000000000000000 ) ) ;
#255 = STYLED_ITEM ( 'NONE', ( #157 ), #26 ) ;
#256 =( NAMED_UNIT ( * ) SI_UNIT ( $, .STERADIAN. ) SOLID_ANGLE_UNIT ( ) );
#257 = UNCERTAINTY_MEASURE_WITH_UNIT (LENGTH_MEASURE( 1.000000000000000082E-05 ), #149, 'distance_accuracy_value', 'NONE');
#258 =( CONVERSION_BASED_UNIT ( 'INCH', #205 ) LENGTH_UNIT ( ) NAMED_UNIT ( #223 ) );
#259 = SURFACE_STYLE_FILL_AREA ( #45 ) ;
#260 = CLOSED_SHELL ( 'NONE', ( #11, #109, #47, #98 ) ) ;
#261 = STYLED_ITEM ( 'NONE', ( #34 ), #262 ) ;
#262 = ADVANCED_FACE ( 'NONE', ( #69 ), #160, .T. ) ;
#263 = EDGE_LOOP ( 'NONE', ( #104, #283 ) ) ;
#264 = DIRECTION ( 'NONE',  ( -3.265724797726272713E-17, 1.000000000000000000, -0.000000000000000000 ) ) ;
#265 = CIRCLE ( 'NONE', #306, 0.3125000000000000000 ) ;
#266 = VERTEX_POINT ( 'NONE', #30 ) ;
#267 = CARTESIAN_POINT ( 'NONE',  ( 0.000000000000000000, 0.000000000000000000, 0.000000000000000000 ) ) ;
#268 = ORIENTED_EDGE ( 'NONE', *, *, #236, .T. ) ;
#269 = ORIENTED_EDGE ( 'NONE', *, *, #121, .T. ) ;
#270 = AXIS2_PLACEMENT_3D ( 'NONE', #48, #304, #22 ) ;
#271 = DIRECTION ( 'NONE',  ( -1.000000000000000000, 0.000000000000000000, 0.000000000000000000 ) ) ;
#272 = EDGE_CURVE ( 'NONE', #168, #290, #119, .T. ) ;
#273 = LENGTH_MEASURE_WITH_UNIT ( LENGTH_MEASURE( 0.02539999999999999897 ), #197 );
#274 = FACE_OUTER_BOUND ( 'NONE', #195, .T. ) ;
#275 = PRESENTATION_LAYER_ASSIGNMENT (  '', '', ( #255 ) ) ;
#276 = PLANE ( 'NONE',  #117 ) ;
#277 =( NAMED_UNIT ( * ) SI_UNIT ( $, .STERADIAN. ) SOLID_ANGLE_UNIT ( ) );
#278 = FACE_OUTER_BOUND ( 'NONE', #37, .T. ) ;
#279 = DIRECTION ( 'NONE',  ( -3.265724797726272713E-17, 1.000000000000000000, -0.000000000000000000 ) ) ;
#280 =( NAMED_UNIT ( * ) PLANE_ANGLE_UNIT ( ) SI_UNIT ( $, .RADIAN. ) );
#281 = CARTESIAN_POINT ( 'NONE',  ( -6.123233995736759873E-17, 3.500000000000000000, 0.000000000000000000 ) ) ;
#282 = MECHANICAL_DESIGN_GEOMETRIC_PRESENTATION_REPRESENTATION (  '', ( #143 ), #3 ) ;
#283 = ORIENTED_EDGE ( 'NONE', *, *, #236, .F. ) ;
#284 = FILL_AREA_STYLE ('',( #192 ) ) ;
#285 = DIRECTION ( 'NONE',  ( -0.000000000000000000, -1.000000000000000000, -0.000000000000000000 ) ) ;
#286 = CIRCLE ( 'NONE', #194, 0.3125000000000000000 ) ;
#287 = VECTOR ( 'NONE', #264, 39.37007874015748143 ) ;
#288 = ORIENTED_EDGE ( 'NONE', *, *, #89, .F. ) ;
#289 = SURFACE_STYLE_USAGE ( .BOTH. , #147 ) ;
#290 = VERTEX_POINT ( 'NONE', #144 ) ;
#291 = AXIS2_PLACEMENT_3D ( 'NONE', #253, #251, #271 ) ;
#292 = PRESENTATION_STYLE_ASSIGNMENT (( #14 ) ) ;
#293 = PRODUCT_DEFINITION_FORMATION_WITH_SPECIFIED_SOURCE ( 'ANY', '', #239, .NOT_KNOWN. ) ;
#294 = EDGE_CURVE ( 'NONE', #266, #6, #148, .T. ) ;
#295 = LENGTH_MEASURE_WITH_UNIT ( LENGTH_MEASURE( 0.02539999999999999897 ), #62 );
#296 = PLANE ( 'NONE',  #209 ) ;
#297 = LENGTH_MEASURE_WITH_UNIT ( LENGTH_MEASURE( 0.02539999999999999897 ), #188 );
#298 = AXIS2_PLACEMENT_3D ( 'NONE', #267, #36, #124 ) ;
#299 =( CONVERSION_BASED_UNIT ( 'INCH', #41 ) LENGTH_UNIT ( ) NAMED_UNIT ( #180 ) );
#300 = CARTESIAN_POINT ( 'NONE',  ( 0.000000000000000000, 1.625000000000000000, -0.3125000000000000000 ) ) ;
#301 = DIMENSIONAL_EXPONENTS ( 1.000000000000000000, 0.000000000000000000, 0.000000000000000000, 0.000000000000000000, 0.000000000000000000, 0.000000000000000000, 0.000000000000000000 ) ;
#302 = PRODUCT_RELATED_PRODUCT_CATEGORY ( 'part', '', ( #239 ) ) ;
#303 = DIRECTION ( 'NONE',  ( -1.000000000000000000, 0.000000000000000000, 0.000000000000000000 ) ) ;
#304 = DIRECTION ( 'NONE',  ( 0.000000000000000000, 1.000000000000000000, 0.000000000000000000 ) ) ;
#305 = DIRECTION ( 'NONE',  ( -0.000000000000000000, -1.000000000000000000, -0.000000000000000000 ) ) ;
#306 = AXIS2_PLACEMENT_3D ( 'NONE', #186, #162, #91 ) ;
#307 = CARTESIAN_POINT ( 'NONE',  ( 0.000000000000000000, 0.000000000000000000, -0.3125000000000000000 ) ) ;
#308 = SURFACE_STYLE_USAGE ( .BOTH. , #228 ) ;
#309 = AXIS2_PLACEMENT_3D ( 'NONE', #40, #88, #108 ) ;
ENDSEC;
END-ISO-10303-21;
