ISO-10303-21;
HEADER;
FILE_DESCRIPTION (( 'STEP AP214' ),
    '1' );
FILE_NAME ('00645.STEP',
    '2023-06-22T14:12:59',
    ( '' ),
    ( '' ),
    'SwSTEP 2.0',
    'SolidWorks 2023',
    '' );
FILE_SCHEMA (( 'AUTOMOTIVE_DESIGN' ));
ENDSEC;

DATA;
#1 = SURFACE_SIDE_STYLE ('',( #146 ) ) ;
#2 = SURFACE_SIDE_STYLE ('',( #264 ) ) ;
#3 = DIRECTION ( 'NONE',  ( 0.000000000000000000, 0.000000000000000000, -1.000000000000000000 ) ) ;
#4 = DIRECTION ( 'NONE',  ( -1.000000000000000000, 0.000000000000000000, 0.000000000000000000 ) ) ;
#5 = AXIS2_PLACEMENT_3D ( 'NONE', #219, #198, #102 ) ;
#6 = PRODUCT_DEFINITION_SHAPE ( 'NONE', 'NONE',  #27 ) ;
#7 = FILL_AREA_STYLE ('',( #15 ) ) ;
#8 = ORIENTED_EDGE ( 'NONE', *, *, #128, .T. ) ;
#9 = UNCERTAINTY_MEASURE_WITH_UNIT (LENGTH_MEASURE( 1.000000000000000082E-05 ), #283, 'distance_accuracy_value', 'NONE');
#10 = COLOUR_RGB ( '',1.000000000000000000, 0.000000000000000000, 0.000000000000000000 ) ;
#11 = DIRECTION ( 'NONE',  ( 8.164311994315692567E-17, 1.000000000000000000, -0.000000000000000000 ) ) ;
#12 = VERTEX_POINT ( 'NONE', #189 ) ;
#13 = EDGE_CURVE ( 'NONE', #299, #208, #19, .T. ) ;
#14 = ORIENTED_EDGE ( 'NONE', *, *, #291, .F. ) ;
#15 = FILL_AREA_STYLE_COLOUR ( '', #236 ) ;
#16 = ORIENTED_EDGE ( 'NONE', *, *, #66, .T. ) ;
#17 = AXIS2_PLACEMENT_3D ( 'NONE', #289, #127, #3 ) ;
#18 = PRESENTATION_LAYER_ASSIGNMENT (  '', '', ( #302 ) ) ;
#19 = LINE ( 'NONE', #284, #50 ) ;
#20 = PRODUCT_CONTEXT ( 'NONE', #205, 'mechanical' ) ;
#21 =( CONVERSION_BASED_UNIT ( 'INCH', #45 ) LENGTH_UNIT ( ) NAMED_UNIT ( #97 ) );
#22 =( NAMED_UNIT ( * ) PLANE_ANGLE_UNIT ( ) SI_UNIT ( $, .RADIAN. ) );
#23 = AXIS2_PLACEMENT_3D ( 'NONE', #223, #109, #206 ) ;
#24 = DIRECTION ( 'NONE',  ( 8.164311994315692567E-17, 1.000000000000000000, -0.000000000000000000 ) ) ;
#25 = DIMENSIONAL_EXPONENTS ( 1.000000000000000000, 0.000000000000000000, 0.000000000000000000, 0.000000000000000000, 0.000000000000000000, 0.000000000000000000, 0.000000000000000000 ) ;
#26 = CARTESIAN_POINT ( 'NONE',  ( 0.000000000000000000, 0.000000000000000000, -0.3750000000000000555 ) ) ;
#27 = PRODUCT_DEFINITION ( 'UNKNOWN', '', #49, #275 ) ;
#28 = DIRECTION ( 'NONE',  ( -8.164311994315692567E-17, -1.000000000000000000, 0.000000000000000000 ) ) ;
#29 = PRESENTATION_LAYER_ASSIGNMENT (  '', '', ( #251 ) ) ;
#30 = PLANE ( 'NONE',  #286 ) ;
#31 = FACE_OUTER_BOUND ( 'NONE', #274, .T. ) ;
#32 = CYLINDRICAL_SURFACE ( 'NONE', #38, 0.3750000000000000555 ) ;
#33 =( LENGTH_UNIT ( ) NAMED_UNIT ( * ) SI_UNIT ( $, .METRE. ) );
#34 = CIRCLE ( 'NONE', #246, 0.3750000000000000555 ) ;
#35 = CIRCLE ( 'NONE', #204, 0.3750000000000000555 ) ;
#36 = LENGTH_MEASURE_WITH_UNIT ( LENGTH_MEASURE( 0.02539999999999999897 ), #33 );
#37 = PLANE ( 'NONE',  #23 ) ;
#38 = AXIS2_PLACEMENT_3D ( 'NONE', #226, #106, #202 ) ;
#39 =( NAMED_UNIT ( * ) SI_UNIT ( $, .STERADIAN. ) SOLID_ANGLE_UNIT ( ) );
#40 = EDGE_LOOP ( 'NONE', ( #41, #8 ) ) ;
#41 = ORIENTED_EDGE ( 'NONE', *, *, #84, .T. ) ;
#42 = SURFACE_STYLE_USAGE ( .BOTH. , #81 ) ;
#43 = PRESENTATION_LAYER_ASSIGNMENT (  '', '', ( #108 ) ) ;
#44 = AXIS2_PLACEMENT_3D ( 'NONE', #70, #306, #67 ) ;
#45 = LENGTH_MEASURE_WITH_UNIT ( LENGTH_MEASURE( 0.02539999999999999897 ), #256 );
#46 = SURFACE_STYLE_USAGE ( .BOTH. , #186 ) ;
#47 = CARTESIAN_POINT ( 'NONE',  ( 0.000000000000000000, 0.000000000000000000, 0.000000000000000000 ) ) ;
#48 = PLANE ( 'NONE',  #303 ) ;
#49 = PRODUCT_DEFINITION_FORMATION_WITH_SPECIFIED_SOURCE ( 'ANY', '', #233, .NOT_KNOWN. ) ;
#50 = VECTOR ( 'NONE', #24, 39.37007874015748143 ) ;
#51 = LENGTH_MEASURE_WITH_UNIT ( LENGTH_MEASURE( 0.02539999999999999897 ), #98 );
#52 =( NAMED_UNIT ( * ) SI_UNIT ( $, .STERADIAN. ) SOLID_ANGLE_UNIT ( ) );
#53 = FILL_AREA_STYLE ('',( #77 ) ) ;
#54 = AXIS2_PLACEMENT_3D ( 'NONE', #79, #215, #4 ) ;
#55 = DIRECTION ( 'NONE',  ( 0.000000000000000000, 0.000000000000000000, -1.000000000000000000 ) ) ;
#56 = LENGTH_MEASURE_WITH_UNIT ( LENGTH_MEASURE( 0.02539999999999999897 ), #222 );
#57 = CARTESIAN_POINT ( 'NONE',  ( 2.449293598294707400E-16, 4.000000000000000000, 0.000000000000000000 ) ) ;
#58 =( NAMED_UNIT ( * ) SI_UNIT ( $, .STERADIAN. ) SOLID_ANGLE_UNIT ( ) );
#59 = ORIENTED_EDGE ( 'NONE', *, *, #295, .T. ) ;
#60 = ORIENTED_EDGE ( 'NONE', *, *, #216, .T. ) ;
#61 = PRODUCT_RELATED_PRODUCT_CATEGORY ( 'part', '', ( #233 ) ) ;
#62 = PLANE ( 'NONE',  #130 ) ;
#63 = VECTOR ( 'NONE', #201, 39.37007874015748143 ) ;
#64 = ORIENTED_EDGE ( 'NONE', *, *, #13, .F. ) ;
#65 = ORIENTED_EDGE ( 'NONE', *, *, #76, .F. ) ;
#66 = EDGE_CURVE ( 'NONE', #12, #297, #254, .T. ) ;
#67 = DIRECTION ( 'NONE',  ( -1.000000000000000000, 0.000000000000000000, 0.000000000000000000 ) ) ;
#68 = MECHANICAL_DESIGN_GEOMETRIC_PRESENTATION_REPRESENTATION (  '', ( #290 ), #161 ) ;
#69 =( NAMED_UNIT ( * ) SI_UNIT ( $, .STERADIAN. ) SOLID_ANGLE_UNIT ( ) );
#70 = CARTESIAN_POINT ( 'NONE',  ( 2.449293598294707400E-16, 4.000000000000000000, 0.000000000000000000 ) ) ;
#71 = ADVANCED_FACE ( 'NONE', ( #191 ), #48, .T. ) ;
#72 = DIMENSIONAL_EXPONENTS ( 1.000000000000000000, 0.000000000000000000, 0.000000000000000000, 0.000000000000000000, 0.000000000000000000, 0.000000000000000000, 0.000000000000000000 ) ;
#73 = PRESENTATION_LAYER_ASSIGNMENT (  '', '', ( #192 ) ) ;
#74 = VECTOR ( 'NONE', #211, 39.37007874015748143 ) ;
#75 = CYLINDRICAL_SURFACE ( 'NONE', #54, 0.3749999999999998890 ) ;
#76 = EDGE_CURVE ( 'NONE', #157, #12, #34, .T. ) ;
#77 = FILL_AREA_STYLE_COLOUR ( '', #10 ) ;
#78 = PRESENTATION_LAYER_ASSIGNMENT (  '', '', ( #290 ) ) ;
#79 = CARTESIAN_POINT ( 'NONE',  ( 2.449293598294707400E-16, 4.000000000000000000, 0.000000000000000000 ) ) ;
#80 = SURFACE_SIDE_STYLE ('',( #129 ) ) ;
#81 = SURFACE_SIDE_STYLE ('',( #296 ) ) ;
#82 = ORIENTED_EDGE ( 'NONE', *, *, #84, .F. ) ;
#83 = DIRECTION ( 'NONE',  ( -1.000000000000000000, 0.000000000000000000, 0.000000000000000000 ) ) ;
#84 = EDGE_CURVE ( 'NONE', #225, #208, #155, .T. ) ;
#85 = EDGE_LOOP ( 'NONE', ( #178, #301 ) ) ;
#86 = LENGTH_MEASURE_WITH_UNIT ( LENGTH_MEASURE( 0.02539999999999999897 ), #162 );
#87 = ORIENTED_EDGE ( 'NONE', *, *, #175, .F. ) ;
#88 = PRESENTATION_STYLE_ASSIGNMENT (( #247 ) ) ;
#89 = ORIENTED_EDGE ( 'NONE', *, *, #291, .T. ) ;
#90 = MECHANICAL_DESIGN_GEOMETRIC_PRESENTATION_REPRESENTATION (  '', ( #251 ), #147 ) ;
#91 = PRESENTATION_STYLE_ASSIGNMENT (( #42 ) ) ;
#92 = LINE ( 'NONE', #209, #224 ) ;
#93 = COLOUR_RGB ( '',0.7921568627450980005, 0.8196078431372548767, 0.9333333333333333481 ) ;
#94 = APPLICATION_PROTOCOL_DEFINITION ( 'draft international standard', 'automotive_design', 1998, #116 ) ;
#95 = EDGE_CURVE ( 'NONE', #297, #140, #266, .T. ) ;
#96 = UNCERTAINTY_MEASURE_WITH_UNIT (LENGTH_MEASURE( 1.000000000000000082E-05 ), #304, 'distance_accuracy_value', 'NONE');
#97 = DIMENSIONAL_EXPONENTS ( 1.000000000000000000, 0.000000000000000000, 0.000000000000000000, 0.000000000000000000, 0.000000000000000000, 0.000000000000000000, 0.000000000000000000 ) ;
#98 =( LENGTH_UNIT ( ) NAMED_UNIT ( * ) SI_UNIT ( $, .METRE. ) );
#99 =( LENGTH_UNIT ( ) NAMED_UNIT ( * ) SI_UNIT ( $, .METRE. ) );
#100 = SURFACE_STYLE_USAGE ( .BOTH. , #2 ) ;
#101 =( NAMED_UNIT ( * ) PLANE_ANGLE_UNIT ( ) SI_UNIT ( $, .RADIAN. ) );
#102 = DIRECTION ( 'NONE',  ( 0.000000000000000000, 0.000000000000000000, -1.000000000000000000 ) ) ;
#103 = AXIS2_PLACEMENT_3D ( 'NONE', #57, #11, #83 ) ;
#104 =( NAMED_UNIT ( * ) PLANE_ANGLE_UNIT ( ) SI_UNIT ( $, .RADIAN. ) );
#105 = CARTESIAN_POINT ( 'NONE',  ( 0.000000000000000000, 0.000000000000000000, 0.000000000000000000 ) ) ;
#106 = DIRECTION ( 'NONE',  ( -0.000000000000000000, -1.000000000000000000, -0.000000000000000000 ) ) ;
#107 = CIRCLE ( 'NONE', #17, 0.3750000000000000555 ) ;
#108 = STYLED_ITEM ( 'NONE', ( #309 ), #71 ) ;
#109 = DIRECTION ( 'NONE',  ( 8.164311994315692567E-17, 1.000000000000000000, -0.000000000000000000 ) ) ;
#110 = ORIENTED_EDGE ( 'NONE', *, *, #66, .F. ) ;
#111 = ORIENTED_EDGE ( 'NONE', *, *, #216, .F. ) ;
#112 = CIRCLE ( 'NONE', #5, 0.3750000000000000555 ) ;
#113 = EDGE_CURVE ( 'NONE', #207, #299, #288, .T. ) ;
#114 = AXIS2_PLACEMENT_3D ( 'NONE', #185, #279, #170 ) ;
#115 = DIRECTION ( 'NONE',  ( 0.000000000000000000, 0.000000000000000000, 1.000000000000000000 ) ) ;
#116 = APPLICATION_CONTEXT ( 'automotive_design' ) ;
#117 = CARTESIAN_POINT ( 'NONE',  ( 0.000000000000000000, 1.000000000000000222, 0.000000000000000000 ) ) ;
#118 =( NAMED_UNIT ( * ) SI_UNIT ( $, .STERADIAN. ) SOLID_ANGLE_UNIT ( ) );
#119 = APPLICATION_PROTOCOL_DEFINITION ( 'draft international standard', 'automotive_design', 1998, #205 ) ;
#120 = DIRECTION ( 'NONE',  ( 0.000000000000000000, 1.000000000000000000, 0.000000000000000000 ) ) ;
#121 = DIMENSIONAL_EXPONENTS ( 1.000000000000000000, 0.000000000000000000, 0.000000000000000000, 0.000000000000000000, 0.000000000000000000, 0.000000000000000000, 0.000000000000000000 ) ;
#122 = CARTESIAN_POINT ( 'NONE',  ( 4.592425496802575451E-17, 0.000000000000000000, 0.3750000000000000555 ) ) ;
#123 = UNCERTAINTY_MEASURE_WITH_UNIT (LENGTH_MEASURE( 1.000000000000000082E-05 ), #267, 'distance_accuracy_value', 'NONE');
#124 = FILL_AREA_STYLE ('',( #281 ) ) ;
#125 = DIRECTION ( 'NONE',  ( 1.000000000000000000, -8.164311994315692567E-17, 0.000000000000000000 ) ) ;
#126 = COLOUR_RGB ( '',1.000000000000000000, 0.000000000000000000, 0.000000000000000000 ) ;
#127 = DIRECTION ( 'NONE',  ( -0.000000000000000000, -1.000000000000000000, -0.000000000000000000 ) ) ;
#128 = EDGE_CURVE ( 'NONE', #208, #225, #193, .T. ) ;
#129 = SURFACE_STYLE_FILL_AREA ( #53 ) ;
#130 = AXIS2_PLACEMENT_3D ( 'NONE', #105, #160, #252 ) ;
#131 = CARTESIAN_POINT ( 'NONE',  ( 0.000000000000000000, 0.000000000000000000, 0.000000000000000000 ) ) ;
#132 = CLOSED_SHELL ( 'NONE', ( #199, #71, #152, #268 ) ) ;
#133 = CARTESIAN_POINT ( 'NONE',  ( 0.000000000000000000, 1.000000000000000222, 0.000000000000000000 ) ) ;
#134 = ORIENTED_EDGE ( 'NONE', *, *, #113, .T. ) ;
#135 = CARTESIAN_POINT ( 'NONE',  ( -0.3750000000000000555, 1.000000000000000222, 0.000000000000000000 ) ) ;
#136 = COLOUR_RGB ( '',1.000000000000000000, 0.000000000000000000, 0.000000000000000000 ) ;
#137 = CYLINDRICAL_SURFACE ( 'NONE', #103, 0.3749999999999998890 ) ;
#138 = ORIENTED_EDGE ( 'NONE', *, *, #179, .T. ) ;
#139 = SURFACE_SIDE_STYLE ('',( #300 ) ) ;
#140 = VERTEX_POINT ( 'NONE', #122 ) ;
#141 = FILL_AREA_STYLE ('',( #145 ) ) ;
#142 = CARTESIAN_POINT ( 'NONE',  ( 0.3750000000000000555, 1.000000000000000222, 4.592425496802573602E-17 ) ) ;
#143 = FACE_OUTER_BOUND ( 'NONE', #182, .T. ) ;
#144 = DIRECTION ( 'NONE',  ( 8.164311994315692567E-17, 1.000000000000000000, -0.000000000000000000 ) ) ;
#145 = FILL_AREA_STYLE_COLOUR ( '', #126 ) ;
#146 = SURFACE_STYLE_FILL_AREA ( #124 ) ;
#147 =( GEOMETRIC_REPRESENTATION_CONTEXT ( 3 ) GLOBAL_UNCERTAINTY_ASSIGNED_CONTEXT ( ( #228 ) ) GLOBAL_UNIT_ASSIGNED_CONTEXT ( ( #171, #104, #52 ) ) REPRESENTATION_CONTEXT ( 'NONE', 'WORKASPACE' ) );
#148 = CLOSED_SHELL ( 'NONE', ( #249, #203, #190, #183 ) ) ;
#149 = DIRECTION ( 'NONE',  ( 8.164311994315692567E-17, 1.000000000000000000, -0.000000000000000000 ) ) ;
#150 = DIMENSIONAL_EXPONENTS ( 1.000000000000000000, 0.000000000000000000, 0.000000000000000000, 0.000000000000000000, 0.000000000000000000, 0.000000000000000000, 0.000000000000000000 ) ;
#151 = CARTESIAN_POINT ( 'NONE',  ( 4.592425496802575451E-17, 1.000000000000000222, 0.3750000000000000555 ) ) ;
#152 = ADVANCED_FACE ( 'NONE', ( #143 ), #257, .T. ) ;
#153 = DIRECTION ( 'NONE',  ( -0.000000000000000000, -1.000000000000000000, -0.000000000000000000 ) ) ;
#154 = FILL_AREA_STYLE_COLOUR ( '', #93 ) ;
#155 = CIRCLE ( 'NONE', #44, 0.3749999999999997780 ) ;
#156 = FACE_OUTER_BOUND ( 'NONE', #85, .T. ) ;
#157 = VERTEX_POINT ( 'NONE', #151 ) ;
#158 =( NAMED_UNIT ( * ) PLANE_ANGLE_UNIT ( ) SI_UNIT ( $, .RADIAN. ) );
#159 = EDGE_LOOP ( 'NONE', ( #248, #65 ) ) ;
#160 = DIRECTION ( 'NONE',  ( 0.000000000000000000, -1.000000000000000000, -0.000000000000000000 ) ) ;
#161 =( GEOMETRIC_REPRESENTATION_CONTEXT ( 3 ) GLOBAL_UNCERTAINTY_ASSIGNED_CONTEXT ( ( #213 ) ) GLOBAL_UNIT_ASSIGNED_CONTEXT ( ( #240, #101, #172 ) ) REPRESENTATION_CONTEXT ( 'NONE', 'WORKASPACE' ) );
#162 =( LENGTH_UNIT ( ) NAMED_UNIT ( * ) SI_UNIT ( $, .METRE. ) );
#163 = EDGE_LOOP ( 'NONE', ( #134, #250, #82, #111 ) ) ;
#164 = CARTESIAN_POINT ( 'NONE',  ( 0.000000000000000000, 1.000000000000000222, 0.000000000000000000 ) ) ;
#165 =( GEOMETRIC_REPRESENTATION_CONTEXT ( 3 ) GLOBAL_UNCERTAINTY_ASSIGNED_CONTEXT ( ( #9 ) ) GLOBAL_UNIT_ASSIGNED_CONTEXT ( ( #283, #22, #118 ) ) REPRESENTATION_CONTEXT ( 'NONE', 'WORKASPACE' ) );
#166 = DIRECTION ( 'NONE',  ( -1.000000000000000000, 0.000000000000000000, 0.000000000000000000 ) ) ;
#167 = SURFACE_STYLE_FILL_AREA ( #141 ) ;
#168 = SHAPE_DEFINITION_REPRESENTATION ( #6, #243 ) ;
#169 = DIRECTION ( 'NONE',  ( 8.164311994315692567E-17, 1.000000000000000000, -0.000000000000000000 ) ) ;
#170 = DIRECTION ( 'NONE',  ( 0.000000000000000000, 0.000000000000000000, -1.000000000000000000 ) ) ;
#171 =( CONVERSION_BASED_UNIT ( 'INCH', #262 ) LENGTH_UNIT ( ) NAMED_UNIT ( #72 ) );
#172 =( NAMED_UNIT ( * ) SI_UNIT ( $, .STERADIAN. ) SOLID_ANGLE_UNIT ( ) );
#173 = PRESENTATION_STYLE_ASSIGNMENT (( #220 ) ) ;
#174 = CARTESIAN_POINT ( 'NONE',  ( -0.3749999999999996114, 4.000000000000000000, 0.000000000000000000 ) ) ;
#175 = EDGE_CURVE ( 'NONE', #140, #297, #112, .T. ) ;
#176 = AXIS2_PLACEMENT_3D ( 'NONE', #164, #149, #261 ) ;
#177 =( NAMED_UNIT ( * ) PLANE_ANGLE_UNIT ( ) SI_UNIT ( $, .RADIAN. ) );
#178 = ORIENTED_EDGE ( 'NONE', *, *, #95, .T. ) ;
#179 = EDGE_CURVE ( 'NONE', #12, #157, #107, .T. ) ;
#180 = FACE_OUTER_BOUND ( 'NONE', #271, .T. ) ;
#181 = ORIENTED_EDGE ( 'NONE', *, *, #113, .F. ) ;
#182 = EDGE_LOOP ( 'NONE', ( #232, #230, #16, #87 ) ) ;
#183 = ADVANCED_FACE ( 'NONE', ( #242 ), #30, .F. ) ;
#184 =( NAMED_UNIT ( * ) PLANE_ANGLE_UNIT ( ) SI_UNIT ( $, .RADIAN. ) );
#185 = CARTESIAN_POINT ( 'NONE',  ( 0.000000000000000000, 0.000000000000000000, 0.000000000000000000 ) ) ;
#186 = SURFACE_SIDE_STYLE ('',( #167 ) ) ;
#187 = LENGTH_MEASURE_WITH_UNIT ( LENGTH_MEASURE( 0.02539999999999999897 ), #259 );
#188 = CARTESIAN_POINT ( 'NONE',  ( 2.449293598294707400E-16, 4.000000000000000000, 0.000000000000000000 ) ) ;
#189 = CARTESIAN_POINT ( 'NONE',  ( 0.000000000000000000, 1.000000000000000222, -0.3750000000000000555 ) ) ;
#190 = ADVANCED_FACE ( 'NONE', ( #31 ), #75, .T. ) ;
#191 = FACE_OUTER_BOUND ( 'NONE', #159, .T. ) ;
#192 = STYLED_ITEM ( 'NONE', ( #173 ), #199 ) ;
#193 = CIRCLE ( 'NONE', #217, 0.3749999999999997780 ) ;
#194 = MANIFOLD_SOLID_BREP ( 'Revolve - Tool Body (Straight Shanked)', #148 ) ;
#195 = PRESENTATION_STYLE_ASSIGNMENT (( #100 ) ) ;
#196 = AXIS2_PLACEMENT_3D ( 'NONE', #47, #115, #307 ) ;
#197 = MECHANICAL_DESIGN_GEOMETRIC_PRESENTATION_REPRESENTATION (  '', ( #192 ), #263 ) ;
#198 = DIRECTION ( 'NONE',  ( -0.000000000000000000, -1.000000000000000000, -0.000000000000000000 ) ) ;
#199 = ADVANCED_FACE ( 'NONE', ( #244 ), #32, .T. ) ;
#200 = FILL_AREA_STYLE ('',( #229 ) ) ;
#201 = DIRECTION ( 'NONE',  ( 8.164311994315692567E-17, 1.000000000000000000, -0.000000000000000000 ) ) ;
#202 = DIRECTION ( 'NONE',  ( 0.000000000000000000, 0.000000000000000000, -1.000000000000000000 ) ) ;
#203 = ADVANCED_FACE ( 'NONE', ( #180 ), #37, .F. ) ;
#204 = AXIS2_PLACEMENT_3D ( 'NONE', #133, #144, #235 ) ;
#205 = APPLICATION_CONTEXT ( 'automotive_design' ) ;
#206 = DIRECTION ( 'NONE',  ( -1.000000000000000000, 8.164311994315692567E-17, 0.000000000000000000 ) ) ;
#207 = VERTEX_POINT ( 'NONE', #135 ) ;
#208 = VERTEX_POINT ( 'NONE', #269 ) ;
#209 = CARTESIAN_POINT ( 'NONE',  ( 4.592425496802575451E-17, 0.000000000000000000, 0.3750000000000000555 ) ) ;
#210 = DIRECTION ( 'NONE',  ( 0.000000000000000000, -0.000000000000000000, 1.000000000000000000 ) ) ;
#211 = DIRECTION ( 'NONE',  ( -0.000000000000000000, -1.000000000000000000, -0.000000000000000000 ) ) ;
#212 = DIRECTION ( 'NONE',  ( -0.000000000000000000, -1.000000000000000000, -0.000000000000000000 ) ) ;
#213 = UNCERTAINTY_MEASURE_WITH_UNIT (LENGTH_MEASURE( 1.000000000000000082E-05 ), #240, 'distance_accuracy_value', 'NONE');
#214 = DIRECTION ( 'NONE',  ( 0.000000000000000000, 0.000000000000000000, -1.000000000000000000 ) ) ;
#215 = DIRECTION ( 'NONE',  ( 8.164311994315692567E-17, 1.000000000000000000, -0.000000000000000000 ) ) ;
#216 = EDGE_CURVE ( 'NONE', #207, #225, #273, .T. ) ;
#217 = AXIS2_PLACEMENT_3D ( 'NONE', #188, #169, #166 ) ;
#218 = FILL_AREA_STYLE ('',( #154 ) ) ;
#219 = CARTESIAN_POINT ( 'NONE',  ( 0.000000000000000000, 0.000000000000000000, 0.000000000000000000 ) ) ;
#220 = SURFACE_STYLE_USAGE ( .BOTH. , #80 ) ;
#221 =( GEOMETRIC_REPRESENTATION_CONTEXT ( 3 ) GLOBAL_UNCERTAINTY_ASSIGNED_CONTEXT ( ( #123 ) ) GLOBAL_UNIT_ASSIGNED_CONTEXT ( ( #267, #177, #58 ) ) REPRESENTATION_CONTEXT ( 'NONE', 'WORKASPACE' ) );
#222 =( LENGTH_UNIT ( ) NAMED_UNIT ( * ) SI_UNIT ( $, .METRE. ) );
#223 = CARTESIAN_POINT ( 'NONE',  ( 1.249799818884882708E-33, 1.000000000000000222, 0.000000000000000000 ) ) ;
#224 = VECTOR ( 'NONE', #278, 39.37007874015748143 ) ;
#225 = VERTEX_POINT ( 'NONE', #265 ) ;
#226 = CARTESIAN_POINT ( 'NONE',  ( 0.000000000000000000, 0.000000000000000000, 0.000000000000000000 ) ) ;
#227 = EDGE_LOOP ( 'NONE', ( #138, #59, #277, #110 ) ) ;
#228 = UNCERTAINTY_MEASURE_WITH_UNIT (LENGTH_MEASURE( 1.000000000000000082E-05 ), #171, 'distance_accuracy_value', 'NONE');
#229 = FILL_AREA_STYLE_COLOUR ( '', #234 ) ;
#230 = ORIENTED_EDGE ( 'NONE', *, *, #76, .T. ) ;
#231 =( GEOMETRIC_REPRESENTATION_CONTEXT ( 3 ) GLOBAL_UNCERTAINTY_ASSIGNED_CONTEXT ( ( #255 ) ) GLOBAL_UNIT_ASSIGNED_CONTEXT ( ( #21, #282, #276 ) ) REPRESENTATION_CONTEXT ( 'NONE', 'WORKASPACE' ) );
#232 = ORIENTED_EDGE ( 'NONE', *, *, #295, .F. ) ;
#233 = PRODUCT ( '00645', '00645', '', ( #20 ) ) ;
#234 = COLOUR_RGB ( '',0.7921568627450980005, 0.8196078431372548767, 0.9333333333333333481 ) ;
#235 = DIRECTION ( 'NONE',  ( -1.000000000000000000, 0.000000000000000000, 0.000000000000000000 ) ) ;
#236 = COLOUR_RGB ( '',1.000000000000000000, 0.000000000000000000, 0.000000000000000000 ) ;
#237 = DIMENSIONAL_EXPONENTS ( 1.000000000000000000, 0.000000000000000000, 0.000000000000000000, 0.000000000000000000, 0.000000000000000000, 0.000000000000000000, 0.000000000000000000 ) ;
#238 = SURFACE_STYLE_USAGE ( .BOTH. , #1 ) ;
#239 = CARTESIAN_POINT ( 'NONE',  ( 0.3750000000000000555, 4.000000000000000000, 0.000000000000000000 ) ) ;
#240 =( CONVERSION_BASED_UNIT ( 'INCH', #56 ) LENGTH_UNIT ( ) NAMED_UNIT ( #237 ) );
#241 = AXIS2_PLACEMENT_3D ( 'NONE', #131, #153, #55 ) ;
#242 = FACE_OUTER_BOUND ( 'NONE', #40, .T. ) ;
#243 = ADVANCED_BREP_SHAPE_REPRESENTATION ( '00645', ( #285, #194, #196 ), #231 ) ;
#244 = FACE_OUTER_BOUND ( 'NONE', #227, .T. ) ;
#245 = PRESENTATION_LAYER_ASSIGNMENT (  '', '', ( #272 ) ) ;
#246 = AXIS2_PLACEMENT_3D ( 'NONE', #305, #212, #214 ) ;
#247 = SURFACE_STYLE_USAGE ( .BOTH. , #139 ) ;
#248 = ORIENTED_EDGE ( 'NONE', *, *, #179, .F. ) ;
#249 = ADVANCED_FACE ( 'NONE', ( #298 ), #137, .T. ) ;
#250 = ORIENTED_EDGE ( 'NONE', *, *, #13, .T. ) ;
#251 = STYLED_ITEM ( 'NONE', ( #258 ), #152 ) ;
#252 = DIRECTION ( 'NONE',  ( 0.000000000000000000, 0.000000000000000000, -1.000000000000000000 ) ) ;
#253 =( GEOMETRIC_REPRESENTATION_CONTEXT ( 3 ) GLOBAL_UNCERTAINTY_ASSIGNED_CONTEXT ( ( #96 ) ) GLOBAL_UNIT_ASSIGNED_CONTEXT ( ( #304, #184, #69 ) ) REPRESENTATION_CONTEXT ( 'NONE', 'WORKASPACE' ) );
#254 = LINE ( 'NONE', #26, #74 ) ;
#255 = UNCERTAINTY_MEASURE_WITH_UNIT (LENGTH_MEASURE( 1.000000000000000082E-05 ), #21, 'distance_accuracy_value', 'NONE');
#256 =( LENGTH_UNIT ( ) NAMED_UNIT ( * ) SI_UNIT ( $, .METRE. ) );
#257 = CYLINDRICAL_SURFACE ( 'NONE', #241, 0.3750000000000000555 ) ;
#258 = PRESENTATION_STYLE_ASSIGNMENT (( #238 ) ) ;
#259 =( LENGTH_UNIT ( ) NAMED_UNIT ( * ) SI_UNIT ( $, .METRE. ) );
#260 = MECHANICAL_DESIGN_GEOMETRIC_PRESENTATION_REPRESENTATION (  '', ( #272 ), #221 ) ;
#261 = DIRECTION ( 'NONE',  ( -1.000000000000000000, 0.000000000000000000, 0.000000000000000000 ) ) ;
#262 = LENGTH_MEASURE_WITH_UNIT ( LENGTH_MEASURE( 0.02539999999999999897 ), #99 );
#263 =( GEOMETRIC_REPRESENTATION_CONTEXT ( 3 ) GLOBAL_UNCERTAINTY_ASSIGNED_CONTEXT ( ( #287 ) ) GLOBAL_UNIT_ASSIGNED_CONTEXT ( ( #294, #158, #39 ) ) REPRESENTATION_CONTEXT ( 'NONE', 'WORKASPACE' ) );
#264 = SURFACE_STYLE_FILL_AREA ( #218 ) ;
#265 = CARTESIAN_POINT ( 'NONE',  ( -0.3749999999999995004, 4.000000000000000000, 0.000000000000000000 ) ) ;
#266 = CIRCLE ( 'NONE', #114, 0.3750000000000000555 ) ;
#267 =( CONVERSION_BASED_UNIT ( 'INCH', #86 ) LENGTH_UNIT ( ) NAMED_UNIT ( #150 ) );
#268 = ADVANCED_FACE ( 'NONE', ( #156 ), #62, .T. ) ;
#269 = CARTESIAN_POINT ( 'NONE',  ( 0.3750000000000000555, 4.000000000000000000, 4.592425496802573602E-17 ) ) ;
#270 = ORIENTED_EDGE ( 'NONE', *, *, #128, .F. ) ;
#271 = EDGE_LOOP ( 'NONE', ( #181, #14 ) ) ;
#272 = STYLED_ITEM ( 'NONE', ( #88 ), #268 ) ;
#273 = LINE ( 'NONE', #174, #63 ) ;
#274 = EDGE_LOOP ( 'NONE', ( #64, #89, #60, #270 ) ) ;
#275 = PRODUCT_DEFINITION_CONTEXT ( 'detailed design', #116, 'design' ) ;
#276 =( NAMED_UNIT ( * ) SI_UNIT ( $, .STERADIAN. ) SOLID_ANGLE_UNIT ( ) );
#277 = ORIENTED_EDGE ( 'NONE', *, *, #95, .F. ) ;
#278 = DIRECTION ( 'NONE',  ( -0.000000000000000000, -1.000000000000000000, -0.000000000000000000 ) ) ;
#279 = DIRECTION ( 'NONE',  ( -0.000000000000000000, -1.000000000000000000, -0.000000000000000000 ) ) ;
#280 = CARTESIAN_POINT ( 'NONE',  ( 0.000000000000000000, 0.000000000000000000, -0.3750000000000000555 ) ) ;
#281 = FILL_AREA_STYLE_COLOUR ( '', #136 ) ;
#282 =( NAMED_UNIT ( * ) PLANE_ANGLE_UNIT ( ) SI_UNIT ( $, .RADIAN. ) );
#283 =( CONVERSION_BASED_UNIT ( 'INCH', #51 ) LENGTH_UNIT ( ) NAMED_UNIT ( #121 ) );
#284 = CARTESIAN_POINT ( 'NONE',  ( 0.3750000000000001665, 4.000000000000000000, 4.592425496802572986E-17 ) ) ;
#285 = MANIFOLD_SOLID_BREP ( 'Revolve - Cutting Edge', #132 ) ;
#286 = AXIS2_PLACEMENT_3D ( 'NONE', #239, #28, #125 ) ;
#287 = UNCERTAINTY_MEASURE_WITH_UNIT (LENGTH_MEASURE( 1.000000000000000082E-05 ), #294, 'distance_accuracy_value', 'NONE');
#288 = CIRCLE ( 'NONE', #176, 0.3750000000000000555 ) ;
#289 = CARTESIAN_POINT ( 'NONE',  ( 0.000000000000000000, 1.000000000000000222, 0.000000000000000000 ) ) ;
#290 = STYLED_ITEM ( 'NONE', ( #195 ), #194 ) ;
#291 = EDGE_CURVE ( 'NONE', #299, #207, #35, .T. ) ;
#292 = MECHANICAL_DESIGN_GEOMETRIC_PRESENTATION_REPRESENTATION (  '', ( #108 ), #165 ) ;
#293 = MECHANICAL_DESIGN_GEOMETRIC_PRESENTATION_REPRESENTATION (  '', ( #302 ), #253 ) ;
#294 =( CONVERSION_BASED_UNIT ( 'INCH', #36 ) LENGTH_UNIT ( ) NAMED_UNIT ( #308 ) );
#295 = EDGE_CURVE ( 'NONE', #157, #140, #92, .T. ) ;
#296 = SURFACE_STYLE_FILL_AREA ( #200 ) ;
#297 = VERTEX_POINT ( 'NONE', #280 ) ;
#298 = FACE_OUTER_BOUND ( 'NONE', #163, .T. ) ;
#299 = VERTEX_POINT ( 'NONE', #142 ) ;
#300 = SURFACE_STYLE_FILL_AREA ( #7 ) ;
#301 = ORIENTED_EDGE ( 'NONE', *, *, #175, .T. ) ;
#302 = STYLED_ITEM ( 'NONE', ( #91 ), #285 ) ;
#303 = AXIS2_PLACEMENT_3D ( 'NONE', #117, #120, #210 ) ;
#304 =( CONVERSION_BASED_UNIT ( 'INCH', #187 ) LENGTH_UNIT ( ) NAMED_UNIT ( #25 ) );
#305 = CARTESIAN_POINT ( 'NONE',  ( 0.000000000000000000, 1.000000000000000222, 0.000000000000000000 ) ) ;
#306 = DIRECTION ( 'NONE',  ( 8.164311994315692567E-17, 1.000000000000000000, -0.000000000000000000 ) ) ;
#307 = DIRECTION ( 'NONE',  ( 1.000000000000000000, 0.000000000000000000, 0.000000000000000000 ) ) ;
#308 = DIMENSIONAL_EXPONENTS ( 1.000000000000000000, 0.000000000000000000, 0.000000000000000000, 0.000000000000000000, 0.000000000000000000, 0.000000000000000000, 0.000000000000000000 ) ;
#309 = PRESENTATION_STYLE_ASSIGNMENT (( #46 ) ) ;
ENDSEC;
END-ISO-10303-21;
