ISO-10303-21;
HEADER;
FILE_DESCRIPTION (( 'STEP AP214' ),
    '1' );
FILE_NAME ('Micro_SFLM-060-10.STEP',
    '2021-09-02T05:44:50',
    ( '' ),
    ( '' ),
    'SwSTEP 2.0',
    'SolidWorks 2020',
    '' );
FILE_SCHEMA (( 'AUTOMOTIVE_DESIGN' ));
ENDSEC;

DATA;
#1 = FACE_OUTER_BOUND ( 'NONE', #213, .T. ) ;
#2 = VECTOR ( 'NONE', #109, 39.37007874015748143 ) ;
#3 = DIRECTION ( 'NONE',  ( 0.0000000000000000000, 0.0000000000000000000, 1.000000000000000000 ) ) ;
#4 = UNCERTAINTY_MEASURE_WITH_UNIT (LENGTH_MEASURE( 1.000000000000000082E-05 ), #207, 'distance_accuracy_value', 'NONE');
#5 = DIRECTION ( 'NONE',  ( -1.224646799147353207E-16, -0.0000000000000000000, -1.000000000000000000 ) ) ;
#6 = CARTESIAN_POINT ( 'NONE',  ( 7.714307363656999460E-17, 0.0000000000000000000, 0.6299209999999999532 ) ) ;
#7 = ORIENTED_EDGE ( 'NONE', *, *, #176, .T. ) ;
#8 =( GEOMETRIC_REPRESENTATION_CONTEXT ( 3 ) GLOBAL_UNCERTAINTY_ASSIGNED_CONTEXT ( ( #278 ) ) GLOBAL_UNIT_ASSIGNED_CONTEXT ( ( #293, #84, #295 ) ) REPRESENTATION_CONTEXT ( 'NONE', 'WORKASPACE' ) );
#9 = CYLINDRICAL_SURFACE ( 'NONE', #138, 0.1179918900000000159 ) ;
#10 = APPLICATION_CONTEXT ( 'automotive_design' ) ;
#11 = ORIENTED_EDGE ( 'NONE', *, *, #284, .F. ) ;
#12 = ORIENTED_EDGE ( 'NONE', *, *, #199, .T. ) ;
#13 = ORIENTED_EDGE ( 'NONE', *, *, #31, .T. ) ;
#14 = EDGE_CURVE ( 'NONE', #148, #94, #187, .T. ) ;
#15 = ORIENTED_EDGE ( 'NONE', *, *, #126, .F. ) ;
#16 = CIRCLE ( 'NONE', #29, 0.1181100000000000066 ) ;
#17 = SHAPE_DEFINITION_REPRESENTATION ( #142, #251 ) ;
#18 = ORIENTED_EDGE ( 'NONE', *, *, #291, .F. ) ;
#19 = ADVANCED_FACE ( 'NONE', ( #83 ), #175, .F. ) ;
#20 = FACE_OUTER_BOUND ( 'NONE', #214, .T. ) ;
#21 = DIMENSIONAL_EXPONENTS ( 1.000000000000000000, 0.0000000000000000000, 0.0000000000000000000, 0.0000000000000000000, 0.0000000000000000000, 0.0000000000000000000, 0.0000000000000000000 ) ;
#22 = APPLICATION_PROTOCOL_DEFINITION ( 'draft international standard', 'automotive_design', 1998, #10 ) ;
#23 = FACE_OUTER_BOUND ( 'NONE', #294, .T. ) ;
#24 = AXIS2_PLACEMENT_3D ( 'NONE', #122, #111, #247 ) ;
#25 = CARTESIAN_POINT ( 'NONE',  ( 0.1181100000000000066, 1.446430334472939084E-17, 2.229093999999999465 ) ) ;
#26 = CARTESIAN_POINT ( 'NONE',  ( -0.1031100000000002570, 0.0000000000000000000, 2.244094000000000033 ) ) ;
#27 = ADVANCED_FACE ( 'NONE', ( #145 ), #224, .T. ) ;
#28 = DIRECTION ( 'NONE',  ( 1.224646799147353207E-16, 0.0000000000000000000, 1.000000000000000000 ) ) ;
#29 = AXIS2_PLACEMENT_3D ( 'NONE', #115, #139, #204 ) ;
#30 = DIRECTION ( 'NONE',  ( -0.0000000000000000000, -0.0000000000000000000, -1.000000000000000000 ) ) ;
#31 = EDGE_CURVE ( 'NONE', #106, #220, #37, .T. ) ;
#32 =( NAMED_UNIT ( * ) SI_UNIT ( $, .STERADIAN. ) SOLID_ANGLE_UNIT ( ) );
#33 =( NAMED_UNIT ( * ) PLANE_ANGLE_UNIT ( ) SI_UNIT ( $, .RADIAN. ) );
#34 = FACE_OUTER_BOUND ( 'NONE', #120, .T. ) ;
#35 = ORIENTED_EDGE ( 'NONE', *, *, #244, .F. ) ;
#36 = EDGE_LOOP ( 'NONE', ( #39, #13 ) ) ;
#37 = CIRCLE ( 'NONE', #24, 0.1031100000000002570 ) ;
#38 = DIRECTION ( 'NONE',  ( -1.000000000000000000, 0.0000000000000000000, 0.0000000000000000000 ) ) ;
#39 = ORIENTED_EDGE ( 'NONE', *, *, #236, .T. ) ;
#40 = VERTEX_POINT ( 'NONE', #68 ) ;
#41 = AXIS2_PLACEMENT_3D ( 'NONE', #198, #299, #91 ) ;
#42 = VERTEX_POINT ( 'NONE', #298 ) ;
#43 = DIRECTION ( 'NONE',  ( -0.0000000000000000000, -0.0000000000000000000, -1.000000000000000000 ) ) ;
#44 = LINE ( 'NONE', #270, #51 ) ;
#45 = DIRECTION ( 'NONE',  ( 1.000000000000000000, 0.0000000000000000000, 0.0000000000000000000 ) ) ;
#46 = AXIS2_PLACEMENT_3D ( 'NONE', #89, #135, #63 ) ;
#47 = PRODUCT_DEFINITION ( 'UNKNOWN', '', #282, #209 ) ;
#48 = DIRECTION ( 'NONE',  ( 0.0000000000000000000, 0.0000000000000000000, -1.000000000000000000 ) ) ;
#49 = CARTESIAN_POINT ( 'NONE',  ( -0.1181100000000000066, 0.0000000000000000000, 2.244094000000000033 ) ) ;
#50 = DIRECTION ( 'NONE',  ( 1.000000000000000000, 0.0000000000000000000, -0.0000000000000000000 ) ) ;
#51 = VECTOR ( 'NONE', #92, 39.37007874015748143 ) ;
#52 = LENGTH_MEASURE_WITH_UNIT ( LENGTH_MEASURE( 0.02539999999999999897 ), #259 );
#53 = DIRECTION ( 'NONE',  ( 0.1736481776669314137, 0.0000000000000000000, 0.9848077530122077983 ) ) ;
#54 = CIRCLE ( 'NONE', #218, 0.1179918900000000159 ) ;
#55 = ORIENTED_EDGE ( 'NONE', *, *, #67, .T. ) ;
#56 = DIRECTION ( 'NONE',  ( 1.000000000000000000, 0.0000000000000000000, -0.0000000000000000000 ) ) ;
#57 = EDGE_LOOP ( 'NONE', ( #18, #288, #206, #235 ) ) ;
#58 = DIRECTION ( 'NONE',  ( 0.0000000000000000000, 0.0000000000000000000, 1.000000000000000000 ) ) ;
#59 = ORIENTED_EDGE ( 'NONE', *, *, #203, .F. ) ;
#60 = DIRECTION ( 'NONE',  ( 0.0000000000000000000, 0.0000000000000000000, 1.000000000000000000 ) ) ;
#61 = PRODUCT ( 'Micro_SFLM-060-10', 'Micro_SFLM-060-10', '', ( #129 ) ) ;
#62 = SURFACE_SIDE_STYLE ('',( #242 ) ) ;
#63 = DIRECTION ( 'NONE',  ( -1.000000000000000000, 0.0000000000000000000, 0.0000000000000000000 ) ) ;
#64 = FILL_AREA_STYLE ('',( #277 ) ) ;
#65 =( NAMED_UNIT ( * ) SI_UNIT ( $, .STERADIAN. ) SOLID_ANGLE_UNIT ( ) );
#66 = CARTESIAN_POINT ( 'NONE',  ( 0.0000000000000000000, 0.0000000000000000000, 2.244094000000000033 ) ) ;
#67 = EDGE_CURVE ( 'NONE', #40, #241, #250, .T. ) ;
#68 = CARTESIAN_POINT ( 'NONE',  ( -0.1179918899999999188, 1.445707119305702357E-17, 0.6299209999999999532 ) ) ;
#69 = AXIS2_PLACEMENT_3D ( 'NONE', #269, #60, #56 ) ;
#70 = CARTESIAN_POINT ( 'NONE',  ( 7.714307363656999460E-17, 0.0000000000000000000, 0.6299209999999999532 ) ) ;
#71 = DIRECTION ( 'NONE',  ( 0.7071067811865358044, 8.659560562354788645E-17, -0.7071067811865590080 ) ) ;
#72 = PRESENTATION_STYLE_ASSIGNMENT (( #223 ) ) ;
#73 = AXIS2_PLACEMENT_3D ( 'NONE', #202, #85, #156 ) ;
#74 = CARTESIAN_POINT ( 'NONE',  ( -0.1179918899999999882, 0.0000000000000000000, 2.889967808276931875E-17 ) ) ;
#75 = DIRECTION ( 'NONE',  ( -1.224646799147353207E-16, -0.0000000000000000000, -1.000000000000000000 ) ) ;
#76 = AXIS2_PLACEMENT_3D ( 'NONE', #161, #110, #130 ) ;
#77 =( GEOMETRIC_REPRESENTATION_CONTEXT ( 3 ) GLOBAL_UNCERTAINTY_ASSIGNED_CONTEXT ( ( #4 ) ) GLOBAL_UNIT_ASSIGNED_CONTEXT ( ( #207, #33, #32 ) ) REPRESENTATION_CONTEXT ( 'NONE', 'WORKASPACE' ) );
#78 = ORIENTED_EDGE ( 'NONE', *, *, #296, .T. ) ;
#79 = ORIENTED_EDGE ( 'NONE', *, *, #225, .T. ) ;
#80 = SURFACE_STYLE_USAGE ( .BOTH. , #62 ) ;
#81 = AXIS2_PLACEMENT_3D ( 'NONE', #99, #30, #162 ) ;
#82 = ORIENTED_EDGE ( 'NONE', *, *, #291, .T. ) ;
#83 = FACE_OUTER_BOUND ( 'NONE', #171, .T. ) ;
#84 =( NAMED_UNIT ( * ) PLANE_ANGLE_UNIT ( ) SI_UNIT ( $, .RADIAN. ) );
#85 = DIRECTION ( 'NONE',  ( 0.0000000000000000000, 0.0000000000000000000, -1.000000000000000000 ) ) ;
#86 = DIMENSIONAL_EXPONENTS ( 1.000000000000000000, 0.0000000000000000000, 0.0000000000000000000, 0.0000000000000000000, 0.0000000000000000000, 0.0000000000000000000, 0.0000000000000000000 ) ;
#87 = DIRECTION ( 'NONE',  ( -1.000000000000000000, 0.0000000000000000000, 1.224646799147352961E-16 ) ) ;
#88 = PRESENTATION_LAYER_ASSIGNMENT (  '', '', ( #133 ) ) ;
#89 = CARTESIAN_POINT ( 'NONE',  ( 0.0000000000000000000, 0.0000000000000000000, 2.244094000000000033 ) ) ;
#90 =( NAMED_UNIT ( * ) PLANE_ANGLE_UNIT ( ) SI_UNIT ( $, .RADIAN. ) );
#91 = DIRECTION ( 'NONE',  ( -1.000000000000000000, 0.0000000000000000000, 1.224646799147353454E-16 ) ) ;
#92 = DIRECTION ( 'NONE',  ( -1.224646799147353207E-16, -0.0000000000000000000, -1.000000000000000000 ) ) ;
#93 = ADVANCED_FACE ( 'NONE', ( #23 ), #100, .T. ) ;
#94 = VERTEX_POINT ( 'NONE', #253 ) ;
#95 = CARTESIAN_POINT ( 'NONE',  ( 0.0000000000000000000, 0.0000000000000000000, 2.244094000000000033 ) ) ;
#96 = AXIS2_PLACEMENT_3D ( 'NONE', #281, #3, #143 ) ;
#97 = DIRECTION ( 'NONE',  ( -1.224646799147353207E-16, -0.0000000000000000000, -1.000000000000000000 ) ) ;
#98 = EDGE_CURVE ( 'NONE', #211, #240, #134, .T. ) ;
#99 = CARTESIAN_POINT ( 'NONE',  ( 0.0000000000000000000, 0.0000000000000000000, 2.244094000000000033 ) ) ;
#100 = CONICAL_SURFACE ( 'NONE', #121, 0.1179918900000000159, 0.1745329251994339192 ) ;
#101 = EDGE_LOOP ( 'NONE', ( #289, #189, #59, #174 ) ) ;
#102 = ORIENTED_EDGE ( 'NONE', *, *, #284, .T. ) ;
#103 = ORIENTED_EDGE ( 'NONE', *, *, #199, .F. ) ;
#104 = MECHANICAL_DESIGN_GEOMETRIC_PRESENTATION_REPRESENTATION (  '', ( #133 ), #8 ) ;
#105 = ORIENTED_EDGE ( 'NONE', *, *, #181, .F. ) ;
#106 = VERTEX_POINT ( 'NONE', #197 ) ;
#107 = LINE ( 'NONE', #132, #158 ) ;
#108 = FACE_OUTER_BOUND ( 'NONE', #262, .T. ) ;
#109 = DIRECTION ( 'NONE',  ( -1.224646799147353207E-16, -0.0000000000000000000, -1.000000000000000000 ) ) ;
#110 = DIRECTION ( 'NONE',  ( -1.224646799147353207E-16, -0.0000000000000000000, -1.000000000000000000 ) ) ;
#111 = DIRECTION ( 'NONE',  ( 0.0000000000000000000, 0.0000000000000000000, 1.000000000000000000 ) ) ;
#112 = COLOUR_RGB ( '',0.7921568627450980005, 0.8196078431372548767, 0.9333333333333333481 ) ;
#113 =( CONVERSION_BASED_UNIT ( 'INCH', #155 ) LENGTH_UNIT ( ) NAMED_UNIT ( #86 ) );
#114 = ADVANCED_FACE ( 'NONE', ( #108 ), #275, .T. ) ;
#115 = CARTESIAN_POINT ( 'NONE',  ( 0.0000000000000000000, 0.0000000000000000000, 2.229093999999999465 ) ) ;
#116 = CARTESIAN_POINT ( 'NONE',  ( 0.1179918900000000992, 0.0000000000000000000, 0.6299209999999999532 ) ) ;
#117 = FACE_OUTER_BOUND ( 'NONE', #101, .T. ) ;
#118 = EDGE_CURVE ( 'NONE', #40, #240, #107, .T. ) ;
#119 = AXIS2_PLACEMENT_3D ( 'NONE', #272, #58, #246 ) ;
#120 = EDGE_LOOP ( 'NONE', ( #264, #78, #55, #11 ) ) ;
#121 = AXIS2_PLACEMENT_3D ( 'NONE', #70, #254, #45 ) ;
#122 = CARTESIAN_POINT ( 'NONE',  ( 0.0000000000000000000, 0.0000000000000000000, 2.244094000000000033 ) ) ;
#123 = ORIENTED_EDGE ( 'NONE', *, *, #296, .F. ) ;
#124 = PRESENTATION_STYLE_ASSIGNMENT (( #80 ) ) ;
#125 = DIRECTION ( 'NONE',  ( -0.0000000000000000000, -0.0000000000000000000, -1.000000000000000000 ) ) ;
#126 = EDGE_CURVE ( 'NONE', #94, #240, #190, .T. ) ;
#127 = CIRCLE ( 'NONE', #73, 0.1181100000000000066 ) ;
#128 = ORIENTED_EDGE ( 'NONE', *, *, #279, .F. ) ;
#129 = PRODUCT_CONTEXT ( 'NONE', #10, 'mechanical' ) ;
#130 = DIRECTION ( 'NONE',  ( 1.000000000000000000, 0.0000000000000000000, 0.0000000000000000000 ) ) ;
#131 = DIRECTION ( 'NONE',  ( -0.7071067811865358044, 0.0000000000000000000, -0.7071067811865590080 ) ) ;
#132 = CARTESIAN_POINT ( 'NONE',  ( -0.1179918899999999188, 1.444983904138465938E-17, 0.6299209999999999532 ) ) ;
#133 = STYLED_ITEM ( 'NONE', ( #124 ), #251 ) ;
#134 = LINE ( 'NONE', #49, #195 ) ;
#135 = DIRECTION ( 'NONE',  ( -0.0000000000000000000, -0.0000000000000000000, -1.000000000000000000 ) ) ;
#136 = CARTESIAN_POINT ( 'NONE',  ( 0.0000000000000000000, 0.0000000000000000000, 0.0000000000000000000 ) ) ;
#137 = CONICAL_SURFACE ( 'NONE', #260, 0.1179918900000000159, 0.1745329251994339192 ) ;
#138 = AXIS2_PLACEMENT_3D ( 'NONE', #136, #5, #256 ) ;
#139 = DIRECTION ( 'NONE',  ( 0.0000000000000000000, 0.0000000000000000000, -1.000000000000000000 ) ) ;
#140 = ADVANCED_FACE ( 'NONE', ( #229 ), #137, .T. ) ;
#141 = DIRECTION ( 'NONE',  ( -1.000000000000000000, 0.0000000000000000000, 0.0000000000000000000 ) ) ;
#142 = PRODUCT_DEFINITION_SHAPE ( 'NONE', 'NONE',  #47 ) ;
#143 = DIRECTION ( 'NONE',  ( 1.000000000000000000, 0.0000000000000000000, 0.0000000000000000000 ) ) ;
#144 = ORIENTED_EDGE ( 'NONE', *, *, #14, .F. ) ;
#145 = FACE_OUTER_BOUND ( 'NONE', #292, .T. ) ;
#146 = CLOSED_SHELL ( 'NONE', ( #212, #140, #153, #230, #114, #274, #27, #93, #258, #19 ) ) ;
#147 = ORIENTED_EDGE ( 'NONE', *, *, #279, .T. ) ;
#148 = VERTEX_POINT ( 'NONE', #25 ) ;
#149 = FILL_AREA_STYLE ('',( #222 ) ) ;
#150 = ORIENTED_EDGE ( 'NONE', *, *, #118, .F. ) ;
#151 = VECTOR ( 'NONE', #131, 39.37007874015748854 ) ;
#152 = LINE ( 'NONE', #26, #151 ) ;
#153 = ADVANCED_FACE ( 'NONE', ( #1 ), #231, .T. ) ;
#154 = SURFACE_STYLE_FILL_AREA ( #64 ) ;
#155 = LENGTH_MEASURE_WITH_UNIT ( LENGTH_MEASURE( 0.02539999999999999897 ), #228 );
#156 = DIRECTION ( 'NONE',  ( 1.000000000000000000, 0.0000000000000000000, 0.0000000000000000000 ) ) ;
#157 = DIRECTION ( 'NONE',  ( -1.000000000000000000, 0.0000000000000000000, 0.0000000000000000000 ) ) ;
#158 = VECTOR ( 'NONE', #180, 39.37007874015747433 ) ;
#159 = CIRCLE ( 'NONE', #96, 0.1031100000000002570 ) ;
#160 = DIRECTION ( 'NONE',  ( -1.000000000000000000, 0.0000000000000000000, 0.0000000000000000000 ) ) ;
#161 = CARTESIAN_POINT ( 'NONE',  ( 7.722510477716238010E-17, 0.0000000000000000000, 0.6305908350957150077 ) ) ;
#162 = DIRECTION ( 'NONE',  ( -1.000000000000000000, 0.0000000000000000000, 0.0000000000000000000 ) ) ;
#163 = VECTOR ( 'NONE', #53, 39.37007874015748143 ) ;
#164 = PRODUCT_RELATED_PRODUCT_CATEGORY ( 'part', '', ( #61 ) ) ;
#165 = FACE_OUTER_BOUND ( 'NONE', #36, .T. ) ;
#166 = CARTESIAN_POINT ( 'NONE',  ( 0.1031100000000002570, 1.262733314600838667E-17, 2.244094000000000033 ) ) ;
#167 = CIRCLE ( 'NONE', #41, 0.1179918899999999882 ) ;
#168 = EDGE_CURVE ( 'NONE', #211, #148, #127, .T. ) ;
#169 = VERTEX_POINT ( 'NONE', #177 ) ;
#170 = CARTESIAN_POINT ( 'NONE',  ( 0.1181100000000000066, 1.446430334472939084E-17, 2.244094000000000033 ) ) ;
#171 = EDGE_LOOP ( 'NONE', ( #267, #102 ) ) ;
#172 = VECTOR ( 'NONE', #125, 39.37007874015748143 ) ;
#173 =( GEOMETRIC_REPRESENTATION_CONTEXT ( 3 ) GLOBAL_UNCERTAINTY_ASSIGNED_CONTEXT ( ( #261 ) ) GLOBAL_UNIT_ASSIGNED_CONTEXT ( ( #113, #90, #65 ) ) REPRESENTATION_CONTEXT ( 'NONE', 'WORKASPACE' ) );
#174 = ORIENTED_EDGE ( 'NONE', *, *, #98, .F. ) ;
#175 = PLANE ( 'NONE',  #69 ) ;
#176 = EDGE_CURVE ( 'NONE', #169, #42, #44, .T. ) ;
#177 = CARTESIAN_POINT ( 'NONE',  ( 0.1179918900000000992, 0.0000000000000000000, 0.6299209999999999532 ) ) ;
#178 = DIRECTION ( 'NONE',  ( -1.224646799147353207E-16, -0.0000000000000000000, -1.000000000000000000 ) ) ;
#179 = DIRECTION ( 'NONE',  ( 1.000000000000000000, 0.0000000000000000000, 0.0000000000000000000 ) ) ;
#180 = DIRECTION ( 'NONE',  ( -0.1736481776669312194, 2.126576849575783625E-17, 0.9848077530122080203 ) ) ;
#181 = EDGE_CURVE ( 'NONE', #241, #42, #167, .T. ) ;
#182 = CARTESIAN_POINT ( 'NONE',  ( 0.0000000000000000000, 0.0000000000000000000, 0.0000000000000000000 ) ) ;
#183 = CARTESIAN_POINT ( 'NONE',  ( -0.1181099999999999234, 0.0000000000000000000, 0.6305908350957150077 ) ) ;
#184 = CYLINDRICAL_SURFACE ( 'NONE', #81, 0.1181100000000000066 ) ;
#185 = DIRECTION ( 'NONE',  ( -1.000000000000000000, 0.0000000000000000000, 1.224646799147353454E-16 ) ) ;
#186 = PRESENTATION_LAYER_ASSIGNMENT (  '', '', ( #238 ) ) ;
#187 = LINE ( 'NONE', #170, #172 ) ;
#188 = ORIENTED_EDGE ( 'NONE', *, *, #244, .T. ) ;
#189 = ORIENTED_EDGE ( 'NONE', *, *, #14, .T. ) ;
#190 = CIRCLE ( 'NONE', #265, 0.1181100000000000066 ) ;
#191 = ORIENTED_EDGE ( 'NONE', *, *, #31, .F. ) ;
#192 = LENGTH_MEASURE_WITH_UNIT ( LENGTH_MEASURE( 0.02539999999999999897 ), #219 );
#193 = ORIENTED_EDGE ( 'NONE', *, *, #126, .T. ) ;
#194 = DIRECTION ( 'NONE',  ( -1.224646799147353207E-16, -0.0000000000000000000, -1.000000000000000000 ) ) ;
#195 = VECTOR ( 'NONE', #43, 39.37007874015748143 ) ;
#196 = AXIS2_PLACEMENT_3D ( 'NONE', #6, #283, #141 ) ;
#197 = CARTESIAN_POINT ( 'NONE',  ( 0.1031100000000002570, 1.354581824536888722E-17, 2.244094000000000033 ) ) ;
#198 = CARTESIAN_POINT ( 'NONE',  ( 1.769594913022618037E-33, 0.0000000000000000000, 1.444983904138465938E-17 ) ) ;
#199 = EDGE_CURVE ( 'NONE', #220, #211, #152, .T. ) ;
#200 = DIRECTION ( 'NONE',  ( 1.000000000000000000, 0.0000000000000000000, 0.0000000000000000000 ) ) ;
#201 = CIRCLE ( 'NONE', #76, 0.1181100000000000066 ) ;
#202 = CARTESIAN_POINT ( 'NONE',  ( 0.0000000000000000000, 0.0000000000000000000, 2.229093999999999465 ) ) ;
#203 = EDGE_CURVE ( 'NONE', #240, #94, #201, .T. ) ;
#204 = DIRECTION ( 'NONE',  ( 1.000000000000000000, 0.0000000000000000000, 0.0000000000000000000 ) ) ;
#205 = DIRECTION ( 'NONE',  ( 0.0000000000000000000, 0.0000000000000000000, 1.000000000000000000 ) ) ;
#206 = ORIENTED_EDGE ( 'NONE', *, *, #203, .T. ) ;
#207 =( CONVERSION_BASED_UNIT ( 'INCH', #52 ) LENGTH_UNIT ( ) NAMED_UNIT ( #21 ) );
#208 = AXIS2_PLACEMENT_3D ( 'NONE', #243, #237, #38 ) ;
#209 = PRODUCT_DEFINITION_CONTEXT ( 'detailed design', #234, 'design' ) ;
#210 = AXIS2_PLACEMENT_3D ( 'NONE', #95, #205, #50 ) ;
#211 = VERTEX_POINT ( 'NONE', #221 ) ;
#212 = ADVANCED_FACE ( 'NONE', ( #20 ), #297, .T. ) ;
#213 = EDGE_LOOP ( 'NONE', ( #191, #188, #216, #103 ) ) ;
#214 = EDGE_LOOP ( 'NONE', ( #82, #7, #105, #257 ) ) ;
#215 = MANIFOLD_SOLID_BREP ( 'Cut-Revolve1', #146 ) ;
#216 = ORIENTED_EDGE ( 'NONE', *, *, #168, .F. ) ;
#217 = AXIS2_PLACEMENT_3D ( 'NONE', #66, #48, #160 ) ;
#218 = AXIS2_PLACEMENT_3D ( 'NONE', #233, #75, #157 ) ;
#219 =( LENGTH_UNIT ( ) NAMED_UNIT ( * ) SI_UNIT ( $, .METRE. ) );
#220 = VERTEX_POINT ( 'NONE', #285 ) ;
#221 = CARTESIAN_POINT ( 'NONE',  ( -0.1181100000000000066, 0.0000000000000000000, 2.229093999999999465 ) ) ;
#222 = FILL_AREA_STYLE_COLOUR ( '', #271 ) ;
#223 = SURFACE_STYLE_USAGE ( .BOTH. , #248 ) ;
#224 = CONICAL_SURFACE ( 'NONE', #208, 0.1031100000000002570, 0.7853981633974318477 ) ;
#225 = EDGE_CURVE ( 'NONE', #169, #94, #273, .T. ) ;
#226 = CARTESIAN_POINT ( 'NONE',  ( 7.714307363656999460E-17, 0.0000000000000000000, 0.6299209999999999532 ) ) ;
#227 = CARTESIAN_POINT ( 'NONE',  ( -0.1179918900000000159, 0.0000000000000000000, 1.444983904138465938E-17 ) ) ;
#228 =( LENGTH_UNIT ( ) NAMED_UNIT ( * ) SI_UNIT ( $, .METRE. ) );
#229 = FACE_OUTER_BOUND ( 'NONE', #57, .T. ) ;
#230 = ADVANCED_FACE ( 'NONE', ( #117 ), #184, .T. ) ;
#231 = CONICAL_SURFACE ( 'NONE', #217, 0.1031100000000002570, 0.7853981633974318477 ) ;
#232 = CARTESIAN_POINT ( 'NONE',  ( 1.769594913022618037E-33, 0.0000000000000000000, 1.444983904138465938E-17 ) ) ;
#233 = CARTESIAN_POINT ( 'NONE',  ( 7.714307363656999460E-17, 0.0000000000000000000, 0.6299209999999999532 ) ) ;
#234 = APPLICATION_CONTEXT ( 'automotive_design' ) ;
#235 = ORIENTED_EDGE ( 'NONE', *, *, #225, .F. ) ;
#236 = EDGE_CURVE ( 'NONE', #220, #106, #159, .T. ) ;
#237 = DIRECTION ( 'NONE',  ( 0.0000000000000000000, 0.0000000000000000000, -1.000000000000000000 ) ) ;
#238 = STYLED_ITEM ( 'NONE', ( #72 ), #215 ) ;
#239 = VECTOR ( 'NONE', #71, 39.37007874015748854 ) ;
#240 = VERTEX_POINT ( 'NONE', #183 ) ;
#241 = VERTEX_POINT ( 'NONE', #74 ) ;
#242 = SURFACE_STYLE_FILL_AREA ( #149 ) ;
#243 = CARTESIAN_POINT ( 'NONE',  ( 0.0000000000000000000, 0.0000000000000000000, 2.244094000000000033 ) ) ;
#244 = EDGE_CURVE ( 'NONE', #106, #148, #280, .T. ) ;
#245 = AXIS2_PLACEMENT_3D ( 'NONE', #182, #178, #87 ) ;
#246 = DIRECTION ( 'NONE',  ( 1.000000000000000000, 0.0000000000000000000, 0.0000000000000000000 ) ) ;
#247 = DIRECTION ( 'NONE',  ( 1.000000000000000000, 0.0000000000000000000, 0.0000000000000000000 ) ) ;
#248 = SURFACE_SIDE_STYLE ('',( #154 ) ) ;
#249 = DIMENSIONAL_EXPONENTS ( 1.000000000000000000, 0.0000000000000000000, 0.0000000000000000000, 0.0000000000000000000, 0.0000000000000000000, 0.0000000000000000000, 0.0000000000000000000 ) ;
#250 = LINE ( 'NONE', #227, #2 ) ;
#251 = ADVANCED_BREP_SHAPE_REPRESENTATION ( 'Micro_SFLM-060-10', ( #215, #119 ), #173 ) ;
#252 = CIRCLE ( 'NONE', #196, 0.1179918900000000159 ) ;
#253 = CARTESIAN_POINT ( 'NONE',  ( 0.1181100000000000899, 1.446430334472940009E-17, 0.6305908350957150077 ) ) ;
#254 = DIRECTION ( 'NONE',  ( 1.224646799147353207E-16, 0.0000000000000000000, 1.000000000000000000 ) ) ;
#255 = PLANE ( 'NONE',  #210 ) ;
#256 = DIRECTION ( 'NONE',  ( -1.000000000000000000, 0.0000000000000000000, 1.224646799147352961E-16 ) ) ;
#257 = ORIENTED_EDGE ( 'NONE', *, *, #67, .F. ) ;
#258 = ADVANCED_FACE ( 'NONE', ( #34 ), #9, .T. ) ;
#259 =( LENGTH_UNIT ( ) NAMED_UNIT ( * ) SI_UNIT ( $, .METRE. ) );
#260 = AXIS2_PLACEMENT_3D ( 'NONE', #226, #28, #200 ) ;
#261 = UNCERTAINTY_MEASURE_WITH_UNIT (LENGTH_MEASURE( 1.000000000000000082E-05 ), #113, 'distance_accuracy_value', 'NONE');
#262 = EDGE_LOOP ( 'NONE', ( #144, #147, #263, #15 ) ) ;
#263 = ORIENTED_EDGE ( 'NONE', *, *, #98, .T. ) ;
#264 = ORIENTED_EDGE ( 'NONE', *, *, #176, .F. ) ;
#265 = AXIS2_PLACEMENT_3D ( 'NONE', #276, #194, #179 ) ;
#266 = CIRCLE ( 'NONE', #286, 0.1179918899999999882 ) ;
#267 = ORIENTED_EDGE ( 'NONE', *, *, #181, .T. ) ;
#268 = APPLICATION_PROTOCOL_DEFINITION ( 'draft international standard', 'automotive_design', 1998, #234 ) ;
#269 = CARTESIAN_POINT ( 'NONE',  ( 0.0000000000000000000, 0.0000000000000000000, 0.0000000000000000000 ) ) ;
#270 = CARTESIAN_POINT ( 'NONE',  ( 0.1179918900000000159, 1.444983904138465938E-17, -1.444983904138465938E-17 ) ) ;
#271 = COLOUR_RGB ( '',0.7921568627450980005, 0.8196078431372548767, 0.9333333333333333481 ) ;
#272 = CARTESIAN_POINT ( 'NONE',  ( 0.0000000000000000000, 0.0000000000000000000, 0.0000000000000000000 ) ) ;
#273 = LINE ( 'NONE', #116, #163 ) ;
#274 = ADVANCED_FACE ( 'NONE', ( #165 ), #255, .T. ) ;
#275 = CYLINDRICAL_SURFACE ( 'NONE', #46, 0.1181100000000000066 ) ;
#276 = CARTESIAN_POINT ( 'NONE',  ( 7.722510477716238010E-17, 0.0000000000000000000, 0.6305908350957150077 ) ) ;
#277 = FILL_AREA_STYLE_COLOUR ( '', #112 ) ;
#278 = UNCERTAINTY_MEASURE_WITH_UNIT (LENGTH_MEASURE( 1.000000000000000082E-05 ), #293, 'distance_accuracy_value', 'NONE');
#279 = EDGE_CURVE ( 'NONE', #148, #211, #16, .T. ) ;
#280 = LINE ( 'NONE', #166, #239 ) ;
#281 = CARTESIAN_POINT ( 'NONE',  ( 0.0000000000000000000, 0.0000000000000000000, 2.244094000000000033 ) ) ;
#282 = PRODUCT_DEFINITION_FORMATION_WITH_SPECIFIED_SOURCE ( 'ANY', '', #61, .NOT_KNOWN. ) ;
#283 = DIRECTION ( 'NONE',  ( -1.224646799147353207E-16, -0.0000000000000000000, -1.000000000000000000 ) ) ;
#284 = EDGE_CURVE ( 'NONE', #42, #241, #266, .T. ) ;
#285 = CARTESIAN_POINT ( 'NONE',  ( -0.1031100000000002570, 0.0000000000000000000, 2.244094000000000033 ) ) ;
#286 = AXIS2_PLACEMENT_3D ( 'NONE', #232, #97, #185 ) ;
#287 = ORIENTED_EDGE ( 'NONE', *, *, #236, .F. ) ;
#288 = ORIENTED_EDGE ( 'NONE', *, *, #118, .T. ) ;
#289 = ORIENTED_EDGE ( 'NONE', *, *, #168, .T. ) ;
#290 = MECHANICAL_DESIGN_GEOMETRIC_PRESENTATION_REPRESENTATION (  '', ( #238 ), #77 ) ;
#291 = EDGE_CURVE ( 'NONE', #40, #169, #252, .T. ) ;
#292 = EDGE_LOOP ( 'NONE', ( #35, #287, #12, #128 ) ) ;
#293 =( CONVERSION_BASED_UNIT ( 'INCH', #192 ) LENGTH_UNIT ( ) NAMED_UNIT ( #249 ) );
#294 = EDGE_LOOP ( 'NONE', ( #150, #123, #79, #193 ) ) ;
#295 =( NAMED_UNIT ( * ) SI_UNIT ( $, .STERADIAN. ) SOLID_ANGLE_UNIT ( ) );
#296 = EDGE_CURVE ( 'NONE', #169, #40, #54, .T. ) ;
#297 = CYLINDRICAL_SURFACE ( 'NONE', #245, 0.1179918900000000159 ) ;
#298 = CARTESIAN_POINT ( 'NONE',  ( 0.1179918899999999882, 1.444983904138465938E-17, -1.895600338963814870E-33 ) ) ;
#299 = DIRECTION ( 'NONE',  ( -1.224646799147353207E-16, -0.0000000000000000000, -1.000000000000000000 ) ) ;
ENDSEC;
END-ISO-10303-21;
