ISO-10303-21;
HEADER;
FILE_DESCRIPTION (( 'STEP AP214' ),
    '1' );
FILE_NAME ('Micro_GEMM-040-4.STEP',
    '2021-09-01T21:33:23',
    ( '' ),
    ( '' ),
    'SwSTEP 2.0',
    'SolidWorks 2020',
    '' );
FILE_SCHEMA (( 'AUTOMOTIVE_DESIGN' ));
ENDSEC;

DATA;
#1 = CARTESIAN_POINT ( 'NONE',  ( 5.309058882241594791E-17, 0.0000000000000000000, 0.4335175567304767053 ) ) ;
#2 = DIRECTION ( 'NONE',  ( -1.224646799147353207E-16, -0.0000000000000000000, -1.000000000000000000 ) ) ;
#3 = DIMENSIONAL_EXPONENTS ( 1.000000000000000000, 0.0000000000000000000, 0.0000000000000000000, 0.0000000000000000000, 0.0000000000000000000, 0.0000000000000000000, 0.0000000000000000000 ) ;
#4 = CARTESIAN_POINT ( 'NONE',  ( 0.0000000000000000000, 0.0000000000000000000, 1.968503999999999809 ) ) ;
#5 = DIRECTION ( 'NONE',  ( 0.0000000000000000000, 0.0000000000000000000, -1.000000000000000000 ) ) ;
#6 = CARTESIAN_POINT ( 'NONE',  ( 0.07874000000000000443, 9.642868896486258509E-18, 1.968503999999999809 ) ) ;
#7 = DIMENSIONAL_EXPONENTS ( 1.000000000000000000, 0.0000000000000000000, 0.0000000000000000000, 0.0000000000000000000, 0.0000000000000000000, 0.0000000000000000000, 0.0000000000000000000 ) ;
#8 = DIRECTION ( 'NONE',  ( -1.000000000000000000, 0.0000000000000000000, 0.0000000000000000000 ) ) ;
#9 = AXIS2_PLACEMENT_3D ( 'NONE', #193, #79, #171 ) ;
#10 = DIRECTION ( 'NONE',  ( 1.000000000000000000, 0.0000000000000000000, 0.0000000000000000000 ) ) ;
#11 = EDGE_CURVE ( 'NONE', #33, #59, #83, .T. ) ;
#12 = CARTESIAN_POINT ( 'NONE',  ( -0.06374000000000018540, 0.0000000000000000000, 1.968503999999999809 ) ) ;
#13 = LENGTH_MEASURE_WITH_UNIT ( LENGTH_MEASURE( 0.02539999999999999897 ), #82 );
#14 = ORIENTED_EDGE ( 'NONE', *, *, #105, .T. ) ;
#15 = AXIS2_PLACEMENT_3D ( 'NONE', #288, #174, #267 ) ;
#16 = ORIENTED_EDGE ( 'NONE', *, *, #287, .F. ) ;
#17 = VERTEX_POINT ( 'NONE', #247 ) ;
#18 = EDGE_LOOP ( 'NONE', ( #99, #35, #263, #122 ) ) ;
#19 = CARTESIAN_POINT ( 'NONE',  ( 0.0000000000000000000, 0.0000000000000000000, 0.0000000000000000000 ) ) ;
#20 = AXIS2_PLACEMENT_3D ( 'NONE', #156, #181, #155 ) ;
#21 = CARTESIAN_POINT ( 'NONE',  ( -0.07873999999999994892, 0.0000000000000000000, 0.4335175567304767053 ) ) ;
#22 = DIRECTION ( 'NONE',  ( -0.0000000000000000000, -0.0000000000000000000, -1.000000000000000000 ) ) ;
#23 = SURFACE_STYLE_USAGE ( .BOTH. , #248 ) ;
#24 = EDGE_CURVE ( 'NONE', #59, #145, #131, .T. ) ;
#25 = AXIS2_PLACEMENT_3D ( 'NONE', #89, #92, #47 ) ;
#26 = AXIS2_PLACEMENT_3D ( 'NONE', #166, #187, #69 ) ;
#27 = DIRECTION ( 'NONE',  ( 0.1736481776669312194, 0.0000000000000000000, 0.9848077530122077983 ) ) ;
#28 = LINE ( 'NONE', #96, #233 ) ;
#29 = LINE ( 'NONE', #6, #165 ) ;
#30 = ADVANCED_FACE ( 'NONE', ( #102 ), #194, .F. ) ;
#31 = AXIS2_PLACEMENT_3D ( 'NONE', #111, #108, #130 ) ;
#32 = STYLED_ITEM ( 'NONE', ( #101 ), #170 ) ;
#33 = VERTEX_POINT ( 'NONE', #61 ) ;
#34 = CARTESIAN_POINT ( 'NONE',  ( 0.0000000000000000000, 0.0000000000000000000, 0.0000000000000000000 ) ) ;
#35 = ORIENTED_EDGE ( 'NONE', *, *, #257, .T. ) ;
#36 = EDGE_LOOP ( 'NONE', ( #209, #38, #178, #215 ) ) ;
#37 = SHAPE_DEFINITION_REPRESENTATION ( #60, #170 ) ;
#38 = ORIENTED_EDGE ( 'NONE', *, *, #73, .F. ) ;
#39 = SURFACE_SIDE_STYLE ('',( #78 ) ) ;
#40 = EDGE_LOOP ( 'NONE', ( #16, #128, #188, #126 ) ) ;
#41 = DIRECTION ( 'NONE',  ( 0.0000000000000000000, 0.0000000000000000000, -1.000000000000000000 ) ) ;
#42 = EDGE_CURVE ( 'NONE', #214, #286, #205, .T. ) ;
#43 = DIRECTION ( 'NONE',  ( -1.224646799147353207E-16, -0.0000000000000000000, -1.000000000000000000 ) ) ;
#44 = MECHANICAL_DESIGN_GEOMETRIC_PRESENTATION_REPRESENTATION (  '', ( #32 ), #87 ) ;
#45 = PLANE ( 'NONE',  #20 ) ;
#46 = CYLINDRICAL_SURFACE ( 'NONE', #255, 0.07866126000000001062 ) ;
#47 = DIRECTION ( 'NONE',  ( 1.000000000000000000, 0.0000000000000000000, 0.0000000000000000000 ) ) ;
#48 = DIRECTION ( 'NONE',  ( 0.7071067811865502373, 8.659560562354966138E-17, -0.7071067811865446862 ) ) ;
#49 = DIRECTION ( 'NONE',  ( -1.224646799147353207E-16, -0.0000000000000000000, -1.000000000000000000 ) ) ;
#50 = EDGE_CURVE ( 'NONE', #190, #266, #56, .T. ) ;
#51 = AXIS2_PLACEMENT_3D ( 'NONE', #153, #204, #275 ) ;
#52 = CARTESIAN_POINT ( 'NONE',  ( 0.07866126000000003837, 0.0000000000000000000, 0.4330709999999999837 ) ) ;
#53 = ADVANCED_FACE ( 'NONE', ( #226 ), #45, .T. ) ;
#54 = FACE_OUTER_BOUND ( 'NONE', #291, .T. ) ;
#55 = ORIENTED_EDGE ( 'NONE', *, *, #42, .T. ) ;
#56 = CIRCLE ( 'NONE', #244, 0.07866126000000001062 ) ;
#57 = ORIENTED_EDGE ( 'NONE', *, *, #98, .F. ) ;
#58 = FILL_AREA_STYLE ('',( #246 ) ) ;
#59 = VERTEX_POINT ( 'NONE', #112 ) ;
#60 = PRODUCT_DEFINITION_SHAPE ( 'NONE', 'NONE',  #151 ) ;
#61 = CARTESIAN_POINT ( 'NONE',  ( -0.06374000000000018540, 0.0000000000000000000, 1.968503999999999809 ) ) ;
#62 = CONICAL_SURFACE ( 'NONE', #172, 0.06374000000000018540, 0.7853981633974522758 ) ;
#63 = EDGE_LOOP ( 'NONE', ( #14, #86 ) ) ;
#64 = EDGE_CURVE ( 'NONE', #59, #124, #227, .T. ) ;
#65 = DIRECTION ( 'NONE',  ( 1.000000000000000000, 0.0000000000000000000, 0.0000000000000000000 ) ) ;
#66 = CONICAL_SURFACE ( 'NONE', #284, 0.07866125999999999674, 0.1745329251994337250 ) ;
#67 = ADVANCED_FACE ( 'NONE', ( #249 ), #250, .T. ) ;
#68 = CARTESIAN_POINT ( 'NONE',  ( 0.0000000000000000000, 0.0000000000000000000, 0.0000000000000000000 ) ) ;
#69 = DIRECTION ( 'NONE',  ( 1.000000000000000000, 0.0000000000000000000, 0.0000000000000000000 ) ) ;
#70 = STYLED_ITEM ( 'NONE', ( #109 ), #136 ) ;
#71 = CIRCLE ( 'NONE', #26, 0.07874000000000000443 ) ;
#72 = DIRECTION ( 'NONE',  ( -0.0000000000000000000, -0.0000000000000000000, -1.000000000000000000 ) ) ;
#73 = EDGE_CURVE ( 'NONE', #286, #214, #163, .T. ) ;
#74 = FACE_OUTER_BOUND ( 'NONE', #18, .T. ) ;
#75 = ADVANCED_FACE ( 'NONE', ( #299 ), #62, .T. ) ;
#76 = CLOSED_SHELL ( 'NONE', ( #123, #67, #200, #211, #230, #53, #75, #268, #93, #30 ) ) ;
#77 = CIRCLE ( 'NONE', #278, 0.06374000000000018540 ) ;
#78 = SURFACE_STYLE_FILL_AREA ( #58 ) ;
#79 = DIRECTION ( 'NONE',  ( 0.0000000000000000000, 0.0000000000000000000, -1.000000000000000000 ) ) ;
#80 = AXIS2_PLACEMENT_3D ( 'NONE', #34, #220, #292 ) ;
#81 = ORIENTED_EDGE ( 'NONE', *, *, #100, .F. ) ;
#82 =( LENGTH_UNIT ( ) NAMED_UNIT ( * ) SI_UNIT ( $, .METRE. ) );
#83 = LINE ( 'NONE', #12, #142 ) ;
#84 =( NAMED_UNIT ( * ) PLANE_ANGLE_UNIT ( ) SI_UNIT ( $, .RADIAN. ) );
#85 = EDGE_LOOP ( 'NONE', ( #294, #242 ) ) ;
#86 = ORIENTED_EDGE ( 'NONE', *, *, #179, .T. ) ;
#87 =( GEOMETRIC_REPRESENTATION_CONTEXT ( 3 ) GLOBAL_UNCERTAINTY_ASSIGNED_CONTEXT ( ( #110 ) ) GLOBAL_UNIT_ASSIGNED_CONTEXT ( ( #240, #84, #261 ) ) REPRESENTATION_CONTEXT ( 'NONE', 'WORKASPACE' ) );
#88 = DIRECTION ( 'NONE',  ( -1.224646799147353207E-16, -0.0000000000000000000, -1.000000000000000000 ) ) ;
#89 = CARTESIAN_POINT ( 'NONE',  ( 5.303590139535433909E-17, 0.0000000000000000000, 0.4330709999999999837 ) ) ;
#90 = FACE_OUTER_BOUND ( 'NONE', #176, .T. ) ;
#91 =( NAMED_UNIT ( * ) PLANE_ANGLE_UNIT ( ) SI_UNIT ( $, .RADIAN. ) );
#92 = DIRECTION ( 'NONE',  ( 1.224646799147353207E-16, 0.0000000000000000000, 1.000000000000000000 ) ) ;
#93 = ADVANCED_FACE ( 'NONE', ( #90 ), #46, .T. ) ;
#94 = CYLINDRICAL_SURFACE ( 'NONE', #251, 0.07874000000000000443 ) ;
#95 = VECTOR ( 'NONE', #22, 39.37007874015748143 ) ;
#96 = CARTESIAN_POINT ( 'NONE',  ( 0.07866126000000001062, 9.633226027589773945E-18, -9.633226027589773945E-18 ) ) ;
#97 = CARTESIAN_POINT ( 'NONE',  ( -0.07866126000000001062, 0.0000000000000000000, 1.926645205517954789E-17 ) ) ;
#98 = EDGE_CURVE ( 'NONE', #286, #17, #162, .T. ) ;
#99 = ORIENTED_EDGE ( 'NONE', *, *, #148, .F. ) ;
#100 = EDGE_CURVE ( 'NONE', #266, #190, #177, .T. ) ;
#101 = PRESENTATION_STYLE_ASSIGNMENT (( #290 ) ) ;
#102 = FACE_OUTER_BOUND ( 'NONE', #85, .T. ) ;
#103 = VERTEX_POINT ( 'NONE', #180 ) ;
#104 = EDGE_LOOP ( 'NONE', ( #55, #147, #81, #293 ) ) ;
#105 = EDGE_CURVE ( 'NONE', #33, #103, #121, .T. ) ;
#106 = ORIENTED_EDGE ( 'NONE', *, *, #64, .F. ) ;
#107 = AXIS2_PLACEMENT_3D ( 'NONE', #134, #43, #272 ) ;
#108 = DIRECTION ( 'NONE',  ( -1.224646799147353207E-16, -0.0000000000000000000, -1.000000000000000000 ) ) ;
#109 = PRESENTATION_STYLE_ASSIGNMENT (( #23 ) ) ;
#110 = UNCERTAINTY_MEASURE_WITH_UNIT (LENGTH_MEASURE( 1.000000000000000082E-05 ), #240, 'distance_accuracy_value', 'NONE');
#111 = CARTESIAN_POINT ( 'NONE',  ( 5.303590139535433909E-17, 0.0000000000000000000, 0.4330709999999999837 ) ) ;
#112 = CARTESIAN_POINT ( 'NONE',  ( -0.07874000000000000443, 0.0000000000000000000, 1.953504000000000129 ) ) ;
#113 = AXIS2_PLACEMENT_3D ( 'NONE', #229, #276, #208 ) ;
#114 = CARTESIAN_POINT ( 'NONE',  ( -0.07866126000000001062, 0.0000000000000000000, 9.633226027589773945E-18 ) ) ;
#115 = DIRECTION ( 'NONE',  ( 1.000000000000000000, 0.0000000000000000000, 0.0000000000000000000 ) ) ;
#116 = COLOUR_RGB ( '',0.7921568627450980005, 0.8196078431372548767, 0.9333333333333333481 ) ;
#117 = LINE ( 'NONE', #231, #195 ) ;
#118 = EDGE_LOOP ( 'NONE', ( #216, #198, #197, #241 ) ) ;
#119 = DIRECTION ( 'NONE',  ( 0.0000000000000000000, 0.0000000000000000000, 1.000000000000000000 ) ) ;
#120 = DIRECTION ( 'NONE',  ( -1.000000000000000000, 0.0000000000000000000, 0.0000000000000000000 ) ) ;
#121 = CIRCLE ( 'NONE', #223, 0.06374000000000018540 ) ;
#122 = ORIENTED_EDGE ( 'NONE', *, *, #285, .F. ) ;
#123 = ADVANCED_FACE ( 'NONE', ( #182 ), #225, .T. ) ;
#124 = VERTEX_POINT ( 'NONE', #21 ) ;
#125 = APPLICATION_PROTOCOL_DEFINITION ( 'draft international standard', 'automotive_design', 1998, #159 ) ;
#126 = ORIENTED_EDGE ( 'NONE', *, *, #257, .F. ) ;
#127 = VECTOR ( 'NONE', #49, 39.37007874015748143 ) ;
#128 = ORIENTED_EDGE ( 'NONE', *, *, #105, .F. ) ;
#129 = ORIENTED_EDGE ( 'NONE', *, *, #139, .T. ) ;
#130 = DIRECTION ( 'NONE',  ( -1.000000000000000000, 0.0000000000000000000, 0.0000000000000000000 ) ) ;
#131 = CIRCLE ( 'NONE', #9, 0.07874000000000000443 ) ;
#132 = CONICAL_SURFACE ( 'NONE', #113, 0.06374000000000018540, 0.7853981633974522758 ) ;
#133 = DIRECTION ( 'NONE',  ( 0.0000000000000000000, 0.0000000000000000000, 1.000000000000000000 ) ) ;
#134 = CARTESIAN_POINT ( 'NONE',  ( 1.179729942015078919E-33, 0.0000000000000000000, 9.633226027589773945E-18 ) ) ;
#135 =( CONVERSION_BASED_UNIT ( 'INCH', #158 ) LENGTH_UNIT ( ) NAMED_UNIT ( #281 ) );
#136 = MANIFOLD_SOLID_BREP ( 'Cut-Revolve1', #76 ) ;
#137 = DIRECTION ( 'NONE',  ( -1.224646799147353207E-16, -0.0000000000000000000, -1.000000000000000000 ) ) ;
#138 =( LENGTH_UNIT ( ) NAMED_UNIT ( * ) SI_UNIT ( $, .METRE. ) );
#139 = EDGE_CURVE ( 'NONE', #124, #17, #236, .T. ) ;
#140 = DIRECTION ( 'NONE',  ( -0.0000000000000000000, -0.0000000000000000000, -1.000000000000000000 ) ) ;
#141 = LINE ( 'NONE', #258, #245 ) ;
#142 = VECTOR ( 'NONE', #269, 39.37007874015748854 ) ;
#143 = PRODUCT_RELATED_PRODUCT_CATEGORY ( 'part', '', ( #295 ) ) ;
#144 = CARTESIAN_POINT ( 'NONE',  ( 0.0000000000000000000, 0.0000000000000000000, 1.968503999999999809 ) ) ;
#145 = VERTEX_POINT ( 'NONE', #212 ) ;
#146 = FACE_OUTER_BOUND ( 'NONE', #36, .T. ) ;
#147 = ORIENTED_EDGE ( 'NONE', *, *, #297, .T. ) ;
#148 = EDGE_CURVE ( 'NONE', #145, #17, #29, .T. ) ;
#149 = AXIS2_PLACEMENT_3D ( 'NONE', #207, #5, #115 ) ;
#150 = ORIENTED_EDGE ( 'NONE', *, *, #148, .T. ) ;
#151 = PRODUCT_DEFINITION ( 'UNKNOWN', '', #264, #243 ) ;
#152 = ORIENTED_EDGE ( 'NONE', *, *, #297, .F. ) ;
#153 = CARTESIAN_POINT ( 'NONE',  ( 5.303590139535433909E-17, 0.0000000000000000000, 0.4330709999999999837 ) ) ;
#154 = EDGE_LOOP ( 'NONE', ( #283, #239, #129, #57 ) ) ;
#155 = DIRECTION ( 'NONE',  ( 1.000000000000000000, 0.0000000000000000000, -0.0000000000000000000 ) ) ;
#156 = CARTESIAN_POINT ( 'NONE',  ( 0.0000000000000000000, 0.0000000000000000000, 1.968503999999999809 ) ) ;
#157 = EDGE_CURVE ( 'NONE', #214, #266, #210, .T. ) ;
#158 = LENGTH_MEASURE_WITH_UNIT ( LENGTH_MEASURE( 0.02539999999999999897 ), #298 );
#159 = APPLICATION_CONTEXT ( 'automotive_design' ) ;
#160 = DIRECTION ( 'NONE',  ( -1.000000000000000000, 0.0000000000000000000, 1.224646799147353207E-16 ) ) ;
#161 = UNCERTAINTY_MEASURE_WITH_UNIT (LENGTH_MEASURE( 1.000000000000000082E-05 ), #135, 'distance_accuracy_value', 'NONE');
#162 = LINE ( 'NONE', #228, #199 ) ;
#163 = CIRCLE ( 'NONE', #31, 0.07866125999999999674 ) ;
#164 = DIRECTION ( 'NONE',  ( -0.0000000000000000000, -0.0000000000000000000, -1.000000000000000000 ) ) ;
#165 = VECTOR ( 'NONE', #164, 39.37007874015748143 ) ;
#166 = CARTESIAN_POINT ( 'NONE',  ( 5.309058882241594791E-17, 0.0000000000000000000, 0.4335175567304767053 ) ) ;
#167 = DIRECTION ( 'NONE',  ( 1.000000000000000000, 0.0000000000000000000, 0.0000000000000000000 ) ) ;
#168 = DIRECTION ( 'NONE',  ( 1.224646799147353207E-16, 0.0000000000000000000, 1.000000000000000000 ) ) ;
#169 = DIRECTION ( 'NONE',  ( 1.000000000000000000, 0.0000000000000000000, 0.0000000000000000000 ) ) ;
#170 = ADVANCED_BREP_SHAPE_REPRESENTATION ( 'Micro_GEMM-040-4', ( #136, #80 ), #224 ) ;
#171 = DIRECTION ( 'NONE',  ( 1.000000000000000000, 0.0000000000000000000, 0.0000000000000000000 ) ) ;
#172 = AXIS2_PLACEMENT_3D ( 'NONE', #296, #41, #183 ) ;
#173 = ORIENTED_EDGE ( 'NONE', *, *, #157, .T. ) ;
#174 = DIRECTION ( 'NONE',  ( 0.0000000000000000000, 0.0000000000000000000, 1.000000000000000000 ) ) ;
#175 = UNCERTAINTY_MEASURE_WITH_UNIT (LENGTH_MEASURE( 1.000000000000000082E-05 ), #282, 'distance_accuracy_value', 'NONE');
#176 = EDGE_LOOP ( 'NONE', ( #152, #237, #173, #196 ) ) ;
#177 = CIRCLE ( 'NONE', #107, 0.07866126000000001062 ) ;
#178 = ORIENTED_EDGE ( 'NONE', *, *, #98, .T. ) ;
#179 = EDGE_CURVE ( 'NONE', #103, #33, #77, .T. ) ;
#180 = CARTESIAN_POINT ( 'NONE',  ( 0.06374000000000018540, 8.724383797125754882E-18, 1.968503999999999809 ) ) ;
#181 = DIRECTION ( 'NONE',  ( 0.0000000000000000000, 0.0000000000000000000, 1.000000000000000000 ) ) ;
#182 = FACE_OUTER_BOUND ( 'NONE', #104, .T. ) ;
#183 = DIRECTION ( 'NONE',  ( -1.000000000000000000, 0.0000000000000000000, 0.0000000000000000000 ) ) ;
#184 = CARTESIAN_POINT ( 'NONE',  ( 0.07866126000000001062, 9.633226027589773945E-18, 0.0000000000000000000 ) ) ;
#185 = DIRECTION ( 'NONE',  ( -1.224646799147353207E-16, -0.0000000000000000000, -1.000000000000000000 ) ) ;
#186 = APPLICATION_CONTEXT ( 'automotive_design' ) ;
#187 = DIRECTION ( 'NONE',  ( -1.224646799147353207E-16, -0.0000000000000000000, -1.000000000000000000 ) ) ;
#188 = ORIENTED_EDGE ( 'NONE', *, *, #11, .T. ) ;
#189 = LENGTH_MEASURE_WITH_UNIT ( LENGTH_MEASURE( 0.02539999999999999897 ), #138 );
#190 = VERTEX_POINT ( 'NONE', #184 ) ;
#191 = MECHANICAL_DESIGN_GEOMETRIC_PRESENTATION_REPRESENTATION (  '', ( #70 ), #217 ) ;
#192 = APPLICATION_PROTOCOL_DEFINITION ( 'draft international standard', 'automotive_design', 1998, #186 ) ;
#193 = CARTESIAN_POINT ( 'NONE',  ( 0.0000000000000000000, 0.0000000000000000000, 1.953504000000000129 ) ) ;
#194 = PLANE ( 'NONE',  #15 ) ;
#195 = VECTOR ( 'NONE', #48, 39.37007874015748854 ) ;
#196 = ORIENTED_EDGE ( 'NONE', *, *, #50, .F. ) ;
#197 = ORIENTED_EDGE ( 'NONE', *, *, #24, .F. ) ;
#198 = ORIENTED_EDGE ( 'NONE', *, *, #287, .T. ) ;
#199 = VECTOR ( 'NONE', #27, 39.37007874015748143 ) ;
#200 = ADVANCED_FACE ( 'NONE', ( #259 ), #132, .T. ) ;
#201 = PRESENTATION_LAYER_ASSIGNMENT (  '', '', ( #32 ) ) ;
#202 = CARTESIAN_POINT ( 'NONE',  ( -0.07874000000000000443, 0.0000000000000000000, 1.968503999999999809 ) ) ;
#203 = EDGE_CURVE ( 'NONE', #214, #124, #141, .T. ) ;
#204 = DIRECTION ( 'NONE',  ( -1.224646799147353207E-16, -0.0000000000000000000, -1.000000000000000000 ) ) ;
#205 = CIRCLE ( 'NONE', #51, 0.07866125999999999674 ) ;
#206 = CYLINDRICAL_SURFACE ( 'NONE', #273, 0.07874000000000000443 ) ;
#207 = CARTESIAN_POINT ( 'NONE',  ( 0.0000000000000000000, 0.0000000000000000000, 1.953504000000000129 ) ) ;
#208 = DIRECTION ( 'NONE',  ( -1.000000000000000000, 0.0000000000000000000, 0.0000000000000000000 ) ) ;
#209 = ORIENTED_EDGE ( 'NONE', *, *, #203, .F. ) ;
#210 = LINE ( 'NONE', #114, #127 ) ;
#211 = ADVANCED_FACE ( 'NONE', ( #54 ), #206, .T. ) ;
#212 = CARTESIAN_POINT ( 'NONE',  ( 0.07874000000000000443, 9.642868896486258509E-18, 1.953504000000000129 ) ) ;
#213 = AXIS2_PLACEMENT_3D ( 'NONE', #19, #2, #160 ) ;
#214 = VERTEX_POINT ( 'NONE', #279 ) ;
#215 = ORIENTED_EDGE ( 'NONE', *, *, #285, .T. ) ;
#216 = ORIENTED_EDGE ( 'NONE', *, *, #179, .F. ) ;
#217 =( GEOMETRIC_REPRESENTATION_CONTEXT ( 3 ) GLOBAL_UNCERTAINTY_ASSIGNED_CONTEXT ( ( #161 ) ) GLOBAL_UNIT_ASSIGNED_CONTEXT ( ( #135, #91, #234 ) ) REPRESENTATION_CONTEXT ( 'NONE', 'WORKASPACE' ) );
#218 = COLOUR_RGB ( '',0.7921568627450980005, 0.8196078431372548767, 0.9333333333333333481 ) ;
#219 = ORIENTED_EDGE ( 'NONE', *, *, #24, .T. ) ;
#220 = DIRECTION ( 'NONE',  ( 0.0000000000000000000, 0.0000000000000000000, 1.000000000000000000 ) ) ;
#221 = ORIENTED_EDGE ( 'NONE', *, *, #139, .F. ) ;
#222 = DIRECTION ( 'NONE',  ( -1.000000000000000000, 0.0000000000000000000, 1.224646799147353207E-16 ) ) ;
#223 = AXIS2_PLACEMENT_3D ( 'NONE', #271, #133, #65 ) ;
#224 =( GEOMETRIC_REPRESENTATION_CONTEXT ( 3 ) GLOBAL_UNCERTAINTY_ASSIGNED_CONTEXT ( ( #175 ) ) GLOBAL_UNIT_ASSIGNED_CONTEXT ( ( #282, #260, #265 ) ) REPRESENTATION_CONTEXT ( 'NONE', 'WORKASPACE' ) );
#225 = CYLINDRICAL_SURFACE ( 'NONE', #213, 0.07866126000000001062 ) ;
#226 = FACE_OUTER_BOUND ( 'NONE', #63, .T. ) ;
#227 = LINE ( 'NONE', #202, #95 ) ;
#228 = CARTESIAN_POINT ( 'NONE',  ( 0.07866126000000003837, 0.0000000000000000000, 0.4330709999999999837 ) ) ;
#229 = CARTESIAN_POINT ( 'NONE',  ( 0.0000000000000000000, 0.0000000000000000000, 1.968503999999999809 ) ) ;
#230 = ADVANCED_FACE ( 'NONE', ( #74 ), #94, .T. ) ;
#231 = CARTESIAN_POINT ( 'NONE',  ( 0.06374000000000018540, 7.805898697765251255E-18, 1.968503999999999809 ) ) ;
#232 = CARTESIAN_POINT ( 'NONE',  ( 5.303590139535433909E-17, 0.0000000000000000000, 0.4330709999999999837 ) ) ;
#233 = VECTOR ( 'NONE', #185, 39.37007874015748143 ) ;
#234 =( NAMED_UNIT ( * ) SI_UNIT ( $, .STERADIAN. ) SOLID_ANGLE_UNIT ( ) );
#235 = DIRECTION ( 'NONE',  ( -1.224646799147353207E-16, -0.0000000000000000000, -1.000000000000000000 ) ) ;
#236 = CIRCLE ( 'NONE', #277, 0.07874000000000000443 ) ;
#237 = ORIENTED_EDGE ( 'NONE', *, *, #73, .T. ) ;
#238 = PRODUCT_CONTEXT ( 'NONE', #186, 'mechanical' ) ;
#239 = ORIENTED_EDGE ( 'NONE', *, *, #203, .T. ) ;
#240 =( CONVERSION_BASED_UNIT ( 'INCH', #13 ) LENGTH_UNIT ( ) NAMED_UNIT ( #3 ) );
#241 = ORIENTED_EDGE ( 'NONE', *, *, #11, .F. ) ;
#242 = ORIENTED_EDGE ( 'NONE', *, *, #50, .T. ) ;
#243 = PRODUCT_DEFINITION_CONTEXT ( 'detailed design', #159, 'design' ) ;
#244 = AXIS2_PLACEMENT_3D ( 'NONE', #254, #137, #252 ) ;
#245 = VECTOR ( 'NONE', #280, 39.37007874015748854 ) ;
#246 = FILL_AREA_STYLE_COLOUR ( '', #218 ) ;
#247 = CARTESIAN_POINT ( 'NONE',  ( 0.07874000000000004607, 9.642868896486264672E-18, 0.4335175567304767053 ) ) ;
#248 = SURFACE_SIDE_STYLE ('',( #274 ) ) ;
#249 = FACE_OUTER_BOUND ( 'NONE', #154, .T. ) ;
#250 = CONICAL_SURFACE ( 'NONE', #25, 0.07866125999999999674, 0.1745329251994337250 ) ;
#251 = AXIS2_PLACEMENT_3D ( 'NONE', #144, #72, #8 ) ;
#252 = DIRECTION ( 'NONE',  ( -1.000000000000000000, 0.0000000000000000000, 1.224646799147353207E-16 ) ) ;
#253 = FILL_AREA_STYLE_COLOUR ( '', #116 ) ;
#254 = CARTESIAN_POINT ( 'NONE',  ( 1.179729942015078919E-33, 0.0000000000000000000, 9.633226027589773945E-18 ) ) ;
#255 = AXIS2_PLACEMENT_3D ( 'NONE', #68, #88, #222 ) ;
#256 = CARTESIAN_POINT ( 'NONE',  ( 0.0000000000000000000, 0.0000000000000000000, 1.968503999999999809 ) ) ;
#257 = EDGE_CURVE ( 'NONE', #145, #59, #289, .T. ) ;
#258 = CARTESIAN_POINT ( 'NONE',  ( -0.07866125999999994123, 9.633226027589770864E-18, 0.4330709999999999837 ) ) ;
#259 = FACE_OUTER_BOUND ( 'NONE', #118, .T. ) ;
#260 =( NAMED_UNIT ( * ) PLANE_ANGLE_UNIT ( ) SI_UNIT ( $, .RADIAN. ) );
#261 =( NAMED_UNIT ( * ) SI_UNIT ( $, .STERADIAN. ) SOLID_ANGLE_UNIT ( ) );
#262 = PRESENTATION_LAYER_ASSIGNMENT (  '', '', ( #70 ) ) ;
#263 = ORIENTED_EDGE ( 'NONE', *, *, #64, .T. ) ;
#264 = PRODUCT_DEFINITION_FORMATION_WITH_SPECIFIED_SOURCE ( 'ANY', '', #295, .NOT_KNOWN. ) ;
#265 =( NAMED_UNIT ( * ) SI_UNIT ( $, .STERADIAN. ) SOLID_ANGLE_UNIT ( ) );
#266 = VERTEX_POINT ( 'NONE', #97 ) ;
#267 = DIRECTION ( 'NONE',  ( 1.000000000000000000, 0.0000000000000000000, -0.0000000000000000000 ) ) ;
#268 = ADVANCED_FACE ( 'NONE', ( #146 ), #66, .T. ) ;
#269 = DIRECTION ( 'NONE',  ( -0.7071067811865502373, 0.0000000000000000000, -0.7071067811865446862 ) ) ;
#270 = FILL_AREA_STYLE ('',( #253 ) ) ;
#271 = CARTESIAN_POINT ( 'NONE',  ( 0.0000000000000000000, 0.0000000000000000000, 1.968503999999999809 ) ) ;
#272 = DIRECTION ( 'NONE',  ( -1.000000000000000000, 0.0000000000000000000, 1.224646799147353207E-16 ) ) ;
#273 = AXIS2_PLACEMENT_3D ( 'NONE', #4, #140, #120 ) ;
#274 = SURFACE_STYLE_FILL_AREA ( #270 ) ;
#275 = DIRECTION ( 'NONE',  ( -1.000000000000000000, 0.0000000000000000000, 0.0000000000000000000 ) ) ;
#276 = DIRECTION ( 'NONE',  ( 0.0000000000000000000, 0.0000000000000000000, -1.000000000000000000 ) ) ;
#277 = AXIS2_PLACEMENT_3D ( 'NONE', #1, #235, #169 ) ;
#278 = AXIS2_PLACEMENT_3D ( 'NONE', #256, #119, #10 ) ;
#279 = CARTESIAN_POINT ( 'NONE',  ( -0.07866125999999994123, 9.638047462038014686E-18, 0.4330709999999999837 ) ) ;
#280 = DIRECTION ( 'NONE',  ( -0.1736481776669309973, 2.126576849575781159E-17, 0.9848077530122080203 ) ) ;
#281 = DIMENSIONAL_EXPONENTS ( 1.000000000000000000, 0.0000000000000000000, 0.0000000000000000000, 0.0000000000000000000, 0.0000000000000000000, 0.0000000000000000000, 0.0000000000000000000 ) ;
#282 =( CONVERSION_BASED_UNIT ( 'INCH', #189 ) LENGTH_UNIT ( ) NAMED_UNIT ( #7 ) );
#283 = ORIENTED_EDGE ( 'NONE', *, *, #42, .F. ) ;
#284 = AXIS2_PLACEMENT_3D ( 'NONE', #232, #168, #167 ) ;
#285 = EDGE_CURVE ( 'NONE', #17, #124, #71, .T. ) ;
#286 = VERTEX_POINT ( 'NONE', #52 ) ;
#287 = EDGE_CURVE ( 'NONE', #103, #145, #117, .T. ) ;
#288 = CARTESIAN_POINT ( 'NONE',  ( 0.0000000000000000000, 0.0000000000000000000, 0.0000000000000000000 ) ) ;
#289 = CIRCLE ( 'NONE', #149, 0.07874000000000000443 ) ;
#290 = SURFACE_STYLE_USAGE ( .BOTH. , #39 ) ;
#291 = EDGE_LOOP ( 'NONE', ( #219, #150, #221, #106 ) ) ;
#292 = DIRECTION ( 'NONE',  ( 1.000000000000000000, 0.0000000000000000000, 0.0000000000000000000 ) ) ;
#293 = ORIENTED_EDGE ( 'NONE', *, *, #157, .F. ) ;
#294 = ORIENTED_EDGE ( 'NONE', *, *, #100, .T. ) ;
#295 = PRODUCT ( 'Micro_GEMM-040-4', 'Micro_GEMM-040-4', '', ( #238 ) ) ;
#296 = CARTESIAN_POINT ( 'NONE',  ( 0.0000000000000000000, 0.0000000000000000000, 1.968503999999999809 ) ) ;
#297 = EDGE_CURVE ( 'NONE', #286, #190, #28, .T. ) ;
#298 =( LENGTH_UNIT ( ) NAMED_UNIT ( * ) SI_UNIT ( $, .METRE. ) );
#299 = FACE_OUTER_BOUND ( 'NONE', #40, .T. ) ;
ENDSEC;
END-ISO-10303-21;
