ISO-10303-21;
HEADER;
FILE_DESCRIPTION (( 'STEP AP214' ),
    '1' );
FILE_NAME ('Micro_RDE-100.STEP',
    '2021-08-31T17:01:41',
    ( '' ),
    ( '' ),
    'SwSTEP 2.0',
    'SolidWorks 2020',
    '' );
FILE_SCHEMA (( 'AUTOMOTIVE_DESIGN' ));
ENDSEC;

DATA;
#1 = DIRECTION ( 'NONE',  ( -0.0000000000000000000, -0.0000000000000000000, -1.000000000000000000 ) ) ;
#2 =( LENGTH_UNIT ( ) NAMED_UNIT ( * ) SI_UNIT ( $, .METRE. ) );
#3 = FACE_OUTER_BOUND ( 'NONE', #73, .T. ) ;
#4 = APPLICATION_PROTOCOL_DEFINITION ( 'draft international standard', 'automotive_design', 1998, #237 ) ;
#5 = PLANE ( 'NONE',  #119 ) ;
#6 = DIRECTION ( 'NONE',  ( -1.000000000000000000, 0.0000000000000000000, 0.0000000000000000000 ) ) ;
#7 = FILL_AREA_STYLE_COLOUR ( '', #276 ) ;
#8 = EDGE_LOOP ( 'NONE', ( #272, #253, #79, #197 ) ) ;
#9 = DIRECTION ( 'NONE',  ( 0.0000000000000000000, 0.0000000000000000000, -1.000000000000000000 ) ) ;
#10 = ORIENTED_EDGE ( 'NONE', *, *, #72, .F. ) ;
#11 = PRODUCT_DEFINITION_CONTEXT ( 'detailed design', #237, 'design' ) ;
#12 = PRESENTATION_STYLE_ASSIGNMENT (( #254 ) ) ;
#13 = AXIS2_PLACEMENT_3D ( 'NONE', #154, #290, #219 ) ;
#14 = MECHANICAL_DESIGN_GEOMETRIC_PRESENTATION_REPRESENTATION (  '', ( #140 ), #132 ) ;
#15 = EDGE_LOOP ( 'NONE', ( #262, #241, #291, #238 ) ) ;
#16 = LINE ( 'NONE', #225, #44 ) ;
#17 = ORIENTED_EDGE ( 'NONE', *, *, #141, .T. ) ;
#18 = EDGE_CURVE ( 'NONE', #257, #101, #176, .T. ) ;
#19 =( LENGTH_UNIT ( ) NAMED_UNIT ( * ) SI_UNIT ( $, .METRE. ) );
#20 = CARTESIAN_POINT ( 'NONE',  ( -0.1873124999999998541, 2.293916535652885596E-17, 1.000000000000000000 ) ) ;
#21 = CARTESIAN_POINT ( 'NONE',  ( 0.0000000000000000000, 0.0000000000000000000, 2.500000000000000000 ) ) ;
#22 = CIRCLE ( 'NONE', #234, 0.1875000000000000278 ) ;
#23 = ADVANCED_FACE ( 'NONE', ( #54 ), #149, .F. ) ;
#24 = DIRECTION ( 'NONE',  ( -0.1736481776669311916, 2.126576849575783316E-17, 0.9848077530122080203 ) ) ;
#25 = CARTESIAN_POINT ( 'NONE',  ( 0.1873125000000001317, 0.0000000000000000000, 1.000000000000000000 ) ) ;
#26 = CIRCLE ( 'NONE', #208, 0.1875000000000000278 ) ;
#27 = ADVANCED_FACE ( 'NONE', ( #52 ), #183, .T. ) ;
#28 = LINE ( 'NONE', #239, #193 ) ;
#29 = CYLINDRICAL_SURFACE ( 'NONE', #63, 0.1875000000000000278 ) ;
#30 = DIRECTION ( 'NONE',  ( -1.000000000000000000, 0.0000000000000000000, 0.0000000000000000000 ) ) ;
#31 = EDGE_CURVE ( 'NONE', #104, #74, #160, .T. ) ;
#32 = VERTEX_POINT ( 'NONE', #42 ) ;
#33 = PRODUCT_DEFINITION_SHAPE ( 'NONE', 'NONE',  #191 ) ;
#34 = ORIENTED_EDGE ( 'NONE', *, *, #175, .F. ) ;
#35 = CARTESIAN_POINT ( 'NONE',  ( 0.0000000000000000000, 0.0000000000000000000, 2.484999999999999432 ) ) ;
#36 = DIRECTION ( 'NONE',  ( 1.000000000000000000, 0.0000000000000000000, -0.0000000000000000000 ) ) ;
#37 = DIRECTION ( 'NONE',  ( 0.0000000000000000000, 0.0000000000000000000, -1.000000000000000000 ) ) ;
#38 = VERTEX_POINT ( 'NONE', #130 ) ;
#39 = DIRECTION ( 'NONE',  ( 0.0000000000000000000, 0.0000000000000000000, 1.000000000000000000 ) ) ;
#40 = DIRECTION ( 'NONE',  ( -1.224646799147353207E-16, -0.0000000000000000000, -1.000000000000000000 ) ) ;
#41 = AXIS2_PLACEMENT_3D ( 'NONE', #198, #107, #6 ) ;
#42 = CARTESIAN_POINT ( 'NONE',  ( 0.1724999999999995981, 2.204364238465233357E-17, 2.500000000000000000 ) ) ;
#43 = DIRECTION ( 'NONE',  ( -0.0000000000000000000, -0.0000000000000000000, -1.000000000000000000 ) ) ;
#44 = VECTOR ( 'NONE', #294, 39.37007874015748143 ) ;
#45 = FACE_OUTER_BOUND ( 'NONE', #65, .T. ) ;
#46 = CARTESIAN_POINT ( 'NONE',  ( 1.225949046108751700E-16, 0.0000000000000000000, 1.001063365341178457 ) ) ;
#47 = CARTESIAN_POINT ( 'NONE',  ( -0.1875000000000000278, 0.0000000000000000000, 2.484999999999999432 ) ) ;
#48 = ADVANCED_FACE ( 'NONE', ( #232 ), #5, .T. ) ;
#49 = AXIS2_PLACEMENT_3D ( 'NONE', #96, #217, #30 ) ;
#50 = ORIENTED_EDGE ( 'NONE', *, *, #213, .F. ) ;
#51 = SURFACE_STYLE_USAGE ( .BOTH. , #192 ) ;
#52 = FACE_OUTER_BOUND ( 'NONE', #76, .T. ) ;
#53 = COLOUR_RGB ( '',0.7921568627450980005, 0.8196078431372548767, 0.9333333333333333481 ) ;
#54 = FACE_OUTER_BOUND ( 'NONE', #203, .T. ) ;
#55 = UNCERTAINTY_MEASURE_WITH_UNIT (LENGTH_MEASURE( 1.000000000000000082E-05 ), #144, 'distance_accuracy_value', 'NONE');
#56 = CYLINDRICAL_SURFACE ( 'NONE', #114, 0.1875000000000000278 ) ;
#57 = DIRECTION ( 'NONE',  ( 1.000000000000000000, 0.0000000000000000000, 0.0000000000000000000 ) ) ;
#58 = ORIENTED_EDGE ( 'NONE', *, *, #61, .T. ) ;
#59 = LINE ( 'NONE', #25, #93 ) ;
#60 = MECHANICAL_DESIGN_GEOMETRIC_PRESENTATION_REPRESENTATION (  '', ( #295 ), #135 ) ;
#61 = EDGE_CURVE ( 'NONE', #74, #104, #218, .T. ) ;
#62 = CARTESIAN_POINT ( 'NONE',  ( 0.0000000000000000000, 0.0000000000000000000, 2.500000000000000000 ) ) ;
#63 = AXIS2_PLACEMENT_3D ( 'NONE', #21, #1, #157 ) ;
#64 = ADVANCED_FACE ( 'NONE', ( #45 ), #29, .T. ) ;
#65 = EDGE_LOOP ( 'NONE', ( #194, #108, #221, #122 ) ) ;
#66 = CIRCLE ( 'NONE', #98, 0.1724999999999995981 ) ;
#67 = ADVANCED_BREP_SHAPE_REPRESENTATION ( 'Micro_RDE-100', ( #215, #209 ), #184 ) ;
#68 = VERTEX_POINT ( 'NONE', #47 ) ;
#69 = VECTOR ( 'NONE', #136, 39.37007874015748143 ) ;
#70 = PRODUCT ( 'Micro_RDE-100', 'Micro_RDE-100', '', ( #129 ) ) ;
#71 = LENGTH_MEASURE_WITH_UNIT ( LENGTH_MEASURE( 0.02539999999999999897 ), #199 );
#72 = EDGE_CURVE ( 'NONE', #68, #99, #187, .T. ) ;
#73 = EDGE_LOOP ( 'NONE', ( #34, #145, #224, #134 ) ) ;
#74 = VERTEX_POINT ( 'NONE', #236 ) ;
#75 = LINE ( 'NONE', #109, #284 ) ;
#76 = EDGE_LOOP ( 'NONE', ( #50, #282, #17, #166 ) ) ;
#77 = AXIS2_PLACEMENT_3D ( 'NONE', #62, #115, #169 ) ;
#78 =( NAMED_UNIT ( * ) PLANE_ANGLE_UNIT ( ) SI_UNIT ( $, .RADIAN. ) );
#79 = ORIENTED_EDGE ( 'NONE', *, *, #269, .F. ) ;
#80 = EDGE_CURVE ( 'NONE', #101, #99, #26, .T. ) ;
#81 = CARTESIAN_POINT ( 'NONE',  ( 0.0000000000000000000, 0.0000000000000000000, 2.500000000000000000 ) ) ;
#82 = CARTESIAN_POINT ( 'NONE',  ( 1.224646799147353207E-16, 0.0000000000000000000, 1.000000000000000000 ) ) ;
#83 = CARTESIAN_POINT ( 'NONE',  ( -0.1873124999999998541, 2.295064642027086507E-17, 1.000000000000000000 ) ) ;
#84 = FACE_OUTER_BOUND ( 'NONE', #15, .T. ) ;
#85 = AXIS2_PLACEMENT_3D ( 'NONE', #90, #121, #118 ) ;
#86 = CARTESIAN_POINT ( 'NONE',  ( -0.1873124999999999929, 0.0000000000000000000, 4.587833071305771192E-17 ) ) ;
#87 = AXIS2_PLACEMENT_3D ( 'NONE', #179, #156, #245 ) ;
#88 = CARTESIAN_POINT ( 'NONE',  ( -0.1724999999999995981, 0.0000000000000000000, 2.500000000000000000 ) ) ;
#89 = CARTESIAN_POINT ( 'NONE',  ( 2.809237542898491532E-33, 0.0000000000000000000, 2.293916535652885596E-17 ) ) ;
#90 = CARTESIAN_POINT ( 'NONE',  ( 0.0000000000000000000, 0.0000000000000000000, 0.0000000000000000000 ) ) ;
#91 = DIRECTION ( 'NONE',  ( -1.224646799147353207E-16, -0.0000000000000000000, -1.000000000000000000 ) ) ;
#92 = EDGE_CURVE ( 'NONE', #214, #104, #28, .T. ) ;
#93 = VECTOR ( 'NONE', #161, 39.37007874015748143 ) ;
#94 = ORIENTED_EDGE ( 'NONE', *, *, #279, .F. ) ;
#95 = ORIENTED_EDGE ( 'NONE', *, *, #31, .T. ) ;
#96 = CARTESIAN_POINT ( 'NONE',  ( 0.0000000000000000000, 0.0000000000000000000, 2.500000000000000000 ) ) ;
#97 =( NAMED_UNIT ( * ) PLANE_ANGLE_UNIT ( ) SI_UNIT ( $, .RADIAN. ) );
#98 = AXIS2_PLACEMENT_3D ( 'NONE', #81, #153, #125 ) ;
#99 = VERTEX_POINT ( 'NONE', #277 ) ;
#100 = FACE_OUTER_BOUND ( 'NONE', #264, .T. ) ;
#101 = VERTEX_POINT ( 'NONE', #210 ) ;
#102 = FILL_AREA_STYLE ('',( #173 ) ) ;
#103 = PRESENTATION_STYLE_ASSIGNMENT (( #51 ) ) ;
#104 = VERTEX_POINT ( 'NONE', #86 ) ;
#105 = DIRECTION ( 'NONE',  ( -1.000000000000000000, 0.0000000000000000000, 0.0000000000000000000 ) ) ;
#106 = ORIENTED_EDGE ( 'NONE', *, *, #92, .F. ) ;
#107 = DIRECTION ( 'NONE',  ( -1.224646799147353207E-16, -0.0000000000000000000, -1.000000000000000000 ) ) ;
#108 = ORIENTED_EDGE ( 'NONE', *, *, #205, .T. ) ;
#109 = CARTESIAN_POINT ( 'NONE',  ( 0.1724999999999995981, 2.112515728529179297E-17, 2.500000000000000000 ) ) ;
#110 = CARTESIAN_POINT ( 'NONE',  ( -0.1875000000000000278, 0.0000000000000000000, 2.500000000000000000 ) ) ;
#111 = CIRCLE ( 'NONE', #256, 0.1875000000000000278 ) ;
#112 = DIMENSIONAL_EXPONENTS ( 1.000000000000000000, 0.0000000000000000000, 0.0000000000000000000, 0.0000000000000000000, 0.0000000000000000000, 0.0000000000000000000, 0.0000000000000000000 ) ;
#113 = EDGE_CURVE ( 'NONE', #32, #170, #207, .T. ) ;
#114 = AXIS2_PLACEMENT_3D ( 'NONE', #248, #43, #220 ) ;
#115 = DIRECTION ( 'NONE',  ( 0.0000000000000000000, 0.0000000000000000000, 1.000000000000000000 ) ) ;
#116 = ADVANCED_FACE ( 'NONE', ( #3 ), #174, .T. ) ;
#117 = DIRECTION ( 'NONE',  ( 1.000000000000000000, 0.0000000000000000000, 0.0000000000000000000 ) ) ;
#118 = DIRECTION ( 'NONE',  ( -1.000000000000000000, 0.0000000000000000000, 1.224646799147352961E-16 ) ) ;
#119 = AXIS2_PLACEMENT_3D ( 'NONE', #196, #172, #36 ) ;
#120 = ORIENTED_EDGE ( 'NONE', *, *, #216, .T. ) ;
#121 = DIRECTION ( 'NONE',  ( -1.224646799147353207E-16, -0.0000000000000000000, -1.000000000000000000 ) ) ;
#122 = ORIENTED_EDGE ( 'NONE', *, *, #80, .F. ) ;
#123 = CIRCLE ( 'NONE', #131, 0.1875000000000000278 ) ;
#124 = ORIENTED_EDGE ( 'NONE', *, *, #31, .F. ) ;
#125 = DIRECTION ( 'NONE',  ( 1.000000000000000000, 0.0000000000000000000, 0.0000000000000000000 ) ) ;
#126 = DIRECTION ( 'NONE',  ( 1.000000000000000000, 0.0000000000000000000, 0.0000000000000000000 ) ) ;
#127 = ADVANCED_FACE ( 'NONE', ( #100 ), #171, .T. ) ;
#128 = LENGTH_MEASURE_WITH_UNIT ( LENGTH_MEASURE( 0.02539999999999999897 ), #19 );
#129 = PRODUCT_CONTEXT ( 'NONE', #249, 'mechanical' ) ;
#130 = CARTESIAN_POINT ( 'NONE',  ( 0.1873125000000001317, 0.0000000000000000000, 1.000000000000000000 ) ) ;
#131 = AXIS2_PLACEMENT_3D ( 'NONE', #35, #204, #182 ) ;
#132 =( GEOMETRIC_REPRESENTATION_CONTEXT ( 3 ) GLOBAL_UNCERTAINTY_ASSIGNED_CONTEXT ( ( #247 ) ) GLOBAL_UNIT_ASSIGNED_CONTEXT ( ( #195, #223, #270 ) ) REPRESENTATION_CONTEXT ( 'NONE', 'WORKASPACE' ) );
#133 = FACE_OUTER_BOUND ( 'NONE', #285, .T. ) ;
#134 = ORIENTED_EDGE ( 'NONE', *, *, #205, .F. ) ;
#135 =( GEOMETRIC_REPRESENTATION_CONTEXT ( 3 ) GLOBAL_UNCERTAINTY_ASSIGNED_CONTEXT ( ( #55 ) ) GLOBAL_UNIT_ASSIGNED_CONTEXT ( ( #144, #78, #242 ) ) REPRESENTATION_CONTEXT ( 'NONE', 'WORKASPACE' ) );
#136 = DIRECTION ( 'NONE',  ( -0.0000000000000000000, -0.0000000000000000000, -1.000000000000000000 ) ) ;
#137 = CONICAL_SURFACE ( 'NONE', #188, 0.1873124999999999929, 0.1745329251994338915 ) ;
#138 = DIRECTION ( 'NONE',  ( -1.224646799147353207E-16, -0.0000000000000000000, -1.000000000000000000 ) ) ;
#139 = CLOSED_SHELL ( 'NONE', ( #127, #27, #159, #167, #64, #48, #116, #228, #297, #23 ) ) ;
#140 = STYLED_ITEM ( 'NONE', ( #103 ), #67 ) ;
#141 = EDGE_CURVE ( 'NONE', #99, #101, #111, .T. ) ;
#142 = CARTESIAN_POINT ( 'NONE',  ( 0.0000000000000000000, 0.0000000000000000000, 0.0000000000000000000 ) ) ;
#143 = ORIENTED_EDGE ( 'NONE', *, *, #141, .F. ) ;
#144 =( CONVERSION_BASED_UNIT ( 'INCH', #128 ) LENGTH_UNIT ( ) NAMED_UNIT ( #112 ) );
#145 = ORIENTED_EDGE ( 'NONE', *, *, #216, .F. ) ;
#146 = EDGE_CURVE ( 'NONE', #38, #74, #16, .T. ) ;
#147 = CARTESIAN_POINT ( 'NONE',  ( 0.0000000000000000000, 0.0000000000000000000, 2.484999999999999432 ) ) ;
#148 = SURFACE_STYLE_FILL_AREA ( #263 ) ;
#149 = PLANE ( 'NONE',  #13 ) ;
#150 = FACE_OUTER_BOUND ( 'NONE', #165, .T. ) ;
#151 = PRODUCT_RELATED_PRODUCT_CATEGORY ( 'part', '', ( #70 ) ) ;
#152 = CARTESIAN_POINT ( 'NONE',  ( 2.809237542898491532E-33, 0.0000000000000000000, 2.293916535652885596E-17 ) ) ;
#153 = DIRECTION ( 'NONE',  ( 0.0000000000000000000, 0.0000000000000000000, 1.000000000000000000 ) ) ;
#154 = CARTESIAN_POINT ( 'NONE',  ( 0.0000000000000000000, 0.0000000000000000000, 0.0000000000000000000 ) ) ;
#155 = PRESENTATION_LAYER_ASSIGNMENT (  '', '', ( #295 ) ) ;
#156 = DIRECTION ( 'NONE',  ( -1.224646799147353207E-16, -0.0000000000000000000, -1.000000000000000000 ) ) ;
#157 = DIRECTION ( 'NONE',  ( -1.000000000000000000, 0.0000000000000000000, 0.0000000000000000000 ) ) ;
#158 = AXIS2_PLACEMENT_3D ( 'NONE', #82, #271, #57 ) ;
#159 = ADVANCED_FACE ( 'NONE', ( #222 ), #255, .T. ) ;
#160 = CIRCLE ( 'NONE', #200, 0.1873124999999999929 ) ;
#161 = DIRECTION ( 'NONE',  ( 0.1736481776669313859, 0.0000000000000000000, 0.9848077530122077983 ) ) ;
#162 = EDGE_CURVE ( 'NONE', #38, #214, #212, .T. ) ;
#163 = ORIENTED_EDGE ( 'NONE', *, *, #162, .F. ) ;
#164 = DIRECTION ( 'NONE',  ( -1.224646799147353207E-16, -0.0000000000000000000, -1.000000000000000000 ) ) ;
#165 = EDGE_LOOP ( 'NONE', ( #190, #201, #143, #10 ) ) ;
#166 = ORIENTED_EDGE ( 'NONE', *, *, #274, .F. ) ;
#167 = ADVANCED_FACE ( 'NONE', ( #150 ), #56, .T. ) ;
#168 = AXIS2_PLACEMENT_3D ( 'NONE', #211, #281, #260 ) ;
#169 = DIRECTION ( 'NONE',  ( 1.000000000000000000, 0.0000000000000000000, 0.0000000000000000000 ) ) ;
#170 = VERTEX_POINT ( 'NONE', #251 ) ;
#171 = CYLINDRICAL_SURFACE ( 'NONE', #168, 0.1873124999999999929 ) ;
#172 = DIRECTION ( 'NONE',  ( 0.0000000000000000000, 0.0000000000000000000, 1.000000000000000000 ) ) ;
#173 = FILL_AREA_STYLE_COLOUR ( '', #53 ) ;
#174 = CONICAL_SURFACE ( 'NONE', #49, 0.1724999999999995981, 0.7853981633974357335 ) ;
#175 = EDGE_CURVE ( 'NONE', #32, #257, #75, .T. ) ;
#176 = LINE ( 'NONE', #229, #289 ) ;
#177 = CARTESIAN_POINT ( 'NONE',  ( 0.1875000000000000278, 2.296212748401287726E-17, 2.484999999999999432 ) ) ;
#178 = APPLICATION_PROTOCOL_DEFINITION ( 'draft international standard', 'automotive_design', 1998, #249 ) ;
#179 = CARTESIAN_POINT ( 'NONE',  ( 1.224646799147353207E-16, 0.0000000000000000000, 1.000000000000000000 ) ) ;
#180 = ORIENTED_EDGE ( 'NONE', *, *, #146, .T. ) ;
#181 = DIRECTION ( 'NONE',  ( -1.000000000000000000, 0.0000000000000000000, 1.224646799147352961E-16 ) ) ;
#182 = DIRECTION ( 'NONE',  ( 1.000000000000000000, 0.0000000000000000000, 0.0000000000000000000 ) ) ;
#183 = CONICAL_SURFACE ( 'NONE', #158, 0.1873124999999999929, 0.1745329251994338915 ) ;
#184 =( GEOMETRIC_REPRESENTATION_CONTEXT ( 3 ) GLOBAL_UNCERTAINTY_ASSIGNED_CONTEXT ( ( #230 ) ) GLOBAL_UNIT_ASSIGNED_CONTEXT ( ( #226, #97, #243 ) ) REPRESENTATION_CONTEXT ( 'NONE', 'WORKASPACE' ) );
#185 = DIRECTION ( 'NONE',  ( -0.7071067811865385799, 0.0000000000000000000, -0.7071067811865563435 ) ) ;
#186 = DIMENSIONAL_EXPONENTS ( 1.000000000000000000, 0.0000000000000000000, 0.0000000000000000000, 0.0000000000000000000, 0.0000000000000000000, 0.0000000000000000000, 0.0000000000000000000 ) ;
#187 = LINE ( 'NONE', #110, #69 ) ;
#188 = AXIS2_PLACEMENT_3D ( 'NONE', #231, #265, #273 ) ;
#189 = DIRECTION ( 'NONE',  ( 1.000000000000000000, 0.0000000000000000000, 0.0000000000000000000 ) ) ;
#190 = ORIENTED_EDGE ( 'NONE', *, *, #269, .T. ) ;
#191 = PRODUCT_DEFINITION ( 'UNKNOWN', '', #258, #11 ) ;
#192 = SURFACE_SIDE_STYLE ('',( #148 ) ) ;
#193 = VECTOR ( 'NONE', #296, 39.37007874015748143 ) ;
#194 = ORIENTED_EDGE ( 'NONE', *, *, #18, .F. ) ;
#195 =( CONVERSION_BASED_UNIT ( 'INCH', #71 ) LENGTH_UNIT ( ) NAMED_UNIT ( #186 ) );
#196 = CARTESIAN_POINT ( 'NONE',  ( 0.0000000000000000000, 0.0000000000000000000, 2.500000000000000000 ) ) ;
#197 = ORIENTED_EDGE ( 'NONE', *, *, #293, .F. ) ;
#198 = CARTESIAN_POINT ( 'NONE',  ( 1.224646799147353207E-16, 0.0000000000000000000, 1.000000000000000000 ) ) ;
#199 =( LENGTH_UNIT ( ) NAMED_UNIT ( * ) SI_UNIT ( $, .METRE. ) );
#200 = AXIS2_PLACEMENT_3D ( 'NONE', #152, #40, #250 ) ;
#201 = ORIENTED_EDGE ( 'NONE', *, *, #18, .T. ) ;
#202 = SURFACE_SIDE_STYLE ('',( #292 ) ) ;
#203 = EDGE_LOOP ( 'NONE', ( #95, #58 ) ) ;
#204 = DIRECTION ( 'NONE',  ( 0.0000000000000000000, 0.0000000000000000000, -1.000000000000000000 ) ) ;
#205 = EDGE_CURVE ( 'NONE', #257, #68, #123, .T. ) ;
#206 = DIRECTION ( 'NONE',  ( 1.000000000000000000, 0.0000000000000000000, 0.0000000000000000000 ) ) ;
#207 = CIRCLE ( 'NONE', #77, 0.1724999999999995981 ) ;
#208 = AXIS2_PLACEMENT_3D ( 'NONE', #280, #91, #206 ) ;
#209 = AXIS2_PLACEMENT_3D ( 'NONE', #142, #39, #189 ) ;
#210 = CARTESIAN_POINT ( 'NONE',  ( 0.1875000000000001388, 2.296212748401289266E-17, 1.001063365341178457 ) ) ;
#211 = CARTESIAN_POINT ( 'NONE',  ( 0.0000000000000000000, 0.0000000000000000000, 0.0000000000000000000 ) ) ;
#212 = CIRCLE ( 'NONE', #87, 0.1873124999999999929 ) ;
#213 = EDGE_CURVE ( 'NONE', #214, #38, #299, .T. ) ;
#214 = VERTEX_POINT ( 'NONE', #83 ) ;
#215 = MANIFOLD_SOLID_BREP ( 'Cut-Revolve1', #139 ) ;
#216 = EDGE_CURVE ( 'NONE', #170, #32, #66, .T. ) ;
#217 = DIRECTION ( 'NONE',  ( 0.0000000000000000000, 0.0000000000000000000, -1.000000000000000000 ) ) ;
#218 = CIRCLE ( 'NONE', #278, 0.1873124999999999929 ) ;
#219 = DIRECTION ( 'NONE',  ( 1.000000000000000000, 0.0000000000000000000, -0.0000000000000000000 ) ) ;
#220 = DIRECTION ( 'NONE',  ( -1.000000000000000000, 0.0000000000000000000, 0.0000000000000000000 ) ) ;
#221 = ORIENTED_EDGE ( 'NONE', *, *, #72, .T. ) ;
#222 = FACE_OUTER_BOUND ( 'NONE', #8, .T. ) ;
#223 =( NAMED_UNIT ( * ) PLANE_ANGLE_UNIT ( ) SI_UNIT ( $, .RADIAN. ) );
#224 = ORIENTED_EDGE ( 'NONE', *, *, #293, .T. ) ;
#225 = CARTESIAN_POINT ( 'NONE',  ( 0.1873124999999999929, 2.293916535652885596E-17, -2.293916535652885596E-17 ) ) ;
#226 =( CONVERSION_BASED_UNIT ( 'INCH', #266 ) LENGTH_UNIT ( ) NAMED_UNIT ( #259 ) );
#227 = AXIS2_PLACEMENT_3D ( 'NONE', #287, #9, #105 ) ;
#228 = ADVANCED_FACE ( 'NONE', ( #133 ), #137, .T. ) ;
#229 = CARTESIAN_POINT ( 'NONE',  ( 0.1875000000000000278, 2.296212748401287726E-17, 2.500000000000000000 ) ) ;
#230 = UNCERTAINTY_MEASURE_WITH_UNIT (LENGTH_MEASURE( 1.000000000000000082E-05 ), #226, 'distance_accuracy_value', 'NONE');
#231 = CARTESIAN_POINT ( 'NONE',  ( 1.224646799147353207E-16, 0.0000000000000000000, 1.000000000000000000 ) ) ;
#232 = FACE_OUTER_BOUND ( 'NONE', #246, .T. ) ;
#233 = DIRECTION ( 'NONE',  ( 0.7071067811865385799, 8.659560562354823157E-17, -0.7071067811865563435 ) ) ;
#234 = AXIS2_PLACEMENT_3D ( 'NONE', #147, #37, #126 ) ;
#235 = VECTOR ( 'NONE', #185, 39.37007874015748854 ) ;
#236 = CARTESIAN_POINT ( 'NONE',  ( 0.1873124999999999929, 2.293916535652885596E-17, 0.0000000000000000000 ) ) ;
#237 = APPLICATION_CONTEXT ( 'automotive_design' ) ;
#238 = ORIENTED_EDGE ( 'NONE', *, *, #61, .F. ) ;
#239 = CARTESIAN_POINT ( 'NONE',  ( -0.1873124999999999929, 0.0000000000000000000, 2.293916535652885596E-17 ) ) ;
#240 = LINE ( 'NONE', #20, #267 ) ;
#241 = ORIENTED_EDGE ( 'NONE', *, *, #162, .T. ) ;
#242 =( NAMED_UNIT ( * ) SI_UNIT ( $, .STERADIAN. ) SOLID_ANGLE_UNIT ( ) );
#243 =( NAMED_UNIT ( * ) SI_UNIT ( $, .STERADIAN. ) SOLID_ANGLE_UNIT ( ) );
#244 = ORIENTED_EDGE ( 'NONE', *, *, #274, .T. ) ;
#245 = DIRECTION ( 'NONE',  ( -1.000000000000000000, 0.0000000000000000000, 0.0000000000000000000 ) ) ;
#246 = EDGE_LOOP ( 'NONE', ( #120, #288 ) ) ;
#247 = UNCERTAINTY_MEASURE_WITH_UNIT (LENGTH_MEASURE( 1.000000000000000082E-05 ), #195, 'distance_accuracy_value', 'NONE');
#248 = CARTESIAN_POINT ( 'NONE',  ( 0.0000000000000000000, 0.0000000000000000000, 2.500000000000000000 ) ) ;
#249 = APPLICATION_CONTEXT ( 'automotive_design' ) ;
#250 = DIRECTION ( 'NONE',  ( -1.000000000000000000, 0.0000000000000000000, 1.224646799147352961E-16 ) ) ;
#251 = CARTESIAN_POINT ( 'NONE',  ( -0.1724999999999995981, 0.0000000000000000000, 2.500000000000000000 ) ) ;
#252 = PRESENTATION_LAYER_ASSIGNMENT (  '', '', ( #140 ) ) ;
#253 = ORIENTED_EDGE ( 'NONE', *, *, #175, .T. ) ;
#254 = SURFACE_STYLE_USAGE ( .BOTH. , #202 ) ;
#255 = CONICAL_SURFACE ( 'NONE', #227, 0.1724999999999995981, 0.7853981633974357335 ) ;
#256 = AXIS2_PLACEMENT_3D ( 'NONE', #46, #138, #117 ) ;
#257 = VERTEX_POINT ( 'NONE', #177 ) ;
#258 = PRODUCT_DEFINITION_FORMATION_WITH_SPECIFIED_SOURCE ( 'ANY', '', #70, .NOT_KNOWN. ) ;
#259 = DIMENSIONAL_EXPONENTS ( 1.000000000000000000, 0.0000000000000000000, 0.0000000000000000000, 0.0000000000000000000, 0.0000000000000000000, 0.0000000000000000000, 0.0000000000000000000 ) ;
#260 = DIRECTION ( 'NONE',  ( -1.000000000000000000, 0.0000000000000000000, 1.224646799147352961E-16 ) ) ;
#261 = ORIENTED_EDGE ( 'NONE', *, *, #213, .T. ) ;
#262 = ORIENTED_EDGE ( 'NONE', *, *, #146, .F. ) ;
#263 = FILL_AREA_STYLE ('',( #7 ) ) ;
#264 = EDGE_LOOP ( 'NONE', ( #261, #180, #124, #106 ) ) ;
#265 = DIRECTION ( 'NONE',  ( 1.224646799147353207E-16, 0.0000000000000000000, 1.000000000000000000 ) ) ;
#266 = LENGTH_MEASURE_WITH_UNIT ( LENGTH_MEASURE( 0.02539999999999999897 ), #2 );
#267 = VECTOR ( 'NONE', #24, 39.37007874015747433 ) ;
#268 = DIRECTION ( 'NONE',  ( -0.0000000000000000000, -0.0000000000000000000, -1.000000000000000000 ) ) ;
#269 = EDGE_CURVE ( 'NONE', #68, #257, #22, .T. ) ;
#270 =( NAMED_UNIT ( * ) SI_UNIT ( $, .STERADIAN. ) SOLID_ANGLE_UNIT ( ) );
#271 = DIRECTION ( 'NONE',  ( 1.224646799147353207E-16, 0.0000000000000000000, 1.000000000000000000 ) ) ;
#272 = ORIENTED_EDGE ( 'NONE', *, *, #113, .F. ) ;
#273 = DIRECTION ( 'NONE',  ( 1.000000000000000000, 0.0000000000000000000, 0.0000000000000000000 ) ) ;
#274 = EDGE_CURVE ( 'NONE', #38, #101, #59, .T. ) ;
#275 = CYLINDRICAL_SURFACE ( 'NONE', #85, 0.1873124999999999929 ) ;
#276 = COLOUR_RGB ( '',0.7921568627450980005, 0.8196078431372548767, 0.9333333333333333481 ) ;
#277 = CARTESIAN_POINT ( 'NONE',  ( -0.1874999999999998890, 0.0000000000000000000, 1.001063365341178457 ) ) ;
#278 = AXIS2_PLACEMENT_3D ( 'NONE', #89, #164, #181 ) ;
#279 = EDGE_CURVE ( 'NONE', #214, #99, #240, .T. ) ;
#280 = CARTESIAN_POINT ( 'NONE',  ( 1.225949046108751700E-16, 0.0000000000000000000, 1.001063365341178457 ) ) ;
#281 = DIRECTION ( 'NONE',  ( -1.224646799147353207E-16, -0.0000000000000000000, -1.000000000000000000 ) ) ;
#282 = ORIENTED_EDGE ( 'NONE', *, *, #279, .T. ) ;
#283 = SHAPE_DEFINITION_REPRESENTATION ( #33, #67 ) ;
#284 = VECTOR ( 'NONE', #233, 39.37007874015748854 ) ;
#285 = EDGE_LOOP ( 'NONE', ( #94, #163, #244, #286 ) ) ;
#286 = ORIENTED_EDGE ( 'NONE', *, *, #80, .T. ) ;
#287 = CARTESIAN_POINT ( 'NONE',  ( 0.0000000000000000000, 0.0000000000000000000, 2.500000000000000000 ) ) ;
#288 = ORIENTED_EDGE ( 'NONE', *, *, #113, .T. ) ;
#289 = VECTOR ( 'NONE', #268, 39.37007874015748143 ) ;
#290 = DIRECTION ( 'NONE',  ( 0.0000000000000000000, 0.0000000000000000000, 1.000000000000000000 ) ) ;
#291 = ORIENTED_EDGE ( 'NONE', *, *, #92, .T. ) ;
#292 = SURFACE_STYLE_FILL_AREA ( #102 ) ;
#293 = EDGE_CURVE ( 'NONE', #170, #68, #298, .T. ) ;
#294 = DIRECTION ( 'NONE',  ( -1.224646799147353207E-16, -0.0000000000000000000, -1.000000000000000000 ) ) ;
#295 = STYLED_ITEM ( 'NONE', ( #12 ), #215 ) ;
#296 = DIRECTION ( 'NONE',  ( -1.224646799147353207E-16, -0.0000000000000000000, -1.000000000000000000 ) ) ;
#297 = ADVANCED_FACE ( 'NONE', ( #84 ), #275, .T. ) ;
#298 = LINE ( 'NONE', #88, #235 ) ;
#299 = CIRCLE ( 'NONE', #41, 0.1873124999999999929 ) ;
ENDSEC;
END-ISO-10303-21;
