ISO-10303-21;
HEADER;
FILE_DESCRIPTION (( 'STEP AP214' ),
    '1' );
FILE_NAME ('Micro_GEM-203-4.STEP',
    '2021-09-01T20:08:07',
    ( '' ),
    ( '' ),
    'SwSTEP 2.0',
    'SolidWorks 2020',
    '' );
FILE_SCHEMA (( 'AUTOMOTIVE_DESIGN' ));
ENDSEC;

DATA;
#1 = PRESENTATION_STYLE_ASSIGNMENT (( #77 ) ) ;
#2 = EDGE_LOOP ( 'NONE', ( #36, #6, #55, #242 ) ) ;
#3 =( NAMED_UNIT ( * ) PLANE_ANGLE_UNIT ( ) SI_UNIT ( $, .RADIAN. ) );
#4 = ORIENTED_EDGE ( 'NONE', *, *, #142, .T. ) ;
#5 = APPLICATION_PROTOCOL_DEFINITION ( 'draft international standard', 'automotive_design', 1998, #104 ) ;
#6 = ORIENTED_EDGE ( 'NONE', *, *, #256, .T. ) ;
#7 = ORIENTED_EDGE ( 'NONE', *, *, #81, .T. ) ;
#8 = PRESENTATION_LAYER_ASSIGNMENT (  '', '', ( #169 ) ) ;
#9 = EDGE_CURVE ( 'NONE', #32, #192, #91, .T. ) ;
#10 = ORIENTED_EDGE ( 'NONE', *, *, #9, .F. ) ;
#11 = ADVANCED_FACE ( 'NONE', ( #199 ), #85, .T. ) ;
#12 = DIRECTION ( 'NONE',  ( -1.224646799147353207E-16, -0.0000000000000000000, -1.000000000000000000 ) ) ;
#13 = AXIS2_PLACEMENT_3D ( 'NONE', #235, #20, #277 ) ;
#14 =( LENGTH_UNIT ( ) NAMED_UNIT ( * ) SI_UNIT ( $, .METRE. ) );
#15 = FACE_OUTER_BOUND ( 'NONE', #40, .T. ) ;
#16 = DIRECTION ( 'NONE',  ( -0.0000000000000000000, -0.0000000000000000000, -1.000000000000000000 ) ) ;
#17 = CARTESIAN_POINT ( 'NONE',  ( 0.0000000000000000000, 0.0000000000000000000, 2.500000000000000000 ) ) ;
#18 = EDGE_CURVE ( 'NONE', #281, #192, #62, .T. ) ;
#19 = PRODUCT_DEFINITION_CONTEXT ( 'detailed design', #104, 'design' ) ;
#20 = DIRECTION ( 'NONE',  ( -0.0000000000000000000, -0.0000000000000000000, -1.000000000000000000 ) ) ;
#21 = FACE_OUTER_BOUND ( 'NONE', #2, .T. ) ;
#22 = CIRCLE ( 'NONE', #173, 0.1014484499999999956 ) ;
#23 = CARTESIAN_POINT ( 'NONE',  ( -0.1100000000000001948, 0.0000000000000000000, 2.500000000000000000 ) ) ;
#24 = DIRECTION ( 'NONE',  ( 1.000000000000000000, 0.0000000000000000000, 0.0000000000000000000 ) ) ;
#25 = LENGTH_MEASURE_WITH_UNIT ( LENGTH_MEASURE( 0.02539999999999999897 ), #117 );
#26 = ORIENTED_EDGE ( 'NONE', *, *, #18, .T. ) ;
#27 = AXIS2_PLACEMENT_3D ( 'NONE', #17, #294, #212 ) ;
#28 = CIRCLE ( 'NONE', #206, 0.1100000000000001948 ) ;
#29 =( GEOMETRIC_REPRESENTATION_CONTEXT ( 3 ) GLOBAL_UNCERTAINTY_ASSIGNED_CONTEXT ( ( #183 ) ) GLOBAL_UNIT_ASSIGNED_CONTEXT ( ( #218, #3, #95 ) ) REPRESENTATION_CONTEXT ( 'NONE', 'WORKASPACE' ) );
#30 = SURFACE_SIDE_STYLE ('',( #195 ) ) ;
#31 = PRODUCT_DEFINITION ( 'UNKNOWN', '', #210, #19 ) ;
#32 = VERTEX_POINT ( 'NONE', #149 ) ;
#33 = ORIENTED_EDGE ( 'NONE', *, *, #202, .T. ) ;
#34 = AXIS2_PLACEMENT_3D ( 'NONE', #248, #270, #168 ) ;
#35 = STYLED_ITEM ( 'NONE', ( #1 ), #213 ) ;
#36 = ORIENTED_EDGE ( 'NONE', *, *, #202, .F. ) ;
#37 = DIRECTION ( 'NONE',  ( -1.224646799147353207E-16, -0.0000000000000000000, -1.000000000000000000 ) ) ;
#38 = CARTESIAN_POINT ( 'NONE',  ( 1.521483053233823417E-33, 0.0000000000000000000, 1.242385195709603026E-17 ) ) ;
#39 =( GEOMETRIC_REPRESENTATION_CONTEXT ( 3 ) GLOBAL_UNCERTAINTY_ASSIGNED_CONTEXT ( ( #118 ) ) GLOBAL_UNIT_ASSIGNED_CONTEXT ( ( #285, #214, #56 ) ) REPRESENTATION_CONTEXT ( 'NONE', 'WORKASPACE' ) );
#40 = EDGE_LOOP ( 'NONE', ( #217, #33 ) ) ;
#41 = DIRECTION ( 'NONE',  ( -1.224646799147353207E-16, -0.0000000000000000000, -1.000000000000000000 ) ) ;
#42 = EDGE_CURVE ( 'NONE', #97, #244, #106, .T. ) ;
#43 = DIRECTION ( 'NONE',  ( -1.000000000000000000, 0.0000000000000000000, 1.224646799147353207E-16 ) ) ;
#44 = AXIS2_PLACEMENT_3D ( 'NONE', #159, #211, #209 ) ;
#45 = DIRECTION ( 'NONE',  ( -1.224646799147353207E-16, -0.0000000000000000000, -1.000000000000000000 ) ) ;
#46 = FACE_OUTER_BOUND ( 'NONE', #96, .T. ) ;
#47 = PLANE ( 'NONE',  #134 ) ;
#48 = CARTESIAN_POINT ( 'NONE',  ( 0.0000000000000000000, 0.0000000000000000000, 2.500000000000000000 ) ) ;
#49 = AXIS2_PLACEMENT_3D ( 'NONE', #145, #246, #122 ) ;
#50 = ORIENTED_EDGE ( 'NONE', *, *, #86, .F. ) ;
#51 = PRODUCT_CONTEXT ( 'NONE', #175, 'mechanical' ) ;
#52 = EDGE_CURVE ( 'NONE', #190, #32, #267, .T. ) ;
#53 = ORIENTED_EDGE ( 'NONE', *, *, #191, .T. ) ;
#54 = AXIS2_PLACEMENT_3D ( 'NONE', #181, #299, #87 ) ;
#55 = ORIENTED_EDGE ( 'NONE', *, *, #191, .F. ) ;
#56 =( NAMED_UNIT ( * ) SI_UNIT ( $, .STERADIAN. ) SOLID_ANGLE_UNIT ( ) );
#57 = ORIENTED_EDGE ( 'NONE', *, *, #18, .F. ) ;
#58 = ORIENTED_EDGE ( 'NONE', *, *, #142, .F. ) ;
#59 = CONICAL_SURFACE ( 'NONE', #54, 0.1014484499999999956, 0.1745329251994339192 ) ;
#60 = CARTESIAN_POINT ( 'NONE',  ( 7.654042494670957853E-17, 0.0000000000000000000, 0.6250000000000000000 ) ) ;
#61 = FILL_AREA_STYLE_COLOUR ( '', #233 ) ;
#62 = LINE ( 'NONE', #64, #274 ) ;
#63 = CARTESIAN_POINT ( 'NONE',  ( 7.654042494670957853E-17, 0.0000000000000000000, 0.6250000000000000000 ) ) ;
#64 = CARTESIAN_POINT ( 'NONE',  ( -0.1014484499999999956, 0.0000000000000000000, 1.242385195709603026E-17 ) ) ;
#65 = CARTESIAN_POINT ( 'NONE',  ( 0.1250000000000000833, 1.530808498934192433E-17, 0.7585674773388166869 ) ) ;
#66 = AXIS2_PLACEMENT_3D ( 'NONE', #174, #12, #99 ) ;
#67 = FACE_OUTER_BOUND ( 'NONE', #79, .T. ) ;
#68 = DIRECTION ( 'NONE',  ( 0.0000000000000000000, 0.0000000000000000000, 1.000000000000000000 ) ) ;
#69 = FACE_OUTER_BOUND ( 'NONE', #164, .T. ) ;
#70 = DIRECTION ( 'NONE',  ( 1.000000000000000000, 0.0000000000000000000, 0.0000000000000000000 ) ) ;
#71 = CIRCLE ( 'NONE', #27, 0.1100000000000001948 ) ;
#72 = ORIENTED_EDGE ( 'NONE', *, *, #185, .T. ) ;
#73 = PRODUCT_DEFINITION_SHAPE ( 'NONE', 'NONE',  #31 ) ;
#74 = ORIENTED_EDGE ( 'NONE', *, *, #151, .T. ) ;
#75 = MECHANICAL_DESIGN_GEOMETRIC_PRESENTATION_REPRESENTATION (  '', ( #169 ), #147 ) ;
#76 = VERTEX_POINT ( 'NONE', #268 ) ;
#77 = SURFACE_STYLE_USAGE ( .BOTH. , #30 ) ;
#78 = MANIFOLD_SOLID_BREP ( 'Cut-Revolve1', #230 ) ;
#79 = EDGE_LOOP ( 'NONE', ( #284, #120 ) ) ;
#80 = ORIENTED_EDGE ( 'NONE', *, *, #81, .F. ) ;
#81 = EDGE_CURVE ( 'NONE', #190, #281, #22, .T. ) ;
#82 = VECTOR ( 'NONE', #271, 39.37007874015748143 ) ;
#83 = DIRECTION ( 'NONE',  ( -0.0000000000000000000, -0.0000000000000000000, -1.000000000000000000 ) ) ;
#84 = SURFACE_STYLE_USAGE ( .BOTH. , #288 ) ;
#85 = CYLINDRICAL_SURFACE ( 'NONE', #66, 0.1014484499999999956 ) ;
#86 = EDGE_CURVE ( 'NONE', #263, #97, #197, .T. ) ;
#87 = DIRECTION ( 'NONE',  ( 1.000000000000000000, 0.0000000000000000000, 0.0000000000000000000 ) ) ;
#88 = LINE ( 'NONE', #189, #116 ) ;
#89 = EDGE_CURVE ( 'NONE', #219, #263, #269, .T. ) ;
#90 = CARTESIAN_POINT ( 'NONE',  ( 0.0000000000000000000, 0.0000000000000000000, 2.500000000000000000 ) ) ;
#91 = CIRCLE ( 'NONE', #179, 0.1014484499999999956 ) ;
#92 = LINE ( 'NONE', #207, #215 ) ;
#93 = CYLINDRICAL_SURFACE ( 'NONE', #13, 0.1250000000000000000 ) ;
#94 = VERTEX_POINT ( 'NONE', #231 ) ;
#95 =( NAMED_UNIT ( * ) SI_UNIT ( $, .STERADIAN. ) SOLID_ANGLE_UNIT ( ) );
#96 = EDGE_LOOP ( 'NONE', ( #53, #4, #216, #50 ) ) ;
#97 = VERTEX_POINT ( 'NONE', #148 ) ;
#98 = ORIENTED_EDGE ( 'NONE', *, *, #272, .T. ) ;
#99 = DIRECTION ( 'NONE',  ( -1.000000000000000000, 0.0000000000000000000, 1.224646799147353207E-16 ) ) ;
#100 = VECTOR ( 'NONE', #291, 39.37007874015748143 ) ;
#101 = CONICAL_SURFACE ( 'NONE', #152, 0.1100000000000001948, 0.7853981633974517207 ) ;
#102 = LENGTH_MEASURE_WITH_UNIT ( LENGTH_MEASURE( 0.02539999999999999897 ), #14 );
#103 = DIRECTION ( 'NONE',  ( -1.000000000000000000, 0.0000000000000000000, 0.0000000000000000000 ) ) ;
#104 = APPLICATION_CONTEXT ( 'automotive_design' ) ;
#105 = PLANE ( 'NONE',  #49 ) ;
#106 = CIRCLE ( 'NONE', #124, 0.1250000000000000000 ) ;
#107 = CARTESIAN_POINT ( 'NONE',  ( 0.1100000000000001948, 1.347111479062090784E-17, 2.500000000000000000 ) ) ;
#108 = DIRECTION ( 'NONE',  ( -1.000000000000000000, 0.0000000000000000000, 1.224646799147353207E-16 ) ) ;
#109 = EDGE_CURVE ( 'NONE', #281, #190, #261, .T. ) ;
#110 = LINE ( 'NONE', #273, #82 ) ;
#111 = CARTESIAN_POINT ( 'NONE',  ( 0.0000000000000000000, 0.0000000000000000000, 0.0000000000000000000 ) ) ;
#112 = CARTESIAN_POINT ( 'NONE',  ( 0.0000000000000000000, 0.0000000000000000000, 0.0000000000000000000 ) ) ;
#113 = UNCERTAINTY_MEASURE_WITH_UNIT (LENGTH_MEASURE( 1.000000000000000082E-05 ), #290, 'distance_accuracy_value', 'NONE');
#114 = AXIS2_PLACEMENT_3D ( 'NONE', #112, #155, #156 ) ;
#115 = ORIENTED_EDGE ( 'NONE', *, *, #272, .F. ) ;
#116 = VECTOR ( 'NONE', #187, 39.37007874015748143 ) ;
#117 =( LENGTH_UNIT ( ) NAMED_UNIT ( * ) SI_UNIT ( $, .METRE. ) );
#118 = UNCERTAINTY_MEASURE_WITH_UNIT (LENGTH_MEASURE( 1.000000000000000082E-05 ), #285, 'distance_accuracy_value', 'NONE');
#119 = APPLICATION_PROTOCOL_DEFINITION ( 'draft international standard', 'automotive_design', 1998, #175 ) ;
#120 = ORIENTED_EDGE ( 'NONE', *, *, #9, .T. ) ;
#121 = ORIENTED_EDGE ( 'NONE', *, *, #52, .T. ) ;
#122 = DIRECTION ( 'NONE',  ( 1.000000000000000000, 0.0000000000000000000, -0.0000000000000000000 ) ) ;
#123 = CARTESIAN_POINT ( 'NONE',  ( 9.289772330602642653E-17, 0.0000000000000000000, 0.7585674773388166869 ) ) ;
#124 = AXIS2_PLACEMENT_3D ( 'NONE', #123, #37, #146 ) ;
#125 = MECHANICAL_DESIGN_GEOMETRIC_PRESENTATION_REPRESENTATION (  '', ( #35 ), #29 ) ;
#126 = DIRECTION ( 'NONE',  ( -1.000000000000000000, 0.0000000000000000000, 0.0000000000000000000 ) ) ;
#127 = DIRECTION ( 'NONE',  ( -0.1736481776669312194, 2.126576849575783625E-17, 0.9848077530122080203 ) ) ;
#128 = AXIS2_PLACEMENT_3D ( 'NONE', #176, #154, #133 ) ;
#129 = PRESENTATION_LAYER_ASSIGNMENT (  '', '', ( #35 ) ) ;
#130 = ADVANCED_FACE ( 'NONE', ( #15 ), #105, .T. ) ;
#131 = DIRECTION ( 'NONE',  ( 1.000000000000000000, 0.0000000000000000000, -0.0000000000000000000 ) ) ;
#132 = CARTESIAN_POINT ( 'NONE',  ( 0.0000000000000000000, 0.0000000000000000000, 2.485000000000000320 ) ) ;
#133 = DIRECTION ( 'NONE',  ( 1.000000000000000000, 0.0000000000000000000, 0.0000000000000000000 ) ) ;
#134 = AXIS2_PLACEMENT_3D ( 'NONE', #111, #68, #131 ) ;
#135 = CARTESIAN_POINT ( 'NONE',  ( 0.1014484500000000650, 0.0000000000000000000, 0.6250000000000000000 ) ) ;
#136 = ADVANCED_FACE ( 'NONE', ( #224 ), #144, .T. ) ;
#137 = FILL_AREA_STYLE ('',( #166 ) ) ;
#138 = ORIENTED_EDGE ( 'NONE', *, *, #109, .T. ) ;
#139 = VECTOR ( 'NONE', #150, 39.37007874015748143 ) ;
#140 = DIRECTION ( 'NONE',  ( -1.000000000000000000, 0.0000000000000000000, 0.0000000000000000000 ) ) ;
#141 = ORIENTED_EDGE ( 'NONE', *, *, #52, .F. ) ;
#142 = EDGE_CURVE ( 'NONE', #219, #244, #110, .T. ) ;
#143 = ORIENTED_EDGE ( 'NONE', *, *, #204, .T. ) ;
#144 = CONICAL_SURFACE ( 'NONE', #128, 0.1014484499999999956, 0.1745329251994339192 ) ;
#145 = CARTESIAN_POINT ( 'NONE',  ( 0.0000000000000000000, 0.0000000000000000000, 2.500000000000000000 ) ) ;
#146 = DIRECTION ( 'NONE',  ( 1.000000000000000000, 0.0000000000000000000, 0.0000000000000000000 ) ) ;
#147 =( GEOMETRIC_REPRESENTATION_CONTEXT ( 3 ) GLOBAL_UNCERTAINTY_ASSIGNED_CONTEXT ( ( #113 ) ) GLOBAL_UNIT_ASSIGNED_CONTEXT ( ( #290, #172, #171 ) ) REPRESENTATION_CONTEXT ( 'NONE', 'WORKASPACE' ) );
#148 = CARTESIAN_POINT ( 'NONE',  ( -0.1249999999999999167, 0.0000000000000000000, 0.7585674773388166869 ) ) ;
#149 = CARTESIAN_POINT ( 'NONE',  ( 0.1014484499999999956, 1.242385195709603026E-17, 0.0000000000000000000 ) ) ;
#150 = DIRECTION ( 'NONE',  ( 0.7071067811865499042, 8.659560562354961208E-17, -0.7071067811865451302 ) ) ;
#151 = EDGE_CURVE ( 'NONE', #244, #97, #296, .T. ) ;
#152 = AXIS2_PLACEMENT_3D ( 'NONE', #280, #163, #140 ) ;
#153 = DIMENSIONAL_EXPONENTS ( 1.000000000000000000, 0.0000000000000000000, 0.0000000000000000000, 0.0000000000000000000, 0.0000000000000000000, 0.0000000000000000000, 0.0000000000000000000 ) ;
#154 = DIRECTION ( 'NONE',  ( 1.224646799147353207E-16, 0.0000000000000000000, 1.000000000000000000 ) ) ;
#155 = DIRECTION ( 'NONE',  ( -1.224646799147353207E-16, -0.0000000000000000000, -1.000000000000000000 ) ) ;
#156 = DIRECTION ( 'NONE',  ( -1.000000000000000000, 0.0000000000000000000, 1.224646799147353207E-16 ) ) ;
#157 = CIRCLE ( 'NONE', #186, 0.1250000000000000000 ) ;
#158 = COLOUR_RGB ( '',0.7921568627450980005, 0.8196078431372548767, 0.9333333333333333481 ) ;
#159 = CARTESIAN_POINT ( 'NONE',  ( 9.289772330602642653E-17, 0.0000000000000000000, 0.7585674773388166869 ) ) ;
#160 = ADVANCED_FACE ( 'NONE', ( #21 ), #237, .T. ) ;
#161 = ORIENTED_EDGE ( 'NONE', *, *, #225, .F. ) ;
#162 = ORIENTED_EDGE ( 'NONE', *, *, #151, .F. ) ;
#163 = DIRECTION ( 'NONE',  ( 0.0000000000000000000, 0.0000000000000000000, -1.000000000000000000 ) ) ;
#164 = EDGE_LOOP ( 'NONE', ( #58, #241, #245, #162 ) ) ;
#165 = ADVANCED_FACE ( 'NONE', ( #67 ), #47, .F. ) ;
#166 = FILL_AREA_STYLE_COLOUR ( '', #158 ) ;
#167 = ORIENTED_EDGE ( 'NONE', *, *, #256, .F. ) ;
#168 = DIRECTION ( 'NONE',  ( 1.000000000000000000, 0.0000000000000000000, 0.0000000000000000000 ) ) ;
#169 = STYLED_ITEM ( 'NONE', ( #289 ), #78 ) ;
#170 = PRODUCT_RELATED_PRODUCT_CATEGORY ( 'part', '', ( #298 ) ) ;
#171 =( NAMED_UNIT ( * ) SI_UNIT ( $, .STERADIAN. ) SOLID_ANGLE_UNIT ( ) );
#172 =( NAMED_UNIT ( * ) PLANE_ANGLE_UNIT ( ) SI_UNIT ( $, .RADIAN. ) );
#173 = AXIS2_PLACEMENT_3D ( 'NONE', #60, #229, #103 ) ;
#174 = CARTESIAN_POINT ( 'NONE',  ( 0.0000000000000000000, 0.0000000000000000000, 0.0000000000000000000 ) ) ;
#175 = APPLICATION_CONTEXT ( 'automotive_design' ) ;
#176 = CARTESIAN_POINT ( 'NONE',  ( 7.654042494670957853E-17, 0.0000000000000000000, 0.6250000000000000000 ) ) ;
#177 = ADVANCED_FACE ( 'NONE', ( #297 ), #276, .T. ) ;
#178 = DIRECTION ( 'NONE',  ( -1.000000000000000000, 0.0000000000000000000, 0.0000000000000000000 ) ) ;
#179 = AXIS2_PLACEMENT_3D ( 'NONE', #38, #201, #43 ) ;
#180 = CIRCLE ( 'NONE', #226, 0.1014484499999999956 ) ;
#181 = CARTESIAN_POINT ( 'NONE',  ( 7.654042494670957853E-17, 0.0000000000000000000, 0.6250000000000000000 ) ) ;
#182 = DIRECTION ( 'NONE',  ( 1.000000000000000000, 0.0000000000000000000, 0.0000000000000000000 ) ) ;
#183 = UNCERTAINTY_MEASURE_WITH_UNIT (LENGTH_MEASURE( 1.000000000000000082E-05 ), #218, 'distance_accuracy_value', 'NONE');
#184 = DIRECTION ( 'NONE',  ( -0.7071067811865499042, 0.0000000000000000000, -0.7071067811865451302 ) ) ;
#185 = EDGE_CURVE ( 'NONE', #281, #97, #92, .T. ) ;
#186 = AXIS2_PLACEMENT_3D ( 'NONE', #132, #234, #182 ) ;
#187 = DIRECTION ( 'NONE',  ( 0.1736481776669314137, 0.0000000000000000000, 0.9848077530122077983 ) ) ;
#188 = EDGE_LOOP ( 'NONE', ( #265, #80, #98, #74 ) ) ;
#189 = CARTESIAN_POINT ( 'NONE',  ( 0.1014484500000000650, 0.0000000000000000000, 0.6250000000000000000 ) ) ;
#190 = VERTEX_POINT ( 'NONE', #135 ) ;
#191 = EDGE_CURVE ( 'NONE', #263, #219, #157, .T. ) ;
#192 = VERTEX_POINT ( 'NONE', #255 ) ;
#193 = AXIS2_PLACEMENT_3D ( 'NONE', #63, #41, #126 ) ;
#194 = EDGE_LOOP ( 'NONE', ( #222, #72, #264, #115 ) ) ;
#195 = SURFACE_STYLE_FILL_AREA ( #137 ) ;
#196 = EDGE_LOOP ( 'NONE', ( #141, #7, #26, #10 ) ) ;
#197 = LINE ( 'NONE', #227, #266 ) ;
#198 = ADVANCED_FACE ( 'NONE', ( #69 ), #254, .T. ) ;
#199 = FACE_OUTER_BOUND ( 'NONE', #279, .T. ) ;
#200 = VECTOR ( 'NONE', #184, 39.37007874015748143 ) ;
#201 = DIRECTION ( 'NONE',  ( -1.224646799147353207E-16, -0.0000000000000000000, -1.000000000000000000 ) ) ;
#202 = EDGE_CURVE ( 'NONE', #94, #76, #28, .T. ) ;
#203 = SURFACE_STYLE_FILL_AREA ( #223 ) ;
#204 = EDGE_CURVE ( 'NONE', #76, #263, #253, .T. ) ;
#205 = DIRECTION ( 'NONE',  ( -1.224646799147353207E-16, -0.0000000000000000000, -1.000000000000000000 ) ) ;
#206 = AXIS2_PLACEMENT_3D ( 'NONE', #48, #238, #70 ) ;
#207 = CARTESIAN_POINT ( 'NONE',  ( -0.1014484499999999262, 1.242385195709603026E-17, 0.6250000000000000000 ) ) ;
#208 = CARTESIAN_POINT ( 'NONE',  ( -0.1250000000000000000, 0.0000000000000000000, 2.485000000000000320 ) ) ;
#209 = DIRECTION ( 'NONE',  ( 1.000000000000000000, 0.0000000000000000000, 0.0000000000000000000 ) ) ;
#210 = PRODUCT_DEFINITION_FORMATION_WITH_SPECIFIED_SOURCE ( 'ANY', '', #298, .NOT_KNOWN. ) ;
#211 = DIRECTION ( 'NONE',  ( -1.224646799147353207E-16, -0.0000000000000000000, -1.000000000000000000 ) ) ;
#212 = DIRECTION ( 'NONE',  ( 1.000000000000000000, 0.0000000000000000000, 0.0000000000000000000 ) ) ;
#213 = ADVANCED_BREP_SHAPE_REPRESENTATION ( 'Micro_GEM-203-4', ( #78, #283 ), #39 ) ;
#214 =( NAMED_UNIT ( * ) PLANE_ANGLE_UNIT ( ) SI_UNIT ( $, .RADIAN. ) );
#215 = VECTOR ( 'NONE', #127, 39.37007874015747433 ) ;
#216 = ORIENTED_EDGE ( 'NONE', *, *, #42, .F. ) ;
#217 = ORIENTED_EDGE ( 'NONE', *, *, #225, .T. ) ;
#218 =( CONVERSION_BASED_UNIT ( 'INCH', #25 ) LENGTH_UNIT ( ) NAMED_UNIT ( #228 ) );
#219 = VERTEX_POINT ( 'NONE', #257 ) ;
#220 = AXIS2_PLACEMENT_3D ( 'NONE', #236, #232, #295 ) ;
#221 = DIRECTION ( 'NONE',  ( 0.0000000000000000000, 0.0000000000000000000, 1.000000000000000000 ) ) ;
#222 = ORIENTED_EDGE ( 'NONE', *, *, #109, .F. ) ;
#223 = FILL_AREA_STYLE ('',( #61 ) ) ;
#224 = FACE_OUTER_BOUND ( 'NONE', #194, .T. ) ;
#225 = EDGE_CURVE ( 'NONE', #76, #94, #71, .T. ) ;
#226 = AXIS2_PLACEMENT_3D ( 'NONE', #251, #45, #108 ) ;
#227 = CARTESIAN_POINT ( 'NONE',  ( -0.1250000000000000000, 0.0000000000000000000, 2.500000000000000000 ) ) ;
#228 = DIMENSIONAL_EXPONENTS ( 1.000000000000000000, 0.0000000000000000000, 0.0000000000000000000, 0.0000000000000000000, 0.0000000000000000000, 0.0000000000000000000, 0.0000000000000000000 ) ;
#229 = DIRECTION ( 'NONE',  ( -1.224646799147353207E-16, -0.0000000000000000000, -1.000000000000000000 ) ) ;
#230 = CLOSED_SHELL ( 'NONE', ( #11, #136, #160, #247, #198, #130, #287, #239, #177, #165 ) ) ;
#231 = CARTESIAN_POINT ( 'NONE',  ( 0.1100000000000001948, 1.438959988998141146E-17, 2.500000000000000000 ) ) ;
#232 = DIRECTION ( 'NONE',  ( 0.0000000000000000000, 0.0000000000000000000, -1.000000000000000000 ) ) ;
#233 = COLOUR_RGB ( '',0.7921568627450980005, 0.8196078431372548767, 0.9333333333333333481 ) ;
#234 = DIRECTION ( 'NONE',  ( 0.0000000000000000000, 0.0000000000000000000, -1.000000000000000000 ) ) ;
#235 = CARTESIAN_POINT ( 'NONE',  ( 0.0000000000000000000, 0.0000000000000000000, 2.500000000000000000 ) ) ;
#236 = CARTESIAN_POINT ( 'NONE',  ( 0.0000000000000000000, 0.0000000000000000000, 2.500000000000000000 ) ) ;
#237 = CONICAL_SURFACE ( 'NONE', #220, 0.1100000000000001948, 0.7853981633974517207 ) ;
#238 = DIRECTION ( 'NONE',  ( 0.0000000000000000000, 0.0000000000000000000, 1.000000000000000000 ) ) ;
#239 = ADVANCED_FACE ( 'NONE', ( #292 ), #59, .T. ) ;
#240 =( LENGTH_UNIT ( ) NAMED_UNIT ( * ) SI_UNIT ( $, .METRE. ) );
#241 = ORIENTED_EDGE ( 'NONE', *, *, #89, .T. ) ;
#242 = ORIENTED_EDGE ( 'NONE', *, *, #204, .F. ) ;
#243 = LENGTH_MEASURE_WITH_UNIT ( LENGTH_MEASURE( 0.02539999999999999897 ), #240 );
#244 = VERTEX_POINT ( 'NONE', #65 ) ;
#245 = ORIENTED_EDGE ( 'NONE', *, *, #86, .T. ) ;
#246 = DIRECTION ( 'NONE',  ( 0.0000000000000000000, 0.0000000000000000000, 1.000000000000000000 ) ) ;
#247 = ADVANCED_FACE ( 'NONE', ( #46 ), #93, .T. ) ;
#248 = CARTESIAN_POINT ( 'NONE',  ( 0.0000000000000000000, 0.0000000000000000000, 2.485000000000000320 ) ) ;
#249 = ORIENTED_EDGE ( 'NONE', *, *, #89, .F. ) ;
#250 = CARTESIAN_POINT ( 'NONE',  ( 0.1014484499999999956, 1.242385195709603026E-17, -1.242385195709603026E-17 ) ) ;
#251 = CARTESIAN_POINT ( 'NONE',  ( 1.521483053233823417E-33, 0.0000000000000000000, 1.242385195709603026E-17 ) ) ;
#252 = AXIS2_PLACEMENT_3D ( 'NONE', #90, #16, #178 ) ;
#253 = LINE ( 'NONE', #23, #200 ) ;
#254 = CYLINDRICAL_SURFACE ( 'NONE', #252, 0.1250000000000000000 ) ;
#255 = CARTESIAN_POINT ( 'NONE',  ( -0.1014484499999999956, 0.0000000000000000000, 2.484770391419206052E-17 ) ) ;
#256 = EDGE_CURVE ( 'NONE', #94, #219, #275, .T. ) ;
#257 = CARTESIAN_POINT ( 'NONE',  ( 0.1250000000000000000, 1.530808498934191509E-17, 2.485000000000000320 ) ) ;
#258 = EDGE_CURVE ( 'NONE', #192, #32, #180, .T. ) ;
#259 = CARTESIAN_POINT ( 'NONE',  ( 0.0000000000000000000, 0.0000000000000000000, 0.0000000000000000000 ) ) ;
#260 = ORIENTED_EDGE ( 'NONE', *, *, #258, .F. ) ;
#261 = CIRCLE ( 'NONE', #193, 0.1014484499999999956 ) ;
#262 = FACE_OUTER_BOUND ( 'NONE', #286, .T. ) ;
#263 = VERTEX_POINT ( 'NONE', #208 ) ;
#264 = ORIENTED_EDGE ( 'NONE', *, *, #42, .T. ) ;
#265 = ORIENTED_EDGE ( 'NONE', *, *, #185, .F. ) ;
#266 = VECTOR ( 'NONE', #83, 39.37007874015748143 ) ;
#267 = LINE ( 'NONE', #250, #100 ) ;
#268 = CARTESIAN_POINT ( 'NONE',  ( -0.1100000000000001948, 0.0000000000000000000, 2.500000000000000000 ) ) ;
#269 = CIRCLE ( 'NONE', #34, 0.1250000000000000000 ) ;
#270 = DIRECTION ( 'NONE',  ( 0.0000000000000000000, 0.0000000000000000000, -1.000000000000000000 ) ) ;
#271 = DIRECTION ( 'NONE',  ( -0.0000000000000000000, -0.0000000000000000000, -1.000000000000000000 ) ) ;
#272 = EDGE_CURVE ( 'NONE', #190, #244, #88, .T. ) ;
#273 = CARTESIAN_POINT ( 'NONE',  ( 0.1250000000000000000, 1.530808498934191509E-17, 2.500000000000000000 ) ) ;
#274 = VECTOR ( 'NONE', #205, 39.37007874015748143 ) ;
#275 = LINE ( 'NONE', #107, #139 ) ;
#276 = CYLINDRICAL_SURFACE ( 'NONE', #114, 0.1014484499999999956 ) ;
#277 = DIRECTION ( 'NONE',  ( -1.000000000000000000, 0.0000000000000000000, 0.0000000000000000000 ) ) ;
#278 = CARTESIAN_POINT ( 'NONE',  ( -0.1014484499999999262, 1.386596847321897422E-17, 0.6250000000000000000 ) ) ;
#279 = EDGE_LOOP ( 'NONE', ( #138, #121, #260, #57 ) ) ;
#280 = CARTESIAN_POINT ( 'NONE',  ( 0.0000000000000000000, 0.0000000000000000000, 2.500000000000000000 ) ) ;
#281 = VERTEX_POINT ( 'NONE', #278 ) ;
#282 = SHAPE_DEFINITION_REPRESENTATION ( #73, #213 ) ;
#283 = AXIS2_PLACEMENT_3D ( 'NONE', #259, #221, #24 ) ;
#284 = ORIENTED_EDGE ( 'NONE', *, *, #258, .T. ) ;
#285 =( CONVERSION_BASED_UNIT ( 'INCH', #243 ) LENGTH_UNIT ( ) NAMED_UNIT ( #293 ) );
#286 = EDGE_LOOP ( 'NONE', ( #167, #161, #143, #249 ) ) ;
#287 = ADVANCED_FACE ( 'NONE', ( #262 ), #101, .T. ) ;
#288 = SURFACE_SIDE_STYLE ('',( #203 ) ) ;
#289 = PRESENTATION_STYLE_ASSIGNMENT (( #84 ) ) ;
#290 =( CONVERSION_BASED_UNIT ( 'INCH', #102 ) LENGTH_UNIT ( ) NAMED_UNIT ( #153 ) );
#291 = DIRECTION ( 'NONE',  ( -1.224646799147353207E-16, -0.0000000000000000000, -1.000000000000000000 ) ) ;
#292 = FACE_OUTER_BOUND ( 'NONE', #188, .T. ) ;
#293 = DIMENSIONAL_EXPONENTS ( 1.000000000000000000, 0.0000000000000000000, 0.0000000000000000000, 0.0000000000000000000, 0.0000000000000000000, 0.0000000000000000000, 0.0000000000000000000 ) ;
#294 = DIRECTION ( 'NONE',  ( 0.0000000000000000000, 0.0000000000000000000, 1.000000000000000000 ) ) ;
#295 = DIRECTION ( 'NONE',  ( -1.000000000000000000, 0.0000000000000000000, 0.0000000000000000000 ) ) ;
#296 = CIRCLE ( 'NONE', #44, 0.1250000000000000000 ) ;
#297 = FACE_OUTER_BOUND ( 'NONE', #196, .T. ) ;
#298 = PRODUCT ( 'Micro_GEM-203-4', 'Micro_GEM-203-4', '', ( #51 ) ) ;
#299 = DIRECTION ( 'NONE',  ( 1.224646799147353207E-16, 0.0000000000000000000, 1.000000000000000000 ) ) ;
ENDSEC;
END-ISO-10303-21;
