ISO-10303-21;
HEADER;
FILE_DESCRIPTION (( 'STEP AP214' ),
    '1' );
FILE_NAME ('44152.STEP',
    '2023-06-22T19:26:42',
    ( '' ),
    ( '' ),
    'SwSTEP 2.0',
    'SolidWorks 2023',
    '' );
FILE_SCHEMA (( 'AUTOMOTIVE_DESIGN' ));
ENDSEC;

DATA;
#1 = EDGE_LOOP ( 'NONE', ( #5, #287 ) ) ;
#2 = COLOUR_RGB ( '',1.000000000000000000, 0.000000000000000000, 0.000000000000000000 ) ;
#3 = DIRECTION ( 'NONE',  ( -3.061616997868386099E-17, 1.000000000000000000, -0.000000000000000000 ) ) ;
#4 = DIRECTION ( 'NONE',  ( 0.000000000000000000, 1.000000000000000000, 0.000000000000000000 ) ) ;
#5 = ORIENTED_EDGE ( 'NONE', *, *, #121, .T. ) ;
#6 = SURFACE_STYLE_USAGE ( .BOTH. , #158 ) ;
#7 = COLOUR_RGB ( '',0.7921568627450980005, 0.8196078431372548767, 0.9333333333333333481 ) ;
#8 = VERTEX_POINT ( 'NONE', #148 ) ;
#9 = DIRECTION ( 'NONE',  ( 1.000000000000000000, 0.000000000000000000, 0.000000000000000000 ) ) ;
#10 = DIRECTION ( 'NONE',  ( -3.061616997868386099E-17, 1.000000000000000000, -0.000000000000000000 ) ) ;
#11 = DIRECTION ( 'NONE',  ( -0.000000000000000000, -1.000000000000000000, -0.000000000000000000 ) ) ;
#12 = DIRECTION ( 'NONE',  ( -0.000000000000000000, -1.000000000000000000, -0.000000000000000000 ) ) ;
#13 = CARTESIAN_POINT ( 'NONE',  ( 7.582401355855259480E-33, 1.000000000000000000, 0.000000000000000000 ) ) ;
#14 = ADVANCED_FACE ( 'NONE', ( #122 ), #222, .T. ) ;
#15 = FILL_AREA_STYLE_COLOUR ( '', #268 ) ;
#16 = FILL_AREA_STYLE ('',( #115 ) ) ;
#17 =( LENGTH_UNIT ( ) NAMED_UNIT ( * ) SI_UNIT ( $, .METRE. ) );
#18 = EDGE_LOOP ( 'NONE', ( #102, #95, #272, #306 ) ) ;
#19 = SURFACE_STYLE_FILL_AREA ( #165 ) ;
#20 = PRODUCT ( '44152', '44152', '', ( #83 ) ) ;
#21 = ORIENTED_EDGE ( 'NONE', *, *, #178, .T. ) ;
#22 = CIRCLE ( 'NONE', #291, 0.1250000000000000278 ) ;
#23 = STYLED_ITEM ( 'NONE', ( #236 ), #279 ) ;
#24 =( LENGTH_UNIT ( ) NAMED_UNIT ( * ) SI_UNIT ( $, .METRE. ) );
#25 = FACE_OUTER_BOUND ( 'NONE', #56, .T. ) ;
#26 = PRODUCT_DEFINITION_CONTEXT ( 'detailed design', #271, 'design' ) ;
#27 = SURFACE_STYLE_FILL_AREA ( #293 ) ;
#28 = DIRECTION ( 'NONE',  ( 0.000000000000000000, 0.000000000000000000, -1.000000000000000000 ) ) ;
#29 = CARTESIAN_POINT ( 'NONE',  ( -0.1250000000000000000, 1.000000000000000000, 0.000000000000000000 ) ) ;
#30 = PRODUCT_DEFINITION_SHAPE ( 'NONE', 'NONE',  #107 ) ;
#31 = ORIENTED_EDGE ( 'NONE', *, *, #220, .T. ) ;
#32 = APPLICATION_PROTOCOL_DEFINITION ( 'draft international standard', 'automotive_design', 1998, #230 ) ;
#33 =( GEOMETRIC_REPRESENTATION_CONTEXT ( 3 ) GLOBAL_UNCERTAINTY_ASSIGNED_CONTEXT ( ( #81 ) ) GLOBAL_UNIT_ASSIGNED_CONTEXT ( ( #117, #65, #192 ) ) REPRESENTATION_CONTEXT ( 'NONE', 'WORKASPACE' ) );
#34 =( NAMED_UNIT ( * ) SI_UNIT ( $, .STERADIAN. ) SOLID_ANGLE_UNIT ( ) );
#35 =( LENGTH_UNIT ( ) NAMED_UNIT ( * ) SI_UNIT ( $, .METRE. ) );
#36 = UNCERTAINTY_MEASURE_WITH_UNIT (LENGTH_MEASURE( 1.000000000000000082E-05 ), #179, 'distance_accuracy_value', 'NONE');
#37 = DIRECTION ( 'NONE',  ( -0.000000000000000000, -1.000000000000000000, -0.000000000000000000 ) ) ;
#38 =( NAMED_UNIT ( * ) PLANE_ANGLE_UNIT ( ) SI_UNIT ( $, .RADIAN. ) );
#39 = DIMENSIONAL_EXPONENTS ( 1.000000000000000000, 0.000000000000000000, 0.000000000000000000, 0.000000000000000000, 0.000000000000000000, 0.000000000000000000, 0.000000000000000000 ) ;
#40 = AXIS2_PLACEMENT_3D ( 'NONE', #168, #114, #41 ) ;
#41 = DIRECTION ( 'NONE',  ( 0.000000000000000000, 0.000000000000000000, -1.000000000000000000 ) ) ;
#42 = SURFACE_STYLE_USAGE ( .BOTH. , #258 ) ;
#43 = SURFACE_STYLE_USAGE ( .BOTH. , #259 ) ;
#44 = MECHANICAL_DESIGN_GEOMETRIC_PRESENTATION_REPRESENTATION (  '', ( #235 ), #33 ) ;
#45 = MECHANICAL_DESIGN_GEOMETRIC_PRESENTATION_REPRESENTATION (  '', ( #281 ), #237 ) ;
#46 = PLANE ( 'NONE',  #245 ) ;
#47 =( LENGTH_UNIT ( ) NAMED_UNIT ( * ) SI_UNIT ( $, .METRE. ) );
#48 = CARTESIAN_POINT ( 'NONE',  ( 0.1250000000000000278, 1.000000000000000000, 1.530808498934192125E-17 ) ) ;
#49 = EDGE_CURVE ( 'NONE', #194, #50, #273, .T. ) ;
#50 = VERTEX_POINT ( 'NONE', #278 ) ;
#51 = ORIENTED_EDGE ( 'NONE', *, *, #49, .T. ) ;
#52 = FILL_AREA_STYLE_COLOUR ( '', #2 ) ;
#53 = ORIENTED_EDGE ( 'NONE', *, *, #252, .T. ) ;
#54 = FILL_AREA_STYLE ('',( #123 ) ) ;
#55 = DIRECTION ( 'NONE',  ( -3.061616997868386099E-17, 1.000000000000000000, 0.000000000000000000 ) ) ;
#56 = EDGE_LOOP ( 'NONE', ( #241, #177 ) ) ;
#57 =( NAMED_UNIT ( * ) PLANE_ANGLE_UNIT ( ) SI_UNIT ( $, .RADIAN. ) );
#58 = CARTESIAN_POINT ( 'NONE',  ( 1.530808498934191817E-17, 0.000000000000000000, 0.1250000000000000278 ) ) ;
#59 = DIRECTION ( 'NONE',  ( -0.000000000000000000, -1.000000000000000000, -0.000000000000000000 ) ) ;
#60 = EDGE_CURVE ( 'NONE', #198, #153, #296, .T. ) ;
#61 = AXIS2_PLACEMENT_3D ( 'NONE', #265, #146, #85 ) ;
#62 = CIRCLE ( 'NONE', #233, 0.1250000000000000278 ) ;
#63 = LINE ( 'NONE', #240, #151 ) ;
#64 = FACE_OUTER_BOUND ( 'NONE', #170, .T. ) ;
#65 =( NAMED_UNIT ( * ) PLANE_ANGLE_UNIT ( ) SI_UNIT ( $, .RADIAN. ) );
#66 = AXIS2_PLACEMENT_3D ( 'NONE', #13, #139, #232 ) ;
#67 =( GEOMETRIC_REPRESENTATION_CONTEXT ( 3 ) GLOBAL_UNCERTAINTY_ASSIGNED_CONTEXT ( ( #106 ) ) GLOBAL_UNIT_ASSIGNED_CONTEXT ( ( #91, #131, #204 ) ) REPRESENTATION_CONTEXT ( 'NONE', 'WORKASPACE' ) );
#68 = EDGE_LOOP ( 'NONE', ( #53, #31 ) ) ;
#69 =( NAMED_UNIT ( * ) SI_UNIT ( $, .STERADIAN. ) SOLID_ANGLE_UNIT ( ) );
#70 = FACE_OUTER_BOUND ( 'NONE', #125, .T. ) ;
#71 = LINE ( 'NONE', #141, #86 ) ;
#72 = EDGE_CURVE ( 'NONE', #207, #87, #111, .T. ) ;
#73 = VERTEX_POINT ( 'NONE', #130 ) ;
#74 = PRESENTATION_LAYER_ASSIGNMENT (  '', '', ( #169 ) ) ;
#75 = DIRECTION ( 'NONE',  ( 0.000000000000000000, 0.000000000000000000, 1.000000000000000000 ) ) ;
#76 = ORIENTED_EDGE ( 'NONE', *, *, #164, .T. ) ;
#77 = UNCERTAINTY_MEASURE_WITH_UNIT (LENGTH_MEASURE( 1.000000000000000082E-05 ), #286, 'distance_accuracy_value', 'NONE');
#78 = LENGTH_MEASURE_WITH_UNIT ( LENGTH_MEASURE( 0.02539999999999999897 ), #253 );
#79 = DIRECTION ( 'NONE',  ( -1.000000000000000000, 0.000000000000000000, 0.000000000000000000 ) ) ;
#80 = CIRCLE ( 'NONE', #118, 0.1250000000000000555 ) ;
#81 = UNCERTAINTY_MEASURE_WITH_UNIT (LENGTH_MEASURE( 1.000000000000000082E-05 ), #117, 'distance_accuracy_value', 'NONE');
#82 = CIRCLE ( 'NONE', #250, 0.1250000000000000000 ) ;
#83 = PRODUCT_CONTEXT ( 'NONE', #230, 'mechanical' ) ;
#84 = DIRECTION ( 'NONE',  ( 0.000000000000000000, 0.000000000000000000, -1.000000000000000000 ) ) ;
#85 = DIRECTION ( 'NONE',  ( 0.000000000000000000, 0.000000000000000000, -1.000000000000000000 ) ) ;
#86 = VECTOR ( 'NONE', #175, 39.37007874015748143 ) ;
#87 = VERTEX_POINT ( 'NONE', #160 ) ;
#88 =( CONVERSION_BASED_UNIT ( 'INCH', #213 ) LENGTH_UNIT ( ) NAMED_UNIT ( #39 ) );
#89 = DIRECTION ( 'NONE',  ( -1.000000000000000000, 0.000000000000000000, 0.000000000000000000 ) ) ;
#90 =( NAMED_UNIT ( * ) PLANE_ANGLE_UNIT ( ) SI_UNIT ( $, .RADIAN. ) );
#91 =( CONVERSION_BASED_UNIT ( 'INCH', #309 ) LENGTH_UNIT ( ) NAMED_UNIT ( #124 ) );
#92 = ORIENTED_EDGE ( 'NONE', *, *, #161, .T. ) ;
#93 = PRESENTATION_STYLE_ASSIGNMENT (( #206 ) ) ;
#94 = ORIENTED_EDGE ( 'NONE', *, *, #299, .T. ) ;
#95 = ORIENTED_EDGE ( 'NONE', *, *, #257, .T. ) ;
#96 =( CONVERSION_BASED_UNIT ( 'INCH', #78 ) LENGTH_UNIT ( ) NAMED_UNIT ( #277 ) );
#97 = ORIENTED_EDGE ( 'NONE', *, *, #72, .T. ) ;
#98 = CLOSED_SHELL ( 'NONE', ( #229, #191, #152, #185 ) ) ;
#99 = PRESENTATION_LAYER_ASSIGNMENT (  '', '', ( #157 ) ) ;
#100 = DIRECTION ( 'NONE',  ( -1.000000000000000000, 0.000000000000000000, 0.000000000000000000 ) ) ;
#101 = DIMENSIONAL_EXPONENTS ( 1.000000000000000000, 0.000000000000000000, 0.000000000000000000, 0.000000000000000000, 0.000000000000000000, 0.000000000000000000, 0.000000000000000000 ) ;
#102 = ORIENTED_EDGE ( 'NONE', *, *, #60, .T. ) ;
#103 = CYLINDRICAL_SURFACE ( 'NONE', #110, 0.1250000000000000278 ) ;
#104 = DIRECTION ( 'NONE',  ( 0.000000000000000000, -0.000000000000000000, 1.000000000000000000 ) ) ;
#105 = CIRCLE ( 'NONE', #305, 0.1250000000000000555 ) ;
#106 = UNCERTAINTY_MEASURE_WITH_UNIT (LENGTH_MEASURE( 1.000000000000000082E-05 ), #91, 'distance_accuracy_value', 'NONE');
#107 = PRODUCT_DEFINITION ( 'UNKNOWN', '', #138, #26 ) ;
#108 = APPLICATION_PROTOCOL_DEFINITION ( 'draft international standard', 'automotive_design', 1998, #271 ) ;
#109 = CLOSED_SHELL ( 'NONE', ( #279, #14, #142, #255 ) ) ;
#110 = AXIS2_PLACEMENT_3D ( 'NONE', #129, #274, #251 ) ;
#111 = LINE ( 'NONE', #58, #112 ) ;
#112 = VECTOR ( 'NONE', #302, 39.37007874015748143 ) ;
#113 = FILL_AREA_STYLE ('',( #15 ) ) ;
#114 = DIRECTION ( 'NONE',  ( -0.000000000000000000, -1.000000000000000000, -0.000000000000000000 ) ) ;
#115 = FILL_AREA_STYLE_COLOUR ( '', #167 ) ;
#116 = ORIENTED_EDGE ( 'NONE', *, *, #307, .F. ) ;
#117 =( CONVERSION_BASED_UNIT ( 'INCH', #147 ) LENGTH_UNIT ( ) NAMED_UNIT ( #202 ) );
#118 = AXIS2_PLACEMENT_3D ( 'NONE', #217, #10, #79 ) ;
#119 = FILL_AREA_STYLE ('',( #264 ) ) ;
#120 = CARTESIAN_POINT ( 'NONE',  ( -6.123233995736772199E-17, 3.000000000000000444, 0.000000000000000000 ) ) ;
#121 = EDGE_CURVE ( 'NONE', #50, #87, #22, .T. ) ;
#122 = FACE_OUTER_BOUND ( 'NONE', #269, .T. ) ;
#123 = FILL_AREA_STYLE_COLOUR ( '', #7 ) ;
#124 = DIMENSIONAL_EXPONENTS ( 1.000000000000000000, 0.000000000000000000, 0.000000000000000000, 0.000000000000000000, 0.000000000000000000, 0.000000000000000000, 0.000000000000000000 ) ;
#125 = EDGE_LOOP ( 'NONE', ( #193, #21, #76, #289 ) ) ;
#126 = AXIS2_PLACEMENT_3D ( 'NONE', #270, #59, #28 ) ;
#127 = CARTESIAN_POINT ( 'NONE',  ( 1.530808498934191817E-17, 1.000000000000000000, 0.1250000000000000000 ) ) ;
#128 = DIRECTION ( 'NONE',  ( 0.000000000000000000, 0.000000000000000000, -1.000000000000000000 ) ) ;
#129 = CARTESIAN_POINT ( 'NONE',  ( -6.123233995736772199E-17, 3.000000000000000444, 0.000000000000000000 ) ) ;
#130 = CARTESIAN_POINT ( 'NONE',  ( -0.1250000000000001388, 3.000000000000000444, 0.000000000000000000 ) ) ;
#131 =( NAMED_UNIT ( * ) PLANE_ANGLE_UNIT ( ) SI_UNIT ( $, .RADIAN. ) );
#132 = CARTESIAN_POINT ( 'NONE',  ( 0.000000000000000000, 0.000000000000000000, 0.000000000000000000 ) ) ;
#133 = LENGTH_MEASURE_WITH_UNIT ( LENGTH_MEASURE( 0.02539999999999999897 ), #35 );
#134 = MECHANICAL_DESIGN_GEOMETRIC_PRESENTATION_REPRESENTATION (  '', ( #183 ), #242 ) ;
#135 = AXIS2_PLACEMENT_3D ( 'NONE', #290, #75, #9 ) ;
#136 = UNCERTAINTY_MEASURE_WITH_UNIT (LENGTH_MEASURE( 1.000000000000000082E-05 ), #96, 'distance_accuracy_value', 'NONE');
#137 = PRESENTATION_LAYER_ASSIGNMENT (  '', '', ( #235 ) ) ;
#138 = PRODUCT_DEFINITION_FORMATION_WITH_SPECIFIED_SOURCE ( 'ANY', '', #20, .NOT_KNOWN. ) ;
#139 = DIRECTION ( 'NONE',  ( -3.061616997868386099E-17, 1.000000000000000000, -0.000000000000000000 ) ) ;
#140 = PLANE ( 'NONE',  #280 ) ;
#141 = CARTESIAN_POINT ( 'NONE',  ( 0.1249999999999999584, 3.000000000000000444, 1.530808498934191817E-17 ) ) ;
#142 = ADVANCED_FACE ( 'NONE', ( #209 ), #189, .T. ) ;
#143 = PRESENTATION_STYLE_ASSIGNMENT (( #43 ) ) ;
#144 = MECHANICAL_DESIGN_GEOMETRIC_PRESENTATION_REPRESENTATION (  '', ( #23 ), #67 ) ;
#145 = FACE_OUTER_BOUND ( 'NONE', #1, .T. ) ;
#146 = DIRECTION ( 'NONE',  ( -0.000000000000000000, -1.000000000000000000, -0.000000000000000000 ) ) ;
#147 = LENGTH_MEASURE_WITH_UNIT ( LENGTH_MEASURE( 0.02539999999999999897 ), #24 );
#148 = CARTESIAN_POINT ( 'NONE',  ( 0.1250000000000000278, 3.000000000000000444, 1.530808498934192125E-17 ) ) ;
#149 = DIRECTION ( 'NONE',  ( 0.000000000000000000, 0.000000000000000000, -1.000000000000000000 ) ) ;
#150 = DIRECTION ( 'NONE',  ( -3.061616997868386099E-17, 1.000000000000000000, -0.000000000000000000 ) ) ;
#151 = VECTOR ( 'NONE', #184, 39.37007874015748143 ) ;
#152 = ADVANCED_FACE ( 'NONE', ( #70 ), #172, .T. ) ;
#153 = VERTEX_POINT ( 'NONE', #48 ) ;
#154 = DIRECTION ( 'NONE',  ( -1.000000000000000000, -3.061616997868386099E-17, 0.000000000000000000 ) ) ;
#155 = SURFACE_STYLE_USAGE ( .BOTH. , #212 ) ;
#156 = DIMENSIONAL_EXPONENTS ( 1.000000000000000000, 0.000000000000000000, 0.000000000000000000, 0.000000000000000000, 0.000000000000000000, 0.000000000000000000, 0.000000000000000000 ) ;
#157 = STYLED_ITEM ( 'NONE', ( #187 ), #255 ) ;
#158 = SURFACE_SIDE_STYLE ('',( #247 ) ) ;
#159 = DIMENSIONAL_EXPONENTS ( 1.000000000000000000, 0.000000000000000000, 0.000000000000000000, 0.000000000000000000, 0.000000000000000000, 0.000000000000000000, 0.000000000000000000 ) ;
#160 = CARTESIAN_POINT ( 'NONE',  ( 1.530808498934192125E-17, 0.000000000000000000, 0.1250000000000000555 ) ) ;
#161 = EDGE_CURVE ( 'NONE', #207, #194, #214, .T. ) ;
#162 =( GEOMETRIC_REPRESENTATION_CONTEXT ( 3 ) GLOBAL_UNCERTAINTY_ASSIGNED_CONTEXT ( ( #221 ) ) GLOBAL_UNIT_ASSIGNED_CONTEXT ( ( #88, #90, #69 ) ) REPRESENTATION_CONTEXT ( 'NONE', 'WORKASPACE' ) );
#163 = DIRECTION ( 'NONE',  ( 1.000000000000000000, 3.061616997868386099E-17, 0.000000000000000000 ) ) ;
#164 = EDGE_CURVE ( 'NONE', #198, #73, #63, .T. ) ;
#165 = FILL_AREA_STYLE ('',( #52 ) ) ;
#166 = FACE_OUTER_BOUND ( 'NONE', #68, .T. ) ;
#167 = COLOUR_RGB ( '',1.000000000000000000, 0.000000000000000000, 0.000000000000000000 ) ;
#168 = CARTESIAN_POINT ( 'NONE',  ( 0.000000000000000000, 0.000000000000000000, 0.000000000000000000 ) ) ;
#169 = STYLED_ITEM ( 'NONE', ( #223 ), #288 ) ;
#170 = EDGE_LOOP ( 'NONE', ( #94, #97, #176, #246 ) ) ;
#171 = PLANE ( 'NONE',  #208 ) ;
#172 = CYLINDRICAL_SURFACE ( 'NONE', #300, 0.1250000000000000278 ) ;
#173 =( NAMED_UNIT ( * ) PLANE_ANGLE_UNIT ( ) SI_UNIT ( $, .RADIAN. ) );
#174 = ORIENTED_EDGE ( 'NONE', *, *, #299, .F. ) ;
#175 = DIRECTION ( 'NONE',  ( -3.061616997868386099E-17, 1.000000000000000000, -0.000000000000000000 ) ) ;
#176 = ORIENTED_EDGE ( 'NONE', *, *, #121, .F. ) ;
#177 = ORIENTED_EDGE ( 'NONE', *, *, #178, .F. ) ;
#178 = EDGE_CURVE ( 'NONE', #153, #198, #82, .T. ) ;
#179 =( CONVERSION_BASED_UNIT ( 'INCH', #292 ) LENGTH_UNIT ( ) NAMED_UNIT ( #101 ) );
#180 = CARTESIAN_POINT ( 'NONE',  ( 0.000000000000000000, 0.000000000000000000, -0.1250000000000000278 ) ) ;
#181 =( CONVERSION_BASED_UNIT ( 'INCH', #133 ) LENGTH_UNIT ( ) NAMED_UNIT ( #156 ) );
#182 = COLOUR_RGB ( '',1.000000000000000000, 0.000000000000000000, 0.000000000000000000 ) ;
#183 = STYLED_ITEM ( 'NONE', ( #266 ), #14 ) ;
#184 = DIRECTION ( 'NONE',  ( -3.061616997868386099E-17, 1.000000000000000000, -0.000000000000000000 ) ) ;
#185 = ADVANCED_FACE ( 'NONE', ( #166 ), #46, .F. ) ;
#186 = SURFACE_SIDE_STYLE ('',( #285 ) ) ;
#187 = PRESENTATION_STYLE_ASSIGNMENT (( #210 ) ) ;
#188 = MANIFOLD_SOLID_BREP ( 'Revolve - Cutting Edge', #109 ) ;
#189 = CYLINDRICAL_SURFACE ( 'NONE', #40, 0.1250000000000000278 ) ;
#190 = LENGTH_MEASURE_WITH_UNIT ( LENGTH_MEASURE( 0.02539999999999999897 ), #249 );
#191 = ADVANCED_FACE ( 'NONE', ( #25 ), #140, .F. ) ;
#192 =( NAMED_UNIT ( * ) SI_UNIT ( $, .STERADIAN. ) SOLID_ANGLE_UNIT ( ) );
#193 = ORIENTED_EDGE ( 'NONE', *, *, #257, .F. ) ;
#194 = VERTEX_POINT ( 'NONE', #248 ) ;
#195 = CARTESIAN_POINT ( 'NONE',  ( 0.000000000000000000, 1.000000000000000000, 0.000000000000000000 ) ) ;
#196 = COLOUR_RGB ( '',1.000000000000000000, 0.000000000000000000, 0.000000000000000000 ) ;
#197 = PRESENTATION_LAYER_ASSIGNMENT (  '', '', ( #23 ) ) ;
#198 = VERTEX_POINT ( 'NONE', #29 ) ;
#199 = CARTESIAN_POINT ( 'NONE',  ( 0.000000000000000000, 0.000000000000000000, 0.000000000000000000 ) ) ;
#200 = ORIENTED_EDGE ( 'NONE', *, *, #72, .F. ) ;
#201 =( NAMED_UNIT ( * ) SI_UNIT ( $, .STERADIAN. ) SOLID_ANGLE_UNIT ( ) );
#202 = DIMENSIONAL_EXPONENTS ( 1.000000000000000000, 0.000000000000000000, 0.000000000000000000, 0.000000000000000000, 0.000000000000000000, 0.000000000000000000, 0.000000000000000000 ) ;
#203 = AXIS2_PLACEMENT_3D ( 'NONE', #195, #11, #228 ) ;
#204 =( NAMED_UNIT ( * ) SI_UNIT ( $, .STERADIAN. ) SOLID_ANGLE_UNIT ( ) );
#205 =( GEOMETRIC_REPRESENTATION_CONTEXT ( 3 ) GLOBAL_UNCERTAINTY_ASSIGNED_CONTEXT ( ( #136 ) ) GLOBAL_UNIT_ASSIGNED_CONTEXT ( ( #96, #38, #201 ) ) REPRESENTATION_CONTEXT ( 'NONE', 'WORKASPACE' ) );
#206 = SURFACE_STYLE_USAGE ( .BOTH. , #186 ) ;
#207 = VERTEX_POINT ( 'NONE', #127 ) ;
#208 = AXIS2_PLACEMENT_3D ( 'NONE', #239, #260, #149 ) ;
#209 = FACE_OUTER_BOUND ( 'NONE', #226, .T. ) ;
#210 = SURFACE_STYLE_USAGE ( .BOTH. , #216 ) ;
#211 =( LENGTH_UNIT ( ) NAMED_UNIT ( * ) SI_UNIT ( $, .METRE. ) );
#212 = SURFACE_SIDE_STYLE ('',( #27 ) ) ;
#213 = LENGTH_MEASURE_WITH_UNIT ( LENGTH_MEASURE( 0.02539999999999999897 ), #47 );
#214 = CIRCLE ( 'NONE', #61, 0.1250000000000000000 ) ;
#215 =( NAMED_UNIT ( * ) SI_UNIT ( $, .STERADIAN. ) SOLID_ANGLE_UNIT ( ) );
#216 = SURFACE_SIDE_STYLE ('',( #308 ) ) ;
#217 = CARTESIAN_POINT ( 'NONE',  ( -6.123233995736772199E-17, 3.000000000000000444, 0.000000000000000000 ) ) ;
#218 = ADVANCED_BREP_SHAPE_REPRESENTATION ( '44152', ( #188, #288, #135 ), #276 ) ;
#219 = CARTESIAN_POINT ( 'NONE',  ( 0.000000000000000000, 1.000000000000000000, 0.000000000000000000 ) ) ;
#220 = EDGE_CURVE ( 'NONE', #8, #73, #80, .T. ) ;
#221 = UNCERTAINTY_MEASURE_WITH_UNIT (LENGTH_MEASURE( 1.000000000000000082E-05 ), #88, 'distance_accuracy_value', 'NONE');
#222 = PLANE ( 'NONE',  #275 ) ;
#223 = PRESENTATION_STYLE_ASSIGNMENT (( #6 ) ) ;
#224 = FACE_OUTER_BOUND ( 'NONE', #18, .T. ) ;
#225 = MECHANICAL_DESIGN_GEOMETRIC_PRESENTATION_REPRESENTATION (  '', ( #169 ), #205 ) ;
#226 = EDGE_LOOP ( 'NONE', ( #200, #92, #51, #116 ) ) ;
#227 =( NAMED_UNIT ( * ) PLANE_ANGLE_UNIT ( ) SI_UNIT ( $, .RADIAN. ) );
#228 = DIRECTION ( 'NONE',  ( 0.000000000000000000, 0.000000000000000000, -1.000000000000000000 ) ) ;
#229 = ADVANCED_FACE ( 'NONE', ( #224 ), #103, .T. ) ;
#230 = APPLICATION_CONTEXT ( 'automotive_design' ) ;
#231 = SHAPE_DEFINITION_REPRESENTATION ( #30, #218 ) ;
#232 = DIRECTION ( 'NONE',  ( -1.000000000000000000, 0.000000000000000000, 0.000000000000000000 ) ) ;
#233 = AXIS2_PLACEMENT_3D ( 'NONE', #199, #12, #128 ) ;
#234 = CARTESIAN_POINT ( 'NONE',  ( 0.1250000000000000000, 3.000000000000000444, 0.000000000000000000 ) ) ;
#235 = STYLED_ITEM ( 'NONE', ( #93 ), #142 ) ;
#236 = PRESENTATION_STYLE_ASSIGNMENT (( #42 ) ) ;
#237 =( GEOMETRIC_REPRESENTATION_CONTEXT ( 3 ) GLOBAL_UNCERTAINTY_ASSIGNED_CONTEXT ( ( #36 ) ) GLOBAL_UNIT_ASSIGNED_CONTEXT ( ( #179, #57, #34 ) ) REPRESENTATION_CONTEXT ( 'NONE', 'WORKASPACE' ) );
#238 = ORIENTED_EDGE ( 'NONE', *, *, #161, .F. ) ;
#239 = CARTESIAN_POINT ( 'NONE',  ( 0.000000000000000000, 0.000000000000000000, 0.000000000000000000 ) ) ;
#240 = CARTESIAN_POINT ( 'NONE',  ( -0.1250000000000001110, 3.000000000000000444, 0.000000000000000000 ) ) ;
#241 = ORIENTED_EDGE ( 'NONE', *, *, #60, .F. ) ;
#242 =( GEOMETRIC_REPRESENTATION_CONTEXT ( 3 ) GLOBAL_UNCERTAINTY_ASSIGNED_CONTEXT ( ( #77 ) ) GLOBAL_UNIT_ASSIGNED_CONTEXT ( ( #286, #173, #215 ) ) REPRESENTATION_CONTEXT ( 'NONE', 'WORKASPACE' ) );
#243 = PRESENTATION_LAYER_ASSIGNMENT (  '', '', ( #183 ) ) ;
#244 = DIRECTION ( 'NONE',  ( -1.000000000000000000, 0.000000000000000000, 0.000000000000000000 ) ) ;
#245 = AXIS2_PLACEMENT_3D ( 'NONE', #234, #282, #163 ) ;
#246 = ORIENTED_EDGE ( 'NONE', *, *, #49, .F. ) ;
#247 = SURFACE_STYLE_FILL_AREA ( #54 ) ;
#248 = CARTESIAN_POINT ( 'NONE',  ( 0.000000000000000000, 1.000000000000000000, -0.1250000000000000000 ) ) ;
#249 =( LENGTH_UNIT ( ) NAMED_UNIT ( * ) SI_UNIT ( $, .METRE. ) );
#250 = AXIS2_PLACEMENT_3D ( 'NONE', #261, #150, #89 ) ;
#251 = DIRECTION ( 'NONE',  ( -1.000000000000000000, 0.000000000000000000, 0.000000000000000000 ) ) ;
#252 = EDGE_CURVE ( 'NONE', #73, #8, #105, .T. ) ;
#253 =( LENGTH_UNIT ( ) NAMED_UNIT ( * ) SI_UNIT ( $, .METRE. ) );
#254 = VECTOR ( 'NONE', #37, 39.37007874015748143 ) ;
#255 = ADVANCED_FACE ( 'NONE', ( #145 ), #171, .T. ) ;
#256 = MECHANICAL_DESIGN_GEOMETRIC_PRESENTATION_REPRESENTATION (  '', ( #157 ), #162 ) ;
#257 = EDGE_CURVE ( 'NONE', #153, #8, #71, .T. ) ;
#258 = SURFACE_SIDE_STYLE ('',( #19 ) ) ;
#259 = SURFACE_SIDE_STYLE ('',( #283 ) ) ;
#260 = DIRECTION ( 'NONE',  ( 0.000000000000000000, -1.000000000000000000, -0.000000000000000000 ) ) ;
#261 = CARTESIAN_POINT ( 'NONE',  ( 7.582401355855259480E-33, 1.000000000000000000, 0.000000000000000000 ) ) ;
#262 = FILL_AREA_STYLE_COLOUR ( '', #196 ) ;
#263 = DIRECTION ( 'NONE',  ( -3.061616997868386099E-17, 1.000000000000000000, -0.000000000000000000 ) ) ;
#264 = FILL_AREA_STYLE_COLOUR ( '', #182 ) ;
#265 = CARTESIAN_POINT ( 'NONE',  ( 0.000000000000000000, 1.000000000000000000, 0.000000000000000000 ) ) ;
#266 = PRESENTATION_STYLE_ASSIGNMENT (( #155 ) ) ;
#267 = CYLINDRICAL_SURFACE ( 'NONE', #126, 0.1250000000000000278 ) ;
#268 = COLOUR_RGB ( '',0.7921568627450980005, 0.8196078431372548767, 0.9333333333333333481 ) ;
#269 = EDGE_LOOP ( 'NONE', ( #174, #238 ) ) ;
#270 = CARTESIAN_POINT ( 'NONE',  ( 0.000000000000000000, 0.000000000000000000, 0.000000000000000000 ) ) ;
#271 = APPLICATION_CONTEXT ( 'automotive_design' ) ;
#272 = ORIENTED_EDGE ( 'NONE', *, *, #252, .F. ) ;
#273 = LINE ( 'NONE', #180, #254 ) ;
#274 = DIRECTION ( 'NONE',  ( -3.061616997868386099E-17, 1.000000000000000000, -0.000000000000000000 ) ) ;
#275 = AXIS2_PLACEMENT_3D ( 'NONE', #219, #4, #104 ) ;
#276 =( GEOMETRIC_REPRESENTATION_CONTEXT ( 3 ) GLOBAL_UNCERTAINTY_ASSIGNED_CONTEXT ( ( #303 ) ) GLOBAL_UNIT_ASSIGNED_CONTEXT ( ( #181, #227, #298 ) ) REPRESENTATION_CONTEXT ( 'NONE', 'WORKASPACE' ) );
#277 = DIMENSIONAL_EXPONENTS ( 1.000000000000000000, 0.000000000000000000, 0.000000000000000000, 0.000000000000000000, 0.000000000000000000, 0.000000000000000000, 0.000000000000000000 ) ;
#278 = CARTESIAN_POINT ( 'NONE',  ( 0.000000000000000000, 0.000000000000000000, -0.1250000000000000278 ) ) ;
#279 = ADVANCED_FACE ( 'NONE', ( #64 ), #267, .T. ) ;
#280 = AXIS2_PLACEMENT_3D ( 'NONE', #295, #55, #154 ) ;
#281 = STYLED_ITEM ( 'NONE', ( #143 ), #188 ) ;
#282 = DIRECTION ( 'NONE',  ( 3.061616997868386099E-17, -1.000000000000000000, 0.000000000000000000 ) ) ;
#283 = SURFACE_STYLE_FILL_AREA ( #113 ) ;
#284 = PRESENTATION_LAYER_ASSIGNMENT (  '', '', ( #281 ) ) ;
#285 = SURFACE_STYLE_FILL_AREA ( #16 ) ;
#286 =( CONVERSION_BASED_UNIT ( 'INCH', #190 ) LENGTH_UNIT ( ) NAMED_UNIT ( #159 ) );
#287 = ORIENTED_EDGE ( 'NONE', *, *, #307, .T. ) ;
#288 = MANIFOLD_SOLID_BREP ( 'Revolve - Tool Body (Straight Shanked)', #98 ) ;
#289 = ORIENTED_EDGE ( 'NONE', *, *, #220, .F. ) ;
#290 = CARTESIAN_POINT ( 'NONE',  ( 0.000000000000000000, 0.000000000000000000, 0.000000000000000000 ) ) ;
#291 = AXIS2_PLACEMENT_3D ( 'NONE', #132, #301, #84 ) ;
#292 = LENGTH_MEASURE_WITH_UNIT ( LENGTH_MEASURE( 0.02539999999999999897 ), #211 );
#293 = FILL_AREA_STYLE ('',( #262 ) ) ;
#294 = PRODUCT_RELATED_PRODUCT_CATEGORY ( 'part', '', ( #20 ) ) ;
#295 = CARTESIAN_POINT ( 'NONE',  ( 5.858436651022893041E-35, 1.000000000000000000, 0.000000000000000000 ) ) ;
#296 = CIRCLE ( 'NONE', #66, 0.1250000000000000000 ) ;
#297 = CIRCLE ( 'NONE', #203, 0.1250000000000000000 ) ;
#298 =( NAMED_UNIT ( * ) SI_UNIT ( $, .STERADIAN. ) SOLID_ANGLE_UNIT ( ) );
#299 = EDGE_CURVE ( 'NONE', #194, #207, #297, .T. ) ;
#300 = AXIS2_PLACEMENT_3D ( 'NONE', #304, #263, #244 ) ;
#301 = DIRECTION ( 'NONE',  ( -0.000000000000000000, -1.000000000000000000, -0.000000000000000000 ) ) ;
#302 = DIRECTION ( 'NONE',  ( -0.000000000000000000, -1.000000000000000000, -0.000000000000000000 ) ) ;
#303 = UNCERTAINTY_MEASURE_WITH_UNIT (LENGTH_MEASURE( 1.000000000000000082E-05 ), #181, 'distance_accuracy_value', 'NONE');
#304 = CARTESIAN_POINT ( 'NONE',  ( -6.123233995736772199E-17, 3.000000000000000444, 0.000000000000000000 ) ) ;
#305 = AXIS2_PLACEMENT_3D ( 'NONE', #120, #3, #100 ) ;
#306 = ORIENTED_EDGE ( 'NONE', *, *, #164, .F. ) ;
#307 = EDGE_CURVE ( 'NONE', #87, #50, #62, .T. ) ;
#308 = SURFACE_STYLE_FILL_AREA ( #119 ) ;
#309 = LENGTH_MEASURE_WITH_UNIT ( LENGTH_MEASURE( 0.02539999999999999897 ), #17 );
ENDSEC;
END-ISO-10303-21;
