ISO-10303-21;
HEADER;
FILE_DESCRIPTION (( 'STEP AP214' ),
    '1' );
FILE_NAME ('82951.STEP',
    '2023-06-23T07:31:45',
    ( '' ),
    ( '' ),
    'SwSTEP 2.0',
    'SolidWorks 2023',
    '' );
FILE_SCHEMA (( 'AUTOMOTIVE_DESIGN' ));
ENDSEC;

DATA;
#1 = AXIS2_PLACEMENT_3D ( 'NONE', #195, #23, #137 ) ;
#2 = PLANE ( 'NONE',  #207 ) ;
#3 = CARTESIAN_POINT ( 'NONE',  ( 0.07810000000000000275, 0.4374999999999998890, 1.052277762167362885E-17 ) ) ;
#4 = STYLED_ITEM ( 'NONE', ( #201 ), #145 ) ;
#5 = FILL_AREA_STYLE ('',( #339 ) ) ;
#6 = FACE_OUTER_BOUND ( 'NONE', #213, .T. ) ;
#7 = EDGE_CURVE ( 'NONE', #154, #299, #10, .T. ) ;
#8 = AXIS2_PLACEMENT_3D ( 'NONE', #129, #9, #106 ) ;
#9 = DIRECTION ( 'NONE',  ( 2.968840725205704707E-17, -1.000000000000000000, 0.000000000000000000 ) ) ;
#10 = LINE ( 'NONE', #16, #161 ) ;
#11 = VERTEX_POINT ( 'NONE', #331 ) ;
#12 = ADVANCED_FACE ( 'NONE', ( #103 ), #219, .F. ) ;
#13 = CARTESIAN_POINT ( 'NONE',  ( 0.000000000000000000, 0.000000000000000000, 0.000000000000000000 ) ) ;
#14 = CIRCLE ( 'NONE', #215, 0.07810000000000000275 ) ;
#15 = AXIS2_PLACEMENT_3D ( 'NONE', #280, #302, #194 ) ;
#16 = CARTESIAN_POINT ( 'NONE',  ( 0.07810000000000000275, 0.4374999999999998890, 9.564491501340828324E-18 ) ) ;
#17 = ORIENTED_EDGE ( 'NONE', *, *, #59, .T. ) ;
#18 = MANIFOLD_SOLID_BREP ( 'Revolve - Cutting Edge', #46 ) ;
#19 = DIMENSIONAL_EXPONENTS ( 1.000000000000000000, 0.000000000000000000, 0.000000000000000000, 0.000000000000000000, 0.000000000000000000, 0.000000000000000000, 0.000000000000000000 ) ;
#20 = PRESENTATION_STYLE_ASSIGNMENT (( #295 ) ) ;
#21 = FACE_OUTER_BOUND ( 'NONE', #139, .T. ) ;
#22 = DIRECTION ( 'NONE',  ( 0.000000000000000000, 0.000000000000000000, -1.000000000000000000 ) ) ;
#23 = DIRECTION ( 'NONE',  ( -2.968840725205704707E-17, 1.000000000000000000, -0.000000000000000000 ) ) ;
#24 = FILL_AREA_STYLE ('',( #186 ) ) ;
#25 = ORIENTED_EDGE ( 'NONE', *, *, #59, .F. ) ;
#26 = LENGTH_MEASURE_WITH_UNIT ( LENGTH_MEASURE( 0.02539999999999999897 ), #170 );
#27 = ORIENTED_EDGE ( 'NONE', *, *, #304, .F. ) ;
#28 =( CONVERSION_BASED_UNIT ( 'INCH', #26 ) LENGTH_UNIT ( ) NAMED_UNIT ( #235 ) );
#29 = CARTESIAN_POINT ( 'NONE',  ( -6.123233995736766036E-17, 2.500000000000000000, 0.000000000000000000 ) ) ;
#30 = VERTEX_POINT ( 'NONE', #350 ) ;
#31 = SURFACE_STYLE_USAGE ( .BOTH. , #178 ) ;
#32 = CARTESIAN_POINT ( 'NONE',  ( 7.582401355855259480E-33, 0.4374999999999998890, 0.000000000000000000 ) ) ;
#33 = EDGE_CURVE ( 'NONE', #353, #267, #253, .T. ) ;
#34 = STYLED_ITEM ( 'NONE', ( #193 ), #110 ) ;
#35 = CIRCLE ( 'NONE', #260, 0.07810000000000000275 ) ;
#36 = DIRECTION ( 'NONE',  ( -0.000000000000000000, -1.000000000000000000, -0.000000000000000000 ) ) ;
#37 = DIRECTION ( 'NONE',  ( -2.968840725205704707E-17, 1.000000000000000000, -0.000000000000000000 ) ) ;
#38 = UNCERTAINTY_MEASURE_WITH_UNIT (LENGTH_MEASURE( 1.000000000000000082E-05 ), #58, 'distance_accuracy_value', 'NONE');
#39 = SURFACE_STYLE_FILL_AREA ( #5 ) ;
#40 = DIRECTION ( 'NONE',  ( 1.000000000000000000, 0.000000000000000000, 0.000000000000000000 ) ) ;
#41 = SURFACE_STYLE_FILL_AREA ( #284 ) ;
#42 = EDGE_CURVE ( 'NONE', #154, #276, #268, .T. ) ;
#43 = AXIS2_PLACEMENT_3D ( 'NONE', #345, #298, #167 ) ;
#44 = ADVANCED_FACE ( 'NONE', ( #256 ), #278, .T. ) ;
#45 = EDGE_LOOP ( 'NONE', ( #216, #239 ) ) ;
#46 = CLOSED_SHELL ( 'NONE', ( #279, #110, #86, #175 ) ) ;
#47 = ORIENTED_EDGE ( 'NONE', *, *, #359, .T. ) ;
#48 = CARTESIAN_POINT ( 'NONE',  ( 3.441872955765394809E-35, 0.4375000000000000000, 0.000000000000000000 ) ) ;
#49 = EDGE_LOOP ( 'NONE', ( #73, #224, #27, #25 ) ) ;
#50 = CIRCLE ( 'NONE', #320, 0.09375000000000001388 ) ;
#51 = LENGTH_MEASURE_WITH_UNIT ( LENGTH_MEASURE( 0.02539999999999999897 ), #70 );
#52 = FILL_AREA_STYLE ('',( #75 ) ) ;
#53 = FACE_OUTER_BOUND ( 'NONE', #294, .T. ) ;
#54 = CARTESIAN_POINT ( 'NONE',  ( 0.000000000000000000, 0.4375000000000000000, 0.000000000000000000 ) ) ;
#55 = DIRECTION ( 'NONE',  ( 0.000000000000000000, 0.000000000000000000, -1.000000000000000000 ) ) ;
#56 = AXIS2_PLACEMENT_3D ( 'NONE', #48, #348, #111 ) ;
#57 = ORIENTED_EDGE ( 'NONE', *, *, #304, .T. ) ;
#58 =( CONVERSION_BASED_UNIT ( 'INCH', #226 ) LENGTH_UNIT ( ) NAMED_UNIT ( #95 ) );
#59 = EDGE_CURVE ( 'NONE', #322, #30, #310, .T. ) ;
#60 = UNCERTAINTY_MEASURE_WITH_UNIT (LENGTH_MEASURE( 1.000000000000000082E-05 ), #293, 'distance_accuracy_value', 'NONE');
#61 = AXIS2_PLACEMENT_3D ( 'NONE', #13, #85, #354 ) ;
#62 = DIRECTION ( 'NONE',  ( 0.000000000000000000, 0.000000000000000000, 1.000000000000000000 ) ) ;
#63 = SHAPE_DEFINITION_REPRESENTATION ( #231, #343 ) ;
#64 = MECHANICAL_DESIGN_GEOMETRIC_PRESENTATION_REPRESENTATION (  '', ( #290 ), #243 ) ;
#65 = AXIS2_PLACEMENT_3D ( 'NONE', #312, #62, #40 ) ;
#66 = LENGTH_MEASURE_WITH_UNIT ( LENGTH_MEASURE( 0.02539999999999999897 ), #212 );
#67 = PRESENTATION_LAYER_ASSIGNMENT (  '', '', ( #34 ) ) ;
#68 = AXIS2_PLACEMENT_3D ( 'NONE', #200, #78, #141 ) ;
#69 = DIMENSIONAL_EXPONENTS ( 1.000000000000000000, 0.000000000000000000, 0.000000000000000000, 0.000000000000000000, 0.000000000000000000, 0.000000000000000000, 0.000000000000000000 ) ;
#70 =( LENGTH_UNIT ( ) NAMED_UNIT ( * ) SI_UNIT ( $, .METRE. ) );
#71 = ORIENTED_EDGE ( 'NONE', *, *, #229, .F. ) ;
#72 = DIRECTION ( 'NONE',  ( -0.000000000000000000, -1.000000000000000000, -0.000000000000000000 ) ) ;
#73 = ORIENTED_EDGE ( 'NONE', *, *, #76, .T. ) ;
#74 = CARTESIAN_POINT ( 'NONE',  ( 7.582401355855259480E-33, 0.4374999999999998890, 0.000000000000000000 ) ) ;
#75 = FILL_AREA_STYLE_COLOUR ( '', #221 ) ;
#76 = EDGE_CURVE ( 'NONE', #322, #299, #340, .T. ) ;
#77 = SURFACE_STYLE_FILL_AREA ( #81 ) ;
#78 = DIRECTION ( 'NONE',  ( -0.000000000000000000, -1.000000000000000000, -0.000000000000000000 ) ) ;
#79 = VECTOR ( 'NONE', #177, 39.37007874015748143 ) ;
#80 = LENGTH_MEASURE_WITH_UNIT ( LENGTH_MEASURE( 0.02539999999999999897 ), #107 );
#81 = FILL_AREA_STYLE ('',( #242 ) ) ;
#82 = CARTESIAN_POINT ( 'NONE',  ( 9.564491501340828324E-18, 0.000000000000000000, 0.07810000000000000275 ) ) ;
#83 = VERTEX_POINT ( 'NONE', #287 ) ;
#84 = PRODUCT ( '82951', '82951', '', ( #306 ) ) ;
#85 = DIRECTION ( 'NONE',  ( -0.000000000000000000, -1.000000000000000000, -0.000000000000000000 ) ) ;
#86 = ADVANCED_FACE ( 'NONE', ( #6 ), #303, .T. ) ;
#87 =( GEOMETRIC_REPRESENTATION_CONTEXT ( 3 ) GLOBAL_UNCERTAINTY_ASSIGNED_CONTEXT ( ( #262 ) ) GLOBAL_UNIT_ASSIGNED_CONTEXT ( ( #157, #214, #156 ) ) REPRESENTATION_CONTEXT ( 'NONE', 'WORKASPACE' ) );
#88 = FILL_AREA_STYLE ('',( #232 ) ) ;
#89 =( NAMED_UNIT ( * ) SI_UNIT ( $, .STERADIAN. ) SOLID_ANGLE_UNIT ( ) );
#90 = DIRECTION ( 'NONE',  ( -1.000000000000000000, 0.000000000000000000, 0.000000000000000000 ) ) ;
#91 = DIRECTION ( 'NONE',  ( -1.000000000000000000, 0.000000000000000000, 0.000000000000000000 ) ) ;
#92 = AXIS2_PLACEMENT_3D ( 'NONE', #203, #37, #91 ) ;
#93 = DIRECTION ( 'NONE',  ( 0.000000000000000000, 0.000000000000000000, -1.000000000000000000 ) ) ;
#94 = CIRCLE ( 'NONE', #133, 0.07810000000000000275 ) ;
#95 = DIMENSIONAL_EXPONENTS ( 1.000000000000000000, 0.000000000000000000, 0.000000000000000000, 0.000000000000000000, 0.000000000000000000, 0.000000000000000000, 0.000000000000000000 ) ;
#96 = MECHANICAL_DESIGN_GEOMETRIC_PRESENTATION_REPRESENTATION (  '', ( #4 ), #172 ) ;
#97 =( NAMED_UNIT ( * ) PLANE_ANGLE_UNIT ( ) SI_UNIT ( $, .RADIAN. ) );
#98 =( GEOMETRIC_REPRESENTATION_CONTEXT ( 3 ) GLOBAL_UNCERTAINTY_ASSIGNED_CONTEXT ( ( #125 ) ) GLOBAL_UNIT_ASSIGNED_CONTEXT ( ( #151, #252, #301 ) ) REPRESENTATION_CONTEXT ( 'NONE', 'WORKASPACE' ) );
#99 = DIRECTION ( 'NONE',  ( -1.000000000000000000, 0.000000000000000000, 0.000000000000000000 ) ) ;
#100 = EDGE_LOOP ( 'NONE', ( #197, #47, #169, #71 ) ) ;
#101 = EDGE_CURVE ( 'NONE', #276, #322, #327, .T. ) ;
#102 = ADVANCED_FACE ( 'NONE', ( #248 ), #356, .F. ) ;
#103 = FACE_OUTER_BOUND ( 'NONE', #158, .T. ) ;
#104 = SURFACE_SIDE_STYLE ('',( #77 ) ) ;
#105 = APPLICATION_PROTOCOL_DEFINITION ( 'draft international standard', 'automotive_design', 1998, #183 ) ;
#106 = DIRECTION ( 'NONE',  ( 1.000000000000000000, 2.968840725205704707E-17, 0.000000000000000000 ) ) ;
#107 =( LENGTH_UNIT ( ) NAMED_UNIT ( * ) SI_UNIT ( $, .METRE. ) );
#108 = ORIENTED_EDGE ( 'NONE', *, *, #7, .T. ) ;
#109 = ORIENTED_EDGE ( 'NONE', *, *, #229, .T. ) ;
#110 = ADVANCED_FACE ( 'NONE', ( #53 ), #132, .T. ) ;
#111 = DIRECTION ( 'NONE',  ( -1.000000000000000000, -2.968840725205704707E-17, 0.000000000000000000 ) ) ;
#112 = LINE ( 'NONE', #116, #315 ) ;
#113 = ORIENTED_EDGE ( 'NONE', *, *, #101, .T. ) ;
#114 = EDGE_CURVE ( 'NONE', #276, #154, #319, .T. ) ;
#115 = DIRECTION ( 'NONE',  ( -0.000000000000000000, -1.000000000000000000, -0.000000000000000000 ) ) ;
#116 = CARTESIAN_POINT ( 'NONE',  ( 9.564491501340828324E-18, 0.000000000000000000, 0.07810000000000000275 ) ) ;
#117 = VECTOR ( 'NONE', #72, 39.37007874015748143 ) ;
#118 = DIRECTION ( 'NONE',  ( 0.000000000000000000, 0.000000000000000000, -1.000000000000000000 ) ) ;
#119 = ADVANCED_FACE ( 'NONE', ( #21 ), #123, .T. ) ;
#120 = PRESENTATION_STYLE_ASSIGNMENT (( #31 ) ) ;
#121 =( LENGTH_UNIT ( ) NAMED_UNIT ( * ) SI_UNIT ( $, .METRE. ) );
#122 = SURFACE_STYLE_USAGE ( .BOTH. , #150 ) ;
#123 = CONICAL_SURFACE ( 'NONE', #318, 0.07810000000000000275, 0.3490658503988672279 ) ;
#124 = CARTESIAN_POINT ( 'NONE',  ( 0.000000000000000000, 0.000000000000000000, 0.000000000000000000 ) ) ;
#125 = UNCERTAINTY_MEASURE_WITH_UNIT (LENGTH_MEASURE( 1.000000000000000082E-05 ), #151, 'distance_accuracy_value', 'NONE');
#126 =( NAMED_UNIT ( * ) SI_UNIT ( $, .STERADIAN. ) SOLID_ANGLE_UNIT ( ) );
#127 = EDGE_CURVE ( 'NONE', #83, #142, #14, .T. ) ;
#128 = AXIS2_PLACEMENT_3D ( 'NONE', #54, #134, #218 ) ;
#129 = CARTESIAN_POINT ( 'NONE',  ( 0.09374999999999994449, 2.500000000000000000, 0.000000000000000000 ) ) ;
#130 =( CONVERSION_BASED_UNIT ( 'INCH', #66 ) LENGTH_UNIT ( ) NAMED_UNIT ( #69 ) );
#131 = SURFACE_STYLE_FILL_AREA ( #52 ) ;
#132 = PLANE ( 'NONE',  #128 ) ;
#133 = AXIS2_PLACEMENT_3D ( 'NONE', #300, #355, #55 ) ;
#134 = DIRECTION ( 'NONE',  ( 0.000000000000000000, 1.000000000000000000, 0.000000000000000000 ) ) ;
#135 = DIRECTION ( 'NONE',  ( 0.000000000000000000, 0.000000000000000000, -1.000000000000000000 ) ) ;
#136 = CARTESIAN_POINT ( 'NONE',  ( 7.582401355855259480E-33, 0.4374999999999998890, 0.000000000000000000 ) ) ;
#137 = DIRECTION ( 'NONE',  ( -1.000000000000000000, 0.000000000000000000, 0.000000000000000000 ) ) ;
#138 = FACE_OUTER_BOUND ( 'NONE', #100, .T. ) ;
#139 = EDGE_LOOP ( 'NONE', ( #160, #108, #316, #264 ) ) ;
#140 =( GEOMETRIC_REPRESENTATION_CONTEXT ( 3 ) GLOBAL_UNCERTAINTY_ASSIGNED_CONTEXT ( ( #342 ) ) GLOBAL_UNIT_ASSIGNED_CONTEXT ( ( #28, #244, #159 ) ) REPRESENTATION_CONTEXT ( 'NONE', 'WORKASPACE' ) );
#141 = DIRECTION ( 'NONE',  ( 0.000000000000000000, 0.000000000000000000, -1.000000000000000000 ) ) ;
#142 = VERTEX_POINT ( 'NONE', #250 ) ;
#143 = DIRECTION ( 'NONE',  ( -1.000000000000000000, 0.000000000000000000, 0.000000000000000000 ) ) ;
#144 = DIRECTION ( 'NONE',  ( -2.968840725205704707E-17, 1.000000000000000000, -0.000000000000000000 ) ) ;
#145 = MANIFOLD_SOLID_BREP ( 'Revolve - Tool Body (Reduced Cut Diameter)', #152 ) ;
#146 =( LENGTH_UNIT ( ) NAMED_UNIT ( * ) SI_UNIT ( $, .METRE. ) );
#147 = CARTESIAN_POINT ( 'NONE',  ( -0.09375000000000004163, 2.500000000000000000, 0.000000000000000000 ) ) ;
#148 = PRODUCT_DEFINITION_FORMATION_WITH_SPECIFIED_SOURCE ( 'ANY', '', #84, .NOT_KNOWN. ) ;
#149 = DIRECTION ( 'NONE',  ( -1.000000000000000000, 0.000000000000000000, 0.000000000000000000 ) ) ;
#150 = SURFACE_SIDE_STYLE ('',( #41 ) ) ;
#151 =( CONVERSION_BASED_UNIT ( 'INCH', #338 ) LENGTH_UNIT ( ) NAMED_UNIT ( #165 ) );
#152 = CLOSED_SHELL ( 'NONE', ( #265, #119, #102, #313, #44, #12 ) ) ;
#153 =( GEOMETRIC_REPRESENTATION_CONTEXT ( 3 ) GLOBAL_UNCERTAINTY_ASSIGNED_CONTEXT ( ( #38 ) ) GLOBAL_UNIT_ASSIGNED_CONTEXT ( ( #58, #225, #89 ) ) REPRESENTATION_CONTEXT ( 'NONE', 'WORKASPACE' ) );
#154 = VERTEX_POINT ( 'NONE', #3 ) ;
#155 = STYLED_ITEM ( 'NONE', ( #311 ), #86 ) ;
#156 =( NAMED_UNIT ( * ) SI_UNIT ( $, .STERADIAN. ) SOLID_ANGLE_UNIT ( ) );
#157 =( CONVERSION_BASED_UNIT ( 'INCH', #80 ) LENGTH_UNIT ( ) NAMED_UNIT ( #344 ) );
#158 = EDGE_LOOP ( 'NONE', ( #57, #191 ) ) ;
#159 =( NAMED_UNIT ( * ) SI_UNIT ( $, .STERADIAN. ) SOLID_ANGLE_UNIT ( ) );
#160 = ORIENTED_EDGE ( 'NONE', *, *, #114, .T. ) ;
#161 = VECTOR ( 'NONE', #185, 39.37007874015748143 ) ;
#162 = STYLED_ITEM ( 'NONE', ( #120 ), #175 ) ;
#163 = CARTESIAN_POINT ( 'NONE',  ( -6.123233995736766036E-17, 2.500000000000000000, 0.000000000000000000 ) ) ;
#164 = ORIENTED_EDGE ( 'NONE', *, *, #114, .F. ) ;
#165 = DIMENSIONAL_EXPONENTS ( 1.000000000000000000, 0.000000000000000000, 0.000000000000000000, 0.000000000000000000, 0.000000000000000000, 0.000000000000000000, 0.000000000000000000 ) ;
#166 = CARTESIAN_POINT ( 'NONE',  ( 0.000000000000000000, 0.000000000000000000, 0.000000000000000000 ) ) ;
#167 = DIRECTION ( 'NONE',  ( -1.000000000000000000, 0.000000000000000000, 0.000000000000000000 ) ) ;
#168 = SURFACE_STYLE_USAGE ( .BOTH. , #104 ) ;
#169 = ORIENTED_EDGE ( 'NONE', *, *, #285, .F. ) ;
#170 =( LENGTH_UNIT ( ) NAMED_UNIT ( * ) SI_UNIT ( $, .METRE. ) );
#171 = AXIS2_PLACEMENT_3D ( 'NONE', #29, #144, #90 ) ;
#172 =( GEOMETRIC_REPRESENTATION_CONTEXT ( 3 ) GLOBAL_UNCERTAINTY_ASSIGNED_CONTEXT ( ( #180 ) ) GLOBAL_UNIT_ASSIGNED_CONTEXT ( ( #227, #204, #282 ) ) REPRESENTATION_CONTEXT ( 'NONE', 'WORKASPACE' ) );
#173 = EDGE_CURVE ( 'NONE', #299, #11, #205, .T. ) ;
#174 = LENGTH_MEASURE_WITH_UNIT ( LENGTH_MEASURE( 0.02539999999999999897 ), #121 );
#175 = ADVANCED_FACE ( 'NONE', ( #286 ), #2, .T. ) ;
#176 =( LENGTH_UNIT ( ) NAMED_UNIT ( * ) SI_UNIT ( $, .METRE. ) );
#177 = DIRECTION ( 'NONE',  ( -2.968840725205704707E-17, 1.000000000000000000, -0.000000000000000000 ) ) ;
#178 = SURFACE_SIDE_STYLE ('',( #39 ) ) ;
#179 = APPLICATION_PROTOCOL_DEFINITION ( 'draft international standard', 'automotive_design', 1998, #202 ) ;
#180 = UNCERTAINTY_MEASURE_WITH_UNIT (LENGTH_MEASURE( 1.000000000000000082E-05 ), #227, 'distance_accuracy_value', 'NONE');
#181 = VECTOR ( 'NONE', #274, 39.37007874015748143 ) ;
#182 = CIRCLE ( 'NONE', #15, 0.09374999999999994449 ) ;
#183 = APPLICATION_CONTEXT ( 'automotive_design' ) ;
#184 = EDGE_CURVE ( 'NONE', #11, #30, #199, .T. ) ;
#185 = DIRECTION ( 'NONE',  ( 0.3420201433256699342, 0.9396926207859079838, 4.188538737677007172E-17 ) ) ;
#186 = FILL_AREA_STYLE_COLOUR ( '', #237 ) ;
#187 = ORIENTED_EDGE ( 'NONE', *, *, #7, .F. ) ;
#188 = ORIENTED_EDGE ( 'NONE', *, *, #173, .F. ) ;
#189 = DIRECTION ( 'NONE',  ( -1.000000000000000000, 0.000000000000000000, 0.000000000000000000 ) ) ;
#190 = FACE_OUTER_BOUND ( 'NONE', #49, .T. ) ;
#191 = ORIENTED_EDGE ( 'NONE', *, *, #184, .T. ) ;
#192 =( GEOMETRIC_REPRESENTATION_CONTEXT ( 3 ) GLOBAL_UNCERTAINTY_ASSIGNED_CONTEXT ( ( #198 ) ) GLOBAL_UNIT_ASSIGNED_CONTEXT ( ( #130, #97, #126 ) ) REPRESENTATION_CONTEXT ( 'NONE', 'WORKASPACE' ) );
#193 = PRESENTATION_STYLE_ASSIGNMENT (( #168 ) ) ;
#194 = DIRECTION ( 'NONE',  ( -1.000000000000000000, 0.000000000000000000, 0.000000000000000000 ) ) ;
#195 = CARTESIAN_POINT ( 'NONE',  ( 7.582401355855259480E-33, 0.4374999999999998890, 0.000000000000000000 ) ) ;
#196 = CARTESIAN_POINT ( 'NONE',  ( 0.000000000000000000, 0.000000000000000000, -0.07810000000000000275 ) ) ;
#197 = ORIENTED_EDGE ( 'NONE', *, *, #305, .T. ) ;
#198 = UNCERTAINTY_MEASURE_WITH_UNIT (LENGTH_MEASURE( 1.000000000000000082E-05 ), #130, 'distance_accuracy_value', 'NONE');
#199 = CIRCLE ( 'NONE', #222, 0.09375000000000001388 ) ;
#200 = CARTESIAN_POINT ( 'NONE',  ( 0.000000000000000000, 0.000000000000000000, 0.000000000000000000 ) ) ;
#201 = PRESENTATION_STYLE_ASSIGNMENT (( #258 ) ) ;
#202 = APPLICATION_CONTEXT ( 'automotive_design' ) ;
#203 = CARTESIAN_POINT ( 'NONE',  ( -1.276542776722964990E-18, 0.4804980216144644212, 0.000000000000000000 ) ) ;
#204 =( NAMED_UNIT ( * ) PLANE_ANGLE_UNIT ( ) SI_UNIT ( $, .RADIAN. ) );
#205 = LINE ( 'NONE', #307, #79 ) ;
#206 = COLOUR_RGB ( '',0.7921568627450980005, 0.8196078431372548767, 0.9333333333333333481 ) ;
#207 = AXIS2_PLACEMENT_3D ( 'NONE', #124, #341, #93 ) ;
#208 = PRODUCT_DEFINITION ( 'UNKNOWN', '', #148, #209 ) ;
#209 = PRODUCT_DEFINITION_CONTEXT ( 'detailed design', #202, 'design' ) ;
#210 = MECHANICAL_DESIGN_GEOMETRIC_PRESENTATION_REPRESENTATION (  '', ( #155 ), #192 ) ;
#211 = ORIENTED_EDGE ( 'NONE', *, *, #42, .T. ) ;
#212 =( LENGTH_UNIT ( ) NAMED_UNIT ( * ) SI_UNIT ( $, .METRE. ) );
#213 = EDGE_LOOP ( 'NONE', ( #332, #257, #109, #324 ) ) ;
#214 =( NAMED_UNIT ( * ) PLANE_ANGLE_UNIT ( ) SI_UNIT ( $, .RADIAN. ) );
#215 = AXIS2_PLACEMENT_3D ( 'NONE', #281, #36, #118 ) ;
#216 = ORIENTED_EDGE ( 'NONE', *, *, #285, .T. ) ;
#217 = EDGE_LOOP ( 'NONE', ( #187, #211, #113, #292 ) ) ;
#218 = DIRECTION ( 'NONE',  ( 0.000000000000000000, -0.000000000000000000, 1.000000000000000000 ) ) ;
#219 = PLANE ( 'NONE',  #8 ) ;
#220 = CARTESIAN_POINT ( 'NONE',  ( 0.000000000000000000, 0.000000000000000000, 0.000000000000000000 ) ) ;
#221 = COLOUR_RGB ( '',0.7921568627450980005, 0.8196078431372548767, 0.9333333333333333481 ) ;
#222 = AXIS2_PLACEMENT_3D ( 'NONE', #163, #270, #99 ) ;
#223 = CARTESIAN_POINT ( 'NONE',  ( 0.09374999999999994449, 0.4804980216144644212, 1.148106374200642938E-17 ) ) ;
#224 = ORIENTED_EDGE ( 'NONE', *, *, #173, .T. ) ;
#225 =( NAMED_UNIT ( * ) PLANE_ANGLE_UNIT ( ) SI_UNIT ( $, .RADIAN. ) );
#226 = LENGTH_MEASURE_WITH_UNIT ( LENGTH_MEASURE( 0.02539999999999999897 ), #146 );
#227 =( CONVERSION_BASED_UNIT ( 'INCH', #174 ) LENGTH_UNIT ( ) NAMED_UNIT ( #349 ) );
#228 = FACE_OUTER_BOUND ( 'NONE', #217, .T. ) ;
#229 = EDGE_CURVE ( 'NONE', #142, #267, #323, .T. ) ;
#230 = SURFACE_SIDE_STYLE ('',( #358 ) ) ;
#231 = PRODUCT_DEFINITION_SHAPE ( 'NONE', 'NONE',  #208 ) ;
#232 = FILL_AREA_STYLE_COLOUR ( '', #206 ) ;
#233 = MECHANICAL_DESIGN_GEOMETRIC_PRESENTATION_REPRESENTATION (  '', ( #34 ), #140 ) ;
#234 = DIRECTION ( 'NONE',  ( -0.000000000000000000, -1.000000000000000000, -0.000000000000000000 ) ) ;
#235 = DIMENSIONAL_EXPONENTS ( 1.000000000000000000, 0.000000000000000000, 0.000000000000000000, 0.000000000000000000, 0.000000000000000000, 0.000000000000000000, 0.000000000000000000 ) ;
#236 = PRESENTATION_LAYER_ASSIGNMENT (  '', '', ( #155 ) ) ;
#237 = COLOUR_RGB ( '',1.000000000000000000, 0.000000000000000000, 0.000000000000000000 ) ;
#238 = CARTESIAN_POINT ( 'NONE',  ( -0.07810000000000000275, 0.4374999999999998890, 0.000000000000000000 ) ) ;
#239 = ORIENTED_EDGE ( 'NONE', *, *, #33, .T. ) ;
#240 =( NAMED_UNIT ( * ) PLANE_ANGLE_UNIT ( ) SI_UNIT ( $, .RADIAN. ) );
#241 = ORIENTED_EDGE ( 'NONE', *, *, #184, .F. ) ;
#242 = FILL_AREA_STYLE_COLOUR ( '', #263 ) ;
#243 =( GEOMETRIC_REPRESENTATION_CONTEXT ( 3 ) GLOBAL_UNCERTAINTY_ASSIGNED_CONTEXT ( ( #60 ) ) GLOBAL_UNIT_ASSIGNED_CONTEXT ( ( #293, #240, #272 ) ) REPRESENTATION_CONTEXT ( 'NONE', 'WORKASPACE' ) );
#244 =( NAMED_UNIT ( * ) PLANE_ANGLE_UNIT ( ) SI_UNIT ( $, .RADIAN. ) );
#245 = STYLED_ITEM ( 'NONE', ( #20 ), #279 ) ;
#246 = CARTESIAN_POINT ( 'NONE',  ( -6.123233995736766036E-17, 2.500000000000000000, 0.000000000000000000 ) ) ;
#247 = ORIENTED_EDGE ( 'NONE', *, *, #127, .F. ) ;
#248 = FACE_OUTER_BOUND ( 'NONE', #273, .T. ) ;
#249 = DIRECTION ( 'NONE',  ( -1.000000000000000000, 0.000000000000000000, 0.000000000000000000 ) ) ;
#250 = CARTESIAN_POINT ( 'NONE',  ( 0.000000000000000000, 0.4375000000000000000, -0.07810000000000000275 ) ) ;
#251 = CARTESIAN_POINT ( 'NONE',  ( -0.09374999999999994449, 0.4804980216144644212, 0.000000000000000000 ) ) ;
#252 =( NAMED_UNIT ( * ) PLANE_ANGLE_UNIT ( ) SI_UNIT ( $, .RADIAN. ) );
#253 = CIRCLE ( 'NONE', #314, 0.07810000000000000275 ) ;
#254 = MECHANICAL_DESIGN_GEOMETRIC_PRESENTATION_REPRESENTATION (  '', ( #245 ), #87 ) ;
#255 = FILL_AREA_STYLE_COLOUR ( '', #334 ) ;
#256 = FACE_OUTER_BOUND ( 'NONE', #296, .T. ) ;
#257 = ORIENTED_EDGE ( 'NONE', *, *, #127, .T. ) ;
#258 = SURFACE_STYLE_USAGE ( .BOTH. , #230 ) ;
#259 = PRESENTATION_LAYER_ASSIGNMENT (  '', '', ( #4 ) ) ;
#260 = AXIS2_PLACEMENT_3D ( 'NONE', #220, #352, #22 ) ;
#261 = PRODUCT_RELATED_PRODUCT_CATEGORY ( 'part', '', ( #84 ) ) ;
#262 = UNCERTAINTY_MEASURE_WITH_UNIT (LENGTH_MEASURE( 1.000000000000000082E-05 ), #157, 'distance_accuracy_value', 'NONE');
#263 = COLOUR_RGB ( '',1.000000000000000000, 0.000000000000000000, 0.000000000000000000 ) ;
#264 = ORIENTED_EDGE ( 'NONE', *, *, #101, .F. ) ;
#265 = ADVANCED_FACE ( 'NONE', ( #190 ), #317, .T. ) ;
#266 = SURFACE_STYLE_FILL_AREA ( #24 ) ;
#267 = VERTEX_POINT ( 'NONE', #275 ) ;
#268 = CIRCLE ( 'NONE', #1, 0.07810000000000000275 ) ;
#269 = MECHANICAL_DESIGN_GEOMETRIC_PRESENTATION_REPRESENTATION (  '', ( #162 ), #98 ) ;
#270 = DIRECTION ( 'NONE',  ( -2.968840725205704707E-17, 1.000000000000000000, -0.000000000000000000 ) ) ;
#271 = ORIENTED_EDGE ( 'NONE', *, *, #336, .T. ) ;
#272 =( NAMED_UNIT ( * ) SI_UNIT ( $, .STERADIAN. ) SOLID_ANGLE_UNIT ( ) );
#273 = EDGE_LOOP ( 'NONE', ( #164, #351 ) ) ;
#274 = DIRECTION ( 'NONE',  ( -0.3420201433256700452, 0.9396926207859079838, 0.000000000000000000 ) ) ;
#275 = CARTESIAN_POINT ( 'NONE',  ( 0.000000000000000000, 0.000000000000000000, -0.07810000000000000275 ) ) ;
#276 = VERTEX_POINT ( 'NONE', #347 ) ;
#277 = PRESENTATION_LAYER_ASSIGNMENT (  '', '', ( #162 ) ) ;
#278 = CYLINDRICAL_SURFACE ( 'NONE', #171, 0.09374999999999997224 ) ;
#279 = ADVANCED_FACE ( 'NONE', ( #138 ), #326, .T. ) ;
#280 = CARTESIAN_POINT ( 'NONE',  ( -1.276542776722964990E-18, 0.4804980216144644212, 0.000000000000000000 ) ) ;
#281 = CARTESIAN_POINT ( 'NONE',  ( 0.000000000000000000, 0.4375000000000000000, 0.000000000000000000 ) ) ;
#282 =( NAMED_UNIT ( * ) SI_UNIT ( $, .STERADIAN. ) SOLID_ANGLE_UNIT ( ) );
#283 = PRESENTATION_LAYER_ASSIGNMENT (  '', '', ( #245 ) ) ;
#284 = FILL_AREA_STYLE ('',( #255 ) ) ;
#285 = EDGE_CURVE ( 'NONE', #267, #353, #35, .T. ) ;
#286 = FACE_OUTER_BOUND ( 'NONE', #45, .T. ) ;
#287 = CARTESIAN_POINT ( 'NONE',  ( 9.564491501340828324E-18, 0.4375000000000000000, 0.07810000000000000275 ) ) ;
#288 = PRESENTATION_LAYER_ASSIGNMENT (  '', '', ( #290 ) ) ;
#289 = COLOUR_RGB ( '',1.000000000000000000, 0.000000000000000000, 0.000000000000000000 ) ;
#290 = STYLED_ITEM ( 'NONE', ( #297 ), #18 ) ;
#291 = SURFACE_SIDE_STYLE ('',( #266 ) ) ;
#292 = ORIENTED_EDGE ( 'NONE', *, *, #336, .F. ) ;
#293 =( CONVERSION_BASED_UNIT ( 'INCH', #51 ) LENGTH_UNIT ( ) NAMED_UNIT ( #19 ) );
#294 = EDGE_LOOP ( 'NONE', ( #346, #247 ) ) ;
#295 = SURFACE_STYLE_USAGE ( .BOTH. , #291 ) ;
#296 = EDGE_LOOP ( 'NONE', ( #188, #271, #17, #241 ) ) ;
#297 = PRESENTATION_STYLE_ASSIGNMENT (( #328 ) ) ;
#298 = DIRECTION ( 'NONE',  ( -2.968840725205704707E-17, 1.000000000000000000, -0.000000000000000000 ) ) ;
#299 = VERTEX_POINT ( 'NONE', #223 ) ;
#300 = CARTESIAN_POINT ( 'NONE',  ( 0.000000000000000000, 0.4375000000000000000, 0.000000000000000000 ) ) ;
#301 =( NAMED_UNIT ( * ) SI_UNIT ( $, .STERADIAN. ) SOLID_ANGLE_UNIT ( ) );
#302 = DIRECTION ( 'NONE',  ( -2.968840725205704707E-17, 1.000000000000000000, -0.000000000000000000 ) ) ;
#303 = CYLINDRICAL_SURFACE ( 'NONE', #61, 0.07810000000000000275 ) ;
#304 = EDGE_CURVE ( 'NONE', #30, #11, #50, .T. ) ;
#305 = EDGE_CURVE ( 'NONE', #142, #83, #94, .T. ) ;
#306 = PRODUCT_CONTEXT ( 'NONE', #183, 'mechanical' ) ;
#307 = CARTESIAN_POINT ( 'NONE',  ( 0.09374999999999990286, 2.500000000000000000, 1.148106374200643247E-17 ) ) ;
#308 = VECTOR ( 'NONE', #337, 39.37007874015748143 ) ;
#309 = AXIS2_PLACEMENT_3D ( 'NONE', #32, #357, #143 ) ;
#310 = LINE ( 'NONE', #147, #308 ) ;
#311 = PRESENTATION_STYLE_ASSIGNMENT (( #122 ) ) ;
#312 = CARTESIAN_POINT ( 'NONE',  ( 0.000000000000000000, 0.000000000000000000, 0.000000000000000000 ) ) ;
#313 = ADVANCED_FACE ( 'NONE', ( #228 ), #330, .T. ) ;
#314 = AXIS2_PLACEMENT_3D ( 'NONE', #166, #234, #135 ) ;
#315 = VECTOR ( 'NONE', #115, 39.37007874015748143 ) ;
#316 = ORIENTED_EDGE ( 'NONE', *, *, #76, .F. ) ;
#317 = CYLINDRICAL_SURFACE ( 'NONE', #43, 0.09374999999999997224 ) ;
#318 = AXIS2_PLACEMENT_3D ( 'NONE', #136, #335, #149 ) ;
#319 = CIRCLE ( 'NONE', #329, 0.07810000000000000275 ) ;
#320 = AXIS2_PLACEMENT_3D ( 'NONE', #246, #333, #249 ) ;
#321 = SURFACE_SIDE_STYLE ('',( #131 ) ) ;
#322 = VERTEX_POINT ( 'NONE', #251 ) ;
#323 = LINE ( 'NONE', #196, #117 ) ;
#324 = ORIENTED_EDGE ( 'NONE', *, *, #33, .F. ) ;
#325 = DIRECTION ( 'NONE',  ( -2.968840725205704707E-17, 1.000000000000000000, -0.000000000000000000 ) ) ;
#326 = CYLINDRICAL_SURFACE ( 'NONE', #68, 0.07810000000000000275 ) ;
#327 = LINE ( 'NONE', #238, #181 ) ;
#328 = SURFACE_STYLE_USAGE ( .BOTH. , #321 ) ;
#329 = AXIS2_PLACEMENT_3D ( 'NONE', #74, #325, #189 ) ;
#330 = CONICAL_SURFACE ( 'NONE', #309, 0.07810000000000000275, 0.3490658503988672279 ) ;
#331 = CARTESIAN_POINT ( 'NONE',  ( 0.09374999999999994449, 2.500000000000000000, 1.148106374200643401E-17 ) ) ;
#332 = ORIENTED_EDGE ( 'NONE', *, *, #359, .F. ) ;
#333 = DIRECTION ( 'NONE',  ( -2.968840725205704707E-17, 1.000000000000000000, -0.000000000000000000 ) ) ;
#334 = COLOUR_RGB ( '',1.000000000000000000, 0.000000000000000000, 0.000000000000000000 ) ;
#335 = DIRECTION ( 'NONE',  ( -2.968840725205704707E-17, 1.000000000000000000, -0.000000000000000000 ) ) ;
#336 = EDGE_CURVE ( 'NONE', #299, #322, #182, .T. ) ;
#337 = DIRECTION ( 'NONE',  ( -2.968840725205704707E-17, 1.000000000000000000, -0.000000000000000000 ) ) ;
#338 = LENGTH_MEASURE_WITH_UNIT ( LENGTH_MEASURE( 0.02539999999999999897 ), #176 );
#339 = FILL_AREA_STYLE_COLOUR ( '', #289 ) ;
#340 = CIRCLE ( 'NONE', #92, 0.09374999999999994449 ) ;
#341 = DIRECTION ( 'NONE',  ( 0.000000000000000000, -1.000000000000000000, -0.000000000000000000 ) ) ;
#342 = UNCERTAINTY_MEASURE_WITH_UNIT (LENGTH_MEASURE( 1.000000000000000082E-05 ), #28, 'distance_accuracy_value', 'NONE');
#343 = ADVANCED_BREP_SHAPE_REPRESENTATION ( '82951', ( #18, #145, #65 ), #153 ) ;
#344 = DIMENSIONAL_EXPONENTS ( 1.000000000000000000, 0.000000000000000000, 0.000000000000000000, 0.000000000000000000, 0.000000000000000000, 0.000000000000000000, 0.000000000000000000 ) ;
#345 = CARTESIAN_POINT ( 'NONE',  ( -6.123233995736766036E-17, 2.500000000000000000, 0.000000000000000000 ) ) ;
#346 = ORIENTED_EDGE ( 'NONE', *, *, #305, .F. ) ;
#347 = CARTESIAN_POINT ( 'NONE',  ( -0.07810000000000000275, 0.4374999999999998890, 0.000000000000000000 ) ) ;
#348 = DIRECTION ( 'NONE',  ( -2.968840725205704707E-17, 1.000000000000000000, 0.000000000000000000 ) ) ;
#349 = DIMENSIONAL_EXPONENTS ( 1.000000000000000000, 0.000000000000000000, 0.000000000000000000, 0.000000000000000000, 0.000000000000000000, 0.000000000000000000, 0.000000000000000000 ) ;
#350 = CARTESIAN_POINT ( 'NONE',  ( -0.09375000000000006939, 2.500000000000000000, 0.000000000000000000 ) ) ;
#351 = ORIENTED_EDGE ( 'NONE', *, *, #42, .F. ) ;
#352 = DIRECTION ( 'NONE',  ( -0.000000000000000000, -1.000000000000000000, -0.000000000000000000 ) ) ;
#353 = VERTEX_POINT ( 'NONE', #82 ) ;
#354 = DIRECTION ( 'NONE',  ( 0.000000000000000000, 0.000000000000000000, -1.000000000000000000 ) ) ;
#355 = DIRECTION ( 'NONE',  ( -0.000000000000000000, -1.000000000000000000, -0.000000000000000000 ) ) ;
#356 = PLANE ( 'NONE',  #56 ) ;
#357 = DIRECTION ( 'NONE',  ( -2.968840725205704707E-17, 1.000000000000000000, -0.000000000000000000 ) ) ;
#358 = SURFACE_STYLE_FILL_AREA ( #88 ) ;
#359 = EDGE_CURVE ( 'NONE', #83, #353, #112, .T. ) ;
ENDSEC;
END-ISO-10303-21;
