ISO-10303-21;
HEADER;
FILE_DESCRIPTION (( 'STEP AP214' ),
    '1' );
FILE_NAME ('01437.STEP',
    '2023-06-22T14:31:25',
    ( '' ),
    ( '' ),
    'SwSTEP 2.0',
    'SolidWorks 2023',
    '' );
FILE_SCHEMA (( 'AUTOMOTIVE_DESIGN' ));
ENDSEC;

DATA;
#1 = VERTEX_POINT ( 'NONE', #228 ) ;
#2 = FILL_AREA_STYLE ('',( #154 ) ) ;
#3 = FACE_OUTER_BOUND ( 'NONE', #123, .T. ) ;
#4 = DIRECTION ( 'NONE',  ( -0.000000000000000000, -1.000000000000000000, -0.000000000000000000 ) ) ;
#5 = CYLINDRICAL_SURFACE ( 'NONE', #216, 0.2500000000000000000 ) ;
#6 = DIRECTION ( 'NONE',  ( 1.632862398863137527E-16, 1.000000000000000000, -0.000000000000000000 ) ) ;
#7 = CARTESIAN_POINT ( 'NONE',  ( 3.061616997868383141E-16, 2.500000000000000000, 0.000000000000000000 ) ) ;
#8 = SURFACE_STYLE_FILL_AREA ( #157 ) ;
#9 = DIRECTION ( 'NONE',  ( -1.000000000000000000, 1.632862398863137527E-16, 0.000000000000000000 ) ) ;
#10 =( NAMED_UNIT ( * ) SI_UNIT ( $, .STERADIAN. ) SOLID_ANGLE_UNIT ( ) );
#11 = EDGE_CURVE ( 'NONE', #121, #171, #57, .T. ) ;
#12 = PRESENTATION_LAYER_ASSIGNMENT (  '', '', ( #237 ) ) ;
#13 = DIRECTION ( 'NONE',  ( 0.000000000000000000, 0.000000000000000000, -1.000000000000000000 ) ) ;
#14 = SURFACE_STYLE_FILL_AREA ( #286 ) ;
#15 = ADVANCED_FACE ( 'NONE', ( #3 ), #129, .T. ) ;
#16 = PRESENTATION_LAYER_ASSIGNMENT (  '', '', ( #293 ) ) ;
#17 =( GEOMETRIC_REPRESENTATION_CONTEXT ( 3 ) GLOBAL_UNCERTAINTY_ASSIGNED_CONTEXT ( ( #168 ) ) GLOBAL_UNIT_ASSIGNED_CONTEXT ( ( #61, #182, #278 ) ) REPRESENTATION_CONTEXT ( 'NONE', 'WORKASPACE' ) );
#18 = ORIENTED_EDGE ( 'NONE', *, *, #117, .F. ) ;
#19 = ADVANCED_FACE ( 'NONE', ( #125 ), #45, .T. ) ;
#20 = SURFACE_STYLE_USAGE ( .BOTH. , #102 ) ;
#21 = VERTEX_POINT ( 'NONE', #80 ) ;
#22 = CARTESIAN_POINT ( 'NONE',  ( 0.000000000000000000, 0.6250000000000000000, 0.000000000000000000 ) ) ;
#23 = ORIENTED_EDGE ( 'NONE', *, *, #117, .T. ) ;
#24 = EDGE_LOOP ( 'NONE', ( #76, #126, #118, #287 ) ) ;
#25 = CIRCLE ( 'NONE', #66, 0.2500000000000000000 ) ;
#26 = VECTOR ( 'NONE', #186, 39.37007874015748143 ) ;
#27 = CARTESIAN_POINT ( 'NONE',  ( 0.000000000000000000, 0.6250000000000000000, 0.000000000000000000 ) ) ;
#28 = DIRECTION ( 'NONE',  ( 1.632862398863137527E-16, 1.000000000000000000, -0.000000000000000000 ) ) ;
#29 = PRESENTATION_STYLE_ASSIGNMENT (( #109 ) ) ;
#30 = DIRECTION ( 'NONE',  ( -0.000000000000000000, -1.000000000000000000, -0.000000000000000000 ) ) ;
#31 = PRESENTATION_LAYER_ASSIGNMENT (  '', '', ( #169 ) ) ;
#32 = PRODUCT_DEFINITION_SHAPE ( 'NONE', 'NONE',  #236 ) ;
#33 =( CONVERSION_BASED_UNIT ( 'INCH', #92 ) LENGTH_UNIT ( ) NAMED_UNIT ( #303 ) );
#34 = ADVANCED_FACE ( 'NONE', ( #270 ), #50, .T. ) ;
#35 = DIMENSIONAL_EXPONENTS ( 1.000000000000000000, 0.000000000000000000, 0.000000000000000000, 0.000000000000000000, 0.000000000000000000, 0.000000000000000000, 0.000000000000000000 ) ;
#36 =( NAMED_UNIT ( * ) PLANE_ANGLE_UNIT ( ) SI_UNIT ( $, .RADIAN. ) );
#37 = LINE ( 'NONE', #189, #143 ) ;
#38 = APPLICATION_PROTOCOL_DEFINITION ( 'draft international standard', 'automotive_design', 1998, #267 ) ;
#39 = DIMENSIONAL_EXPONENTS ( 1.000000000000000000, 0.000000000000000000, 0.000000000000000000, 0.000000000000000000, 0.000000000000000000, 0.000000000000000000, 0.000000000000000000 ) ;
#40 = DIRECTION ( 'NONE',  ( -0.000000000000000000, -1.000000000000000000, -0.000000000000000000 ) ) ;
#41 = CIRCLE ( 'NONE', #167, 0.2499999999999996947 ) ;
#42 = COLOUR_RGB ( '',1.000000000000000000, 0.000000000000000000, 0.000000000000000000 ) ;
#43 = SURFACE_STYLE_USAGE ( .BOTH. , #200 ) ;
#44 = ORIENTED_EDGE ( 'NONE', *, *, #112, .T. ) ;
#45 = PLANE ( 'NONE',  #280 ) ;
#46 =( LENGTH_UNIT ( ) NAMED_UNIT ( * ) SI_UNIT ( $, .METRE. ) );
#47 = PLANE ( 'NONE',  #82 ) ;
#48 = ORIENTED_EDGE ( 'NONE', *, *, #256, .F. ) ;
#49 =( GEOMETRIC_REPRESENTATION_CONTEXT ( 3 ) GLOBAL_UNCERTAINTY_ASSIGNED_CONTEXT ( ( #209 ) ) GLOBAL_UNIT_ASSIGNED_CONTEXT ( ( #115, #284, #159 ) ) REPRESENTATION_CONTEXT ( 'NONE', 'WORKASPACE' ) );
#50 = CYLINDRICAL_SURFACE ( 'NONE', #227, 0.2499999999999998612 ) ;
#51 = EDGE_CURVE ( 'NONE', #149, #21, #41, .T. ) ;
#52 = ORIENTED_EDGE ( 'NONE', *, *, #11, .T. ) ;
#53 = EDGE_CURVE ( 'NONE', #54, #97, #25, .T. ) ;
#54 = VERTEX_POINT ( 'NONE', #223 ) ;
#55 = DIRECTION ( 'NONE',  ( -1.632862398863137527E-16, -1.000000000000000000, 0.000000000000000000 ) ) ;
#56 = PRESENTATION_STYLE_ASSIGNMENT (( #20 ) ) ;
#57 = CIRCLE ( 'NONE', #306, 0.2500000000000000000 ) ;
#58 = PRODUCT ( '01437', '01437', '', ( #262 ) ) ;
#59 = DIRECTION ( 'NONE',  ( 1.632862398863137527E-16, 1.000000000000000000, -0.000000000000000000 ) ) ;
#60 = DIRECTION ( 'NONE',  ( -0.000000000000000000, -1.000000000000000000, -0.000000000000000000 ) ) ;
#61 =( CONVERSION_BASED_UNIT ( 'INCH', #258 ) LENGTH_UNIT ( ) NAMED_UNIT ( #301 ) );
#62 = EDGE_CURVE ( 'NONE', #78, #1, #99, .T. ) ;
#63 =( CONVERSION_BASED_UNIT ( 'INCH', #113 ) LENGTH_UNIT ( ) NAMED_UNIT ( #35 ) );
#64 = PLANE ( 'NONE',  #194 ) ;
#65 = CARTESIAN_POINT ( 'NONE',  ( 0.000000000000000000, 0.000000000000000000, -0.2500000000000000000 ) ) ;
#66 = AXIS2_PLACEMENT_3D ( 'NONE', #290, #103, #148 ) ;
#67 = DIMENSIONAL_EXPONENTS ( 1.000000000000000000, 0.000000000000000000, 0.000000000000000000, 0.000000000000000000, 0.000000000000000000, 0.000000000000000000, 0.000000000000000000 ) ;
#68 = PRESENTATION_STYLE_ASSIGNMENT (( #71 ) ) ;
#69 = CARTESIAN_POINT ( 'NONE',  ( 0.2500000000000001665, 2.500000000000000000, 3.061616997868381785E-17 ) ) ;
#70 = UNCERTAINTY_MEASURE_WITH_UNIT (LENGTH_MEASURE( 1.000000000000000082E-05 ), #63, 'distance_accuracy_value', 'NONE');
#71 = SURFACE_STYLE_USAGE ( .BOTH. , #309 ) ;
#72 = COLOUR_RGB ( '',1.000000000000000000, 0.000000000000000000, 0.000000000000000000 ) ;
#73 = ORIENTED_EDGE ( 'NONE', *, *, #62, .F. ) ;
#74 = DIRECTION ( 'NONE',  ( 0.000000000000000000, 0.000000000000000000, -1.000000000000000000 ) ) ;
#75 =( LENGTH_UNIT ( ) NAMED_UNIT ( * ) SI_UNIT ( $, .METRE. ) );
#76 = ORIENTED_EDGE ( 'NONE', *, *, #276, .T. ) ;
#77 = CARTESIAN_POINT ( 'NONE',  ( 3.061616997868383018E-17, 0.6250000000000000000, 0.2500000000000000000 ) ) ;
#78 = VERTEX_POINT ( 'NONE', #77 ) ;
#79 = EDGE_CURVE ( 'NONE', #78, #121, #173, .T. ) ;
#80 = CARTESIAN_POINT ( 'NONE',  ( -0.2499999999999993894, 2.500000000000000000, 0.000000000000000000 ) ) ;
#81 = CLOSED_SHELL ( 'NONE', ( #240, #201, #160, #19 ) ) ;
#82 = AXIS2_PLACEMENT_3D ( 'NONE', #174, #245, #9 ) ;
#83 = CIRCLE ( 'NONE', #155, 0.2499999999999996947 ) ;
#84 = ORIENTED_EDGE ( 'NONE', *, *, #298, .T. ) ;
#85 = FACE_OUTER_BOUND ( 'NONE', #24, .T. ) ;
#86 =( NAMED_UNIT ( * ) PLANE_ANGLE_UNIT ( ) SI_UNIT ( $, .RADIAN. ) );
#87 = FILL_AREA_STYLE_COLOUR ( '', #243 ) ;
#88 = SURFACE_SIDE_STYLE ('',( #231 ) ) ;
#89 = STYLED_ITEM ( 'NONE', ( #282 ), #297 ) ;
#90 = DIRECTION ( 'NONE',  ( 0.000000000000000000, 1.000000000000000000, 0.000000000000000000 ) ) ;
#91 =( NAMED_UNIT ( * ) SI_UNIT ( $, .STERADIAN. ) SOLID_ANGLE_UNIT ( ) );
#92 = LENGTH_MEASURE_WITH_UNIT ( LENGTH_MEASURE( 0.02539999999999999897 ), #214 );
#93 = COLOUR_RGB ( '',1.000000000000000000, 0.000000000000000000, 0.000000000000000000 ) ;
#94 = DIRECTION ( 'NONE',  ( -0.000000000000000000, -1.000000000000000000, -0.000000000000000000 ) ) ;
#95 = SURFACE_STYLE_USAGE ( .BOTH. , #184 ) ;
#96 = LINE ( 'NONE', #69, #26 ) ;
#97 = VERTEX_POINT ( 'NONE', #202 ) ;
#98 = ORIENTED_EDGE ( 'NONE', *, *, #62, .T. ) ;
#99 = CIRCLE ( 'NONE', #162, 0.2500000000000000000 ) ;
#100 = ADVANCED_FACE ( 'NONE', ( #268 ), #47, .F. ) ;
#101 = EDGE_LOOP ( 'NONE', ( #217, #73 ) ) ;
#102 = SURFACE_SIDE_STYLE ('',( #221 ) ) ;
#103 = DIRECTION ( 'NONE',  ( 1.632862398863137527E-16, 1.000000000000000000, -0.000000000000000000 ) ) ;
#104 =( GEOMETRIC_REPRESENTATION_CONTEXT ( 3 ) GLOBAL_UNCERTAINTY_ASSIGNED_CONTEXT ( ( #172 ) ) GLOBAL_UNIT_ASSIGNED_CONTEXT ( ( #244, #86, #191 ) ) REPRESENTATION_CONTEXT ( 'NONE', 'WORKASPACE' ) );
#105 = AXIS2_PLACEMENT_3D ( 'NONE', #226, #139, #13 ) ;
#106 = DIRECTION ( 'NONE',  ( 0.000000000000000000, 0.000000000000000000, -1.000000000000000000 ) ) ;
#107 =( NAMED_UNIT ( * ) PLANE_ANGLE_UNIT ( ) SI_UNIT ( $, .RADIAN. ) );
#108 = CARTESIAN_POINT ( 'NONE',  ( -0.2499999999999995559, 2.500000000000000000, 0.000000000000000000 ) ) ;
#109 = SURFACE_STYLE_USAGE ( .BOTH. , #130 ) ;
#110 = MECHANICAL_DESIGN_GEOMETRIC_PRESENTATION_REPRESENTATION (  '', ( #203 ), #181 ) ;
#111 = DIRECTION ( 'NONE',  ( 0.000000000000000000, -0.000000000000000000, 1.000000000000000000 ) ) ;
#112 = EDGE_CURVE ( 'NONE', #97, #21, #187, .T. ) ;
#113 = LENGTH_MEASURE_WITH_UNIT ( LENGTH_MEASURE( 0.02539999999999999897 ), #141 );
#114 =( GEOMETRIC_REPRESENTATION_CONTEXT ( 3 ) GLOBAL_UNCERTAINTY_ASSIGNED_CONTEXT ( ( #285 ) ) GLOBAL_UNIT_ASSIGNED_CONTEXT ( ( #248, #107, #10 ) ) REPRESENTATION_CONTEXT ( 'NONE', 'WORKASPACE' ) );
#115 =( CONVERSION_BASED_UNIT ( 'INCH', #304 ) LENGTH_UNIT ( ) NAMED_UNIT ( #67 ) );
#116 = DIRECTION ( 'NONE',  ( -0.000000000000000000, -1.000000000000000000, -0.000000000000000000 ) ) ;
#117 = EDGE_CURVE ( 'NONE', #21, #149, #83, .T. ) ;
#118 = ORIENTED_EDGE ( 'NONE', *, *, #298, .F. ) ;
#119 = ORIENTED_EDGE ( 'NONE', *, *, #51, .T. ) ;
#120 = PRODUCT_DEFINITION_CONTEXT ( 'detailed design', #176, 'design' ) ;
#121 = VERTEX_POINT ( 'NONE', #206 ) ;
#122 = VECTOR ( 'NONE', #252, 39.37007874015748143 ) ;
#123 = EDGE_LOOP ( 'NONE', ( #152, #289, #44, #166 ) ) ;
#124 = CARTESIAN_POINT ( 'NONE',  ( 3.061616997868383141E-16, 2.500000000000000000, 0.000000000000000000 ) ) ;
#125 = FACE_OUTER_BOUND ( 'NONE', #195, .T. ) ;
#126 = ORIENTED_EDGE ( 'NONE', *, *, #79, .T. ) ;
#127 = DIRECTION ( 'NONE',  ( -1.000000000000000000, 0.000000000000000000, 0.000000000000000000 ) ) ;
#128 = CIRCLE ( 'NONE', #302, 0.2500000000000000000 ) ;
#129 = CYLINDRICAL_SURFACE ( 'NONE', #255, 0.2499999999999998612 ) ;
#130 = SURFACE_SIDE_STYLE ('',( #8 ) ) ;
#131 = DIRECTION ( 'NONE',  ( -1.000000000000000000, 0.000000000000000000, 0.000000000000000000 ) ) ;
#132 = CARTESIAN_POINT ( 'NONE',  ( 0.000000000000000000, 0.6250000000000000000, 0.000000000000000000 ) ) ;
#133 = FACE_OUTER_BOUND ( 'NONE', #263, .T. ) ;
#134 = CLOSED_SHELL ( 'NONE', ( #34, #100, #15, #251 ) ) ;
#135 = STYLED_ITEM ( 'NONE', ( #196 ), #201 ) ;
#136 = UNCERTAINTY_MEASURE_WITH_UNIT (LENGTH_MEASURE( 1.000000000000000082E-05 ), #33, 'distance_accuracy_value', 'NONE');
#137 =( NAMED_UNIT ( * ) SI_UNIT ( $, .STERADIAN. ) SOLID_ANGLE_UNIT ( ) );
#138 = FILL_AREA_STYLE_COLOUR ( '', #42 ) ;
#139 = DIRECTION ( 'NONE',  ( -0.000000000000000000, -1.000000000000000000, -0.000000000000000000 ) ) ;
#140 = MECHANICAL_DESIGN_GEOMETRIC_PRESENTATION_REPRESENTATION (  '', ( #169 ), #17 ) ;
#141 =( LENGTH_UNIT ( ) NAMED_UNIT ( * ) SI_UNIT ( $, .METRE. ) );
#142 = CARTESIAN_POINT ( 'NONE',  ( 0.000000000000000000, 0.000000000000000000, 0.000000000000000000 ) ) ;
#143 = VECTOR ( 'NONE', #116, 39.37007874015748143 ) ;
#144 = DIRECTION ( 'NONE',  ( 1.000000000000000000, 0.000000000000000000, 0.000000000000000000 ) ) ;
#145 = ORIENTED_EDGE ( 'NONE', *, *, #164, .T. ) ;
#146 = EDGE_LOOP ( 'NONE', ( #239, #98, #145, #219 ) ) ;
#147 = DIMENSIONAL_EXPONENTS ( 1.000000000000000000, 0.000000000000000000, 0.000000000000000000, 0.000000000000000000, 0.000000000000000000, 0.000000000000000000, 0.000000000000000000 ) ;
#148 = DIRECTION ( 'NONE',  ( -1.000000000000000000, 0.000000000000000000, 0.000000000000000000 ) ) ;
#149 = VERTEX_POINT ( 'NONE', #183 ) ;
#150 =( NAMED_UNIT ( * ) SI_UNIT ( $, .STERADIAN. ) SOLID_ANGLE_UNIT ( ) );
#151 = DIRECTION ( 'NONE',  ( -1.000000000000000000, 0.000000000000000000, 0.000000000000000000 ) ) ;
#152 = ORIENTED_EDGE ( 'NONE', *, *, #192, .F. ) ;
#153 = DIRECTION ( 'NONE',  ( 1.000000000000000000, -1.632862398863137527E-16, 0.000000000000000000 ) ) ;
#154 = FILL_AREA_STYLE_COLOUR ( '', #72 ) ;
#155 = AXIS2_PLACEMENT_3D ( 'NONE', #230, #28, #131 ) ;
#156 = FILL_AREA_STYLE_COLOUR ( '', #158 ) ;
#157 = FILL_AREA_STYLE ('',( #156 ) ) ;
#158 = COLOUR_RGB ( '',0.7921568627450980005, 0.8196078431372548767, 0.9333333333333333481 ) ;
#159 =( NAMED_UNIT ( * ) SI_UNIT ( $, .STERADIAN. ) SOLID_ANGLE_UNIT ( ) );
#160 = ADVANCED_FACE ( 'NONE', ( #208 ), #300, .T. ) ;
#161 = FILL_AREA_STYLE ('',( #188 ) ) ;
#162 = AXIS2_PLACEMENT_3D ( 'NONE', #22, #94, #247 ) ;
#163 = PRODUCT_DEFINITION_FORMATION_WITH_SPECIFIED_SOURCE ( 'ANY', '', #58, .NOT_KNOWN. ) ;
#164 = EDGE_CURVE ( 'NONE', #1, #171, #37, .T. ) ;
#165 = DIMENSIONAL_EXPONENTS ( 1.000000000000000000, 0.000000000000000000, 0.000000000000000000, 0.000000000000000000, 0.000000000000000000, 0.000000000000000000, 0.000000000000000000 ) ;
#166 = ORIENTED_EDGE ( 'NONE', *, *, #51, .F. ) ;
#167 = AXIS2_PLACEMENT_3D ( 'NONE', #124, #261, #151 ) ;
#168 = UNCERTAINTY_MEASURE_WITH_UNIT (LENGTH_MEASURE( 1.000000000000000082E-05 ), #61, 'distance_accuracy_value', 'NONE');
#169 = STYLED_ITEM ( 'NONE', ( #204 ), #240 ) ;
#170 =( GEOMETRIC_REPRESENTATION_CONTEXT ( 3 ) GLOBAL_UNCERTAINTY_ASSIGNED_CONTEXT ( ( #70 ) ) GLOBAL_UNIT_ASSIGNED_CONTEXT ( ( #63, #259, #91 ) ) REPRESENTATION_CONTEXT ( 'NONE', 'WORKASPACE' ) );
#171 = VERTEX_POINT ( 'NONE', #65 ) ;
#172 = UNCERTAINTY_MEASURE_WITH_UNIT (LENGTH_MEASURE( 1.000000000000000082E-05 ), #244, 'distance_accuracy_value', 'NONE');
#173 = LINE ( 'NONE', #295, #249 ) ;
#174 = CARTESIAN_POINT ( 'NONE',  ( 3.332799517026350012E-33, 0.6250000000000000000, 0.000000000000000000 ) ) ;
#175 = CARTESIAN_POINT ( 'NONE',  ( 0.000000000000000000, 0.000000000000000000, 0.000000000000000000 ) ) ;
#176 = APPLICATION_CONTEXT ( 'automotive_design' ) ;
#177 = PRODUCT_RELATED_PRODUCT_CATEGORY ( 'part', '', ( #58 ) ) ;
#178 = ORIENTED_EDGE ( 'NONE', *, *, #112, .F. ) ;
#179 = CARTESIAN_POINT ( 'NONE',  ( 0.000000000000000000, 0.000000000000000000, 0.000000000000000000 ) ) ;
#180 = DIRECTION ( 'NONE',  ( -0.000000000000000000, -1.000000000000000000, -0.000000000000000000 ) ) ;
#181 =( GEOMETRIC_REPRESENTATION_CONTEXT ( 3 ) GLOBAL_UNCERTAINTY_ASSIGNED_CONTEXT ( ( #136 ) ) GLOBAL_UNIT_ASSIGNED_CONTEXT ( ( #33, #36, #137 ) ) REPRESENTATION_CONTEXT ( 'NONE', 'WORKASPACE' ) );
#182 =( NAMED_UNIT ( * ) PLANE_ANGLE_UNIT ( ) SI_UNIT ( $, .RADIAN. ) );
#183 = CARTESIAN_POINT ( 'NONE',  ( 0.2500000000000000000, 2.500000000000000000, 3.061616997868382402E-17 ) ) ;
#184 = SURFACE_SIDE_STYLE ('',( #212 ) ) ;
#185 = MECHANICAL_DESIGN_GEOMETRIC_PRESENTATION_REPRESENTATION (  '', ( #135 ), #114 ) ;
#186 = DIRECTION ( 'NONE',  ( 1.632862398863137527E-16, 1.000000000000000000, -0.000000000000000000 ) ) ;
#187 = LINE ( 'NONE', #108, #122 ) ;
#188 = FILL_AREA_STYLE_COLOUR ( '', #220 ) ;
#189 = CARTESIAN_POINT ( 'NONE',  ( 0.000000000000000000, 0.000000000000000000, -0.2500000000000000000 ) ) ;
#190 = AXIS2_PLACEMENT_3D ( 'NONE', #299, #180, #275 ) ;
#191 =( NAMED_UNIT ( * ) SI_UNIT ( $, .STERADIAN. ) SOLID_ANGLE_UNIT ( ) );
#192 = EDGE_CURVE ( 'NONE', #54, #149, #96, .T. ) ;
#193 = DIRECTION ( 'NONE',  ( 0.000000000000000000, 0.000000000000000000, 1.000000000000000000 ) ) ;
#194 = AXIS2_PLACEMENT_3D ( 'NONE', #132, #90, #111 ) ;
#195 = EDGE_LOOP ( 'NONE', ( #84, #52 ) ) ;
#196 = PRESENTATION_STYLE_ASSIGNMENT (( #43 ) ) ;
#197 = LENGTH_MEASURE_WITH_UNIT ( LENGTH_MEASURE( 0.02539999999999999897 ), #75 );
#198 = DIRECTION ( 'NONE',  ( -1.000000000000000000, 0.000000000000000000, 0.000000000000000000 ) ) ;
#199 = LENGTH_MEASURE_WITH_UNIT ( LENGTH_MEASURE( 0.02539999999999999897 ), #274 );
#200 = SURFACE_SIDE_STYLE ('',( #266 ) ) ;
#201 = ADVANCED_FACE ( 'NONE', ( #283 ), #64, .T. ) ;
#202 = CARTESIAN_POINT ( 'NONE',  ( -0.2500000000000000000, 0.6250000000000000000, 0.000000000000000000 ) ) ;
#203 = STYLED_ITEM ( 'NONE', ( #29 ), #288 ) ;
#204 = PRESENTATION_STYLE_ASSIGNMENT (( #253 ) ) ;
#205 = DIRECTION ( 'NONE',  ( -1.000000000000000000, 0.000000000000000000, 0.000000000000000000 ) ) ;
#206 = CARTESIAN_POINT ( 'NONE',  ( 3.061616997868383018E-17, 0.000000000000000000, 0.2500000000000000000 ) ) ;
#207 =( GEOMETRIC_REPRESENTATION_CONTEXT ( 3 ) GLOBAL_UNCERTAINTY_ASSIGNED_CONTEXT ( ( #254 ) ) GLOBAL_UNIT_ASSIGNED_CONTEXT ( ( #224, #272, #150 ) ) REPRESENTATION_CONTEXT ( 'NONE', 'WORKASPACE' ) );
#208 = FACE_OUTER_BOUND ( 'NONE', #146, .T. ) ;
#209 = UNCERTAINTY_MEASURE_WITH_UNIT (LENGTH_MEASURE( 1.000000000000000082E-05 ), #115, 'distance_accuracy_value', 'NONE');
#210 = CIRCLE ( 'NONE', #190, 0.2500000000000000000 ) ;
#211 = FILL_AREA_STYLE ('',( #138 ) ) ;
#212 = SURFACE_STYLE_FILL_AREA ( #161 ) ;
#213 = DIRECTION ( 'NONE',  ( 0.000000000000000000, 0.000000000000000000, -1.000000000000000000 ) ) ;
#214 =( LENGTH_UNIT ( ) NAMED_UNIT ( * ) SI_UNIT ( $, .METRE. ) );
#215 = MECHANICAL_DESIGN_GEOMETRIC_PRESENTATION_REPRESENTATION (  '', ( #293 ), #104 ) ;
#216 = AXIS2_PLACEMENT_3D ( 'NONE', #179, #30, #106 ) ;
#217 = ORIENTED_EDGE ( 'NONE', *, *, #276, .F. ) ;
#218 = EDGE_LOOP ( 'NONE', ( #292, #246, #18, #178 ) ) ;
#219 = ORIENTED_EDGE ( 'NONE', *, *, #11, .F. ) ;
#220 = COLOUR_RGB ( '',0.7921568627450980005, 0.8196078431372548767, 0.9333333333333333481 ) ;
#221 = SURFACE_STYLE_FILL_AREA ( #2 ) ;
#222 = ADVANCED_BREP_SHAPE_REPRESENTATION ( '01437', ( #297, #288, #233 ), #170 ) ;
#223 = CARTESIAN_POINT ( 'NONE',  ( 0.2500000000000000000, 0.6250000000000000000, 3.061616997868382402E-17 ) ) ;
#224 =( CONVERSION_BASED_UNIT ( 'INCH', #197 ) LENGTH_UNIT ( ) NAMED_UNIT ( #165 ) );
#225 = DIRECTION ( 'NONE',  ( 0.000000000000000000, -1.000000000000000000, -0.000000000000000000 ) ) ;
#226 = CARTESIAN_POINT ( 'NONE',  ( 0.000000000000000000, 0.000000000000000000, 0.000000000000000000 ) ) ;
#227 = AXIS2_PLACEMENT_3D ( 'NONE', #305, #241, #198 ) ;
#228 = CARTESIAN_POINT ( 'NONE',  ( 0.000000000000000000, 0.6250000000000000000, -0.2500000000000000000 ) ) ;
#229 = LENGTH_MEASURE_WITH_UNIT ( LENGTH_MEASURE( 0.02539999999999999897 ), #46 );
#230 = CARTESIAN_POINT ( 'NONE',  ( 3.061616997868383141E-16, 2.500000000000000000, 0.000000000000000000 ) ) ;
#231 = SURFACE_STYLE_FILL_AREA ( #250 ) ;
#232 = CIRCLE ( 'NONE', #257, 0.2500000000000000000 ) ;
#233 = AXIS2_PLACEMENT_3D ( 'NONE', #238, #193, #144 ) ;
#234 = FILL_AREA_STYLE_COLOUR ( '', #93 ) ;
#235 = DIRECTION ( 'NONE',  ( 0.000000000000000000, 0.000000000000000000, -1.000000000000000000 ) ) ;
#236 = PRODUCT_DEFINITION ( 'UNKNOWN', '', #163, #120 ) ;
#237 = STYLED_ITEM ( 'NONE', ( #68 ), #160 ) ;
#238 = CARTESIAN_POINT ( 'NONE',  ( 0.000000000000000000, 0.000000000000000000, 0.000000000000000000 ) ) ;
#239 = ORIENTED_EDGE ( 'NONE', *, *, #79, .F. ) ;
#240 = ADVANCED_FACE ( 'NONE', ( #85 ), #5, .T. ) ;
#241 = DIRECTION ( 'NONE',  ( 1.632862398863137527E-16, 1.000000000000000000, -0.000000000000000000 ) ) ;
#242 = EDGE_LOOP ( 'NONE', ( #48, #271 ) ) ;
#243 = COLOUR_RGB ( '',1.000000000000000000, 0.000000000000000000, 0.000000000000000000 ) ;
#244 =( CONVERSION_BASED_UNIT ( 'INCH', #199 ) LENGTH_UNIT ( ) NAMED_UNIT ( #147 ) );
#245 = DIRECTION ( 'NONE',  ( 1.632862398863137527E-16, 1.000000000000000000, -0.000000000000000000 ) ) ;
#246 = ORIENTED_EDGE ( 'NONE', *, *, #192, .T. ) ;
#247 = DIRECTION ( 'NONE',  ( 0.000000000000000000, 0.000000000000000000, -1.000000000000000000 ) ) ;
#248 =( CONVERSION_BASED_UNIT ( 'INCH', #229 ) LENGTH_UNIT ( ) NAMED_UNIT ( #39 ) );
#249 = VECTOR ( 'NONE', #4, 39.37007874015748143 ) ;
#250 = FILL_AREA_STYLE ('',( #87 ) ) ;
#251 = ADVANCED_FACE ( 'NONE', ( #133 ), #296, .F. ) ;
#252 = DIRECTION ( 'NONE',  ( 1.632862398863137527E-16, 1.000000000000000000, -0.000000000000000000 ) ) ;
#253 = SURFACE_STYLE_USAGE ( .BOTH. , #88 ) ;
#254 = UNCERTAINTY_MEASURE_WITH_UNIT (LENGTH_MEASURE( 1.000000000000000082E-05 ), #224, 'distance_accuracy_value', 'NONE');
#255 = AXIS2_PLACEMENT_3D ( 'NONE', #7, #6, #127 ) ;
#256 = EDGE_CURVE ( 'NONE', #97, #54, #128, .T. ) ;
#257 = AXIS2_PLACEMENT_3D ( 'NONE', #142, #40, #235 ) ;
#258 = LENGTH_MEASURE_WITH_UNIT ( LENGTH_MEASURE( 0.02539999999999999897 ), #279 );
#259 =( NAMED_UNIT ( * ) PLANE_ANGLE_UNIT ( ) SI_UNIT ( $, .RADIAN. ) );
#260 = MECHANICAL_DESIGN_GEOMETRIC_PRESENTATION_REPRESENTATION (  '', ( #89 ), #49 ) ;
#261 = DIRECTION ( 'NONE',  ( 1.632862398863137527E-16, 1.000000000000000000, -0.000000000000000000 ) ) ;
#262 = PRODUCT_CONTEXT ( 'NONE', #267, 'mechanical' ) ;
#263 = EDGE_LOOP ( 'NONE', ( #23, #119 ) ) ;
#264 = AXIS2_PLACEMENT_3D ( 'NONE', #273, #55, #153 ) ;
#265 = APPLICATION_PROTOCOL_DEFINITION ( 'draft international standard', 'automotive_design', 1998, #176 ) ;
#266 = SURFACE_STYLE_FILL_AREA ( #211 ) ;
#267 = APPLICATION_CONTEXT ( 'automotive_design' ) ;
#268 = FACE_OUTER_BOUND ( 'NONE', #242, .T. ) ;
#269 = SHAPE_DEFINITION_REPRESENTATION ( #32, #222 ) ;
#270 = FACE_OUTER_BOUND ( 'NONE', #218, .T. ) ;
#271 = ORIENTED_EDGE ( 'NONE', *, *, #53, .F. ) ;
#272 =( NAMED_UNIT ( * ) PLANE_ANGLE_UNIT ( ) SI_UNIT ( $, .RADIAN. ) );
#273 = CARTESIAN_POINT ( 'NONE',  ( 0.2500000000000000000, 2.500000000000000000, 0.000000000000000000 ) ) ;
#274 =( LENGTH_UNIT ( ) NAMED_UNIT ( * ) SI_UNIT ( $, .METRE. ) );
#275 = DIRECTION ( 'NONE',  ( 0.000000000000000000, 0.000000000000000000, -1.000000000000000000 ) ) ;
#276 = EDGE_CURVE ( 'NONE', #1, #78, #210, .T. ) ;
#277 = PRESENTATION_LAYER_ASSIGNMENT (  '', '', ( #203 ) ) ;
#278 =( NAMED_UNIT ( * ) SI_UNIT ( $, .STERADIAN. ) SOLID_ANGLE_UNIT ( ) );
#279 =( LENGTH_UNIT ( ) NAMED_UNIT ( * ) SI_UNIT ( $, .METRE. ) );
#280 = AXIS2_PLACEMENT_3D ( 'NONE', #291, #225, #213 ) ;
#281 = PRESENTATION_LAYER_ASSIGNMENT (  '', '', ( #89 ) ) ;
#282 = PRESENTATION_STYLE_ASSIGNMENT (( #95 ) ) ;
#283 = FACE_OUTER_BOUND ( 'NONE', #101, .T. ) ;
#284 =( NAMED_UNIT ( * ) PLANE_ANGLE_UNIT ( ) SI_UNIT ( $, .RADIAN. ) );
#285 = UNCERTAINTY_MEASURE_WITH_UNIT (LENGTH_MEASURE( 1.000000000000000082E-05 ), #248, 'distance_accuracy_value', 'NONE');
#286 = FILL_AREA_STYLE ('',( #234 ) ) ;
#287 = ORIENTED_EDGE ( 'NONE', *, *, #164, .F. ) ;
#288 = MANIFOLD_SOLID_BREP ( 'Revolve - Tool Body (Straight Shanked)', #134 ) ;
#289 = ORIENTED_EDGE ( 'NONE', *, *, #53, .T. ) ;
#290 = CARTESIAN_POINT ( 'NONE',  ( 0.000000000000000000, 0.6250000000000000000, 0.000000000000000000 ) ) ;
#291 = CARTESIAN_POINT ( 'NONE',  ( 0.000000000000000000, 0.000000000000000000, 0.000000000000000000 ) ) ;
#292 = ORIENTED_EDGE ( 'NONE', *, *, #256, .T. ) ;
#293 = STYLED_ITEM ( 'NONE', ( #56 ), #19 ) ;
#294 = MECHANICAL_DESIGN_GEOMETRIC_PRESENTATION_REPRESENTATION (  '', ( #237 ), #207 ) ;
#295 = CARTESIAN_POINT ( 'NONE',  ( 3.061616997868383018E-17, 0.000000000000000000, 0.2500000000000000000 ) ) ;
#296 = PLANE ( 'NONE',  #264 ) ;
#297 = MANIFOLD_SOLID_BREP ( 'Revolve - Cutting Edge', #81 ) ;
#298 = EDGE_CURVE ( 'NONE', #171, #121, #232, .T. ) ;
#299 = CARTESIAN_POINT ( 'NONE',  ( 0.000000000000000000, 0.6250000000000000000, 0.000000000000000000 ) ) ;
#300 = CYLINDRICAL_SURFACE ( 'NONE', #105, 0.2500000000000000000 ) ;
#301 = DIMENSIONAL_EXPONENTS ( 1.000000000000000000, 0.000000000000000000, 0.000000000000000000, 0.000000000000000000, 0.000000000000000000, 0.000000000000000000, 0.000000000000000000 ) ;
#302 = AXIS2_PLACEMENT_3D ( 'NONE', #27, #59, #205 ) ;
#303 = DIMENSIONAL_EXPONENTS ( 1.000000000000000000, 0.000000000000000000, 0.000000000000000000, 0.000000000000000000, 0.000000000000000000, 0.000000000000000000, 0.000000000000000000 ) ;
#304 = LENGTH_MEASURE_WITH_UNIT ( LENGTH_MEASURE( 0.02539999999999999897 ), #307 );
#305 = CARTESIAN_POINT ( 'NONE',  ( 3.061616997868383141E-16, 2.500000000000000000, 0.000000000000000000 ) ) ;
#306 = AXIS2_PLACEMENT_3D ( 'NONE', #175, #60, #74 ) ;
#307 =( LENGTH_UNIT ( ) NAMED_UNIT ( * ) SI_UNIT ( $, .METRE. ) );
#308 = PRESENTATION_LAYER_ASSIGNMENT (  '', '', ( #135 ) ) ;
#309 = SURFACE_SIDE_STYLE ('',( #14 ) ) ;
ENDSEC;
END-ISO-10303-21;
