ISO-10303-21;
HEADER;
FILE_DESCRIPTION (( 'STEP AP214' ),
    '1' );
FILE_NAME ('59751.STEP',
    '2023-07-24T15:56:07',
    ( '' ),
    ( '' ),
    'SwSTEP 2.0',
    'SolidWorks 2023',
    '' );
FILE_SCHEMA (( 'AUTOMOTIVE_DESIGN' ));
ENDSEC;

DATA;
#1 = PRESENTATION_STYLE_ASSIGNMENT (( #171 ) ) ;
#2 = DIRECTION ( 'NONE',  ( -3.007904418958410489E-17, 1.000000000000000000, -0.000000000000000000 ) ) ;
#3 = ORIENTED_EDGE ( 'NONE', *, *, #29, .T. ) ;
#4 = PLANE ( 'NONE',  #157 ) ;
#5 =( NAMED_UNIT ( * ) SI_UNIT ( $, .STERADIAN. ) SOLID_ANGLE_UNIT ( ) );
#6 = CARTESIAN_POINT ( 'NONE',  ( 8.000000000000000000, 89.00000000000000000, 0.000000000000000000 ) ) ;
#7 = FACE_OUTER_BOUND ( 'NONE', #16, .T. ) ;
#8 =( NAMED_UNIT ( * ) SI_UNIT ( $, .STERADIAN. ) SOLID_ANGLE_UNIT ( ) );
#9 = CARTESIAN_POINT ( 'NONE',  ( 0.000000000000000000, 32.00000000000000000, 0.000000000000000000 ) ) ;
#10 = ADVANCED_BREP_SHAPE_REPRESENTATION ( '59751', ( #69, #76, #282 ), #80 ) ;
#11 = PRESENTATION_LAYER_ASSIGNMENT (  '', '', ( #136 ) ) ;
#12 = EDGE_CURVE ( 'NONE', #174, #115, #202, .T. ) ;
#13 = DIRECTION ( 'NONE',  ( -3.007904418958410489E-17, 1.000000000000000000, -0.000000000000000000 ) ) ;
#14 = ORIENTED_EDGE ( 'NONE', *, *, #284, .T. ) ;
#15 = DIRECTION ( 'NONE',  ( -1.000000000000000000, 0.000000000000000000, 0.000000000000000000 ) ) ;
#16 = EDGE_LOOP ( 'NONE', ( #91, #216 ) ) ;
#17 = UNCERTAINTY_MEASURE_WITH_UNIT (LENGTH_MEASURE( 1.000000000000000082E-05 ), #255, 'distance_accuracy_value', 'NONE');
#18 = DIRECTION ( 'NONE',  ( 1.000000000000000000, 3.007904418958410489E-17, 0.000000000000000000 ) ) ;
#19 = ORIENTED_EDGE ( 'NONE', *, *, #12, .F. ) ;
#20 = PRESENTATION_STYLE_ASSIGNMENT (( #24 ) ) ;
#21 = ADVANCED_FACE ( 'NONE', ( #213 ), #207, .T. ) ;
#22 = CARTESIAN_POINT ( 'NONE',  ( 0.000000000000000000, 0.000000000000000000, 0.000000000000000000 ) ) ;
#23 = ORIENTED_EDGE ( 'NONE', *, *, #113, .T. ) ;
#24 = SURFACE_STYLE_USAGE ( .BOTH. , #193 ) ;
#25 = PLANE ( 'NONE',  #30 ) ;
#26 = CARTESIAN_POINT ( 'NONE',  ( 0.000000000000000000, 32.00000000000000000, 0.000000000000000000 ) ) ;
#27 =( NAMED_UNIT ( * ) SI_UNIT ( $, .STERADIAN. ) SOLID_ANGLE_UNIT ( ) );
#28 = SURFACE_STYLE_FILL_AREA ( #227 ) ;
#29 = EDGE_CURVE ( 'NONE', #60, #265, #192, .T. ) ;
#30 = AXIS2_PLACEMENT_3D ( 'NONE', #6, #44, #18 ) ;
#31 = MECHANICAL_DESIGN_GEOMETRIC_PRESENTATION_REPRESENTATION (  '', ( #136 ), #87 ) ;
#32 = CARTESIAN_POINT ( 'NONE',  ( 9.797174393178825657E-16, 0.000000000000000000, 8.000000000000000000 ) ) ;
#33 = SURFACE_SIDE_STYLE ('',( #103 ) ) ;
#34 = ORIENTED_EDGE ( 'NONE', *, *, #284, .F. ) ;
#35 =( GEOMETRIC_REPRESENTATION_CONTEXT ( 3 ) GLOBAL_UNCERTAINTY_ASSIGNED_CONTEXT ( ( #17 ) ) GLOBAL_UNIT_ASSIGNED_CONTEXT ( ( #255, #169, #175 ) ) REPRESENTATION_CONTEXT ( 'NONE', 'WORKASPACE' ) );
#36 = CARTESIAN_POINT ( 'NONE',  ( 0.000000000000000000, 0.000000000000000000, -8.000000000000000000 ) ) ;
#37 = ORIENTED_EDGE ( 'NONE', *, *, #231, .F. ) ;
#38 = EDGE_CURVE ( 'NONE', #283, #174, #233, .T. ) ;
#39 = DIRECTION ( 'NONE',  ( -0.000000000000000000, -1.000000000000000000, -0.000000000000000000 ) ) ;
#40 = FILL_AREA_STYLE ('',( #263 ) ) ;
#41 = SURFACE_STYLE_FILL_AREA ( #68 ) ;
#42 = AXIS2_PLACEMENT_3D ( 'NONE', #232, #13, #187 ) ;
#43 = FACE_OUTER_BOUND ( 'NONE', #111, .T. ) ;
#44 = DIRECTION ( 'NONE',  ( 3.007904418958410489E-17, -1.000000000000000000, 0.000000000000000000 ) ) ;
#45 = APPLICATION_PROTOCOL_DEFINITION ( 'draft international standard', 'automotive_design', 1998, #266 ) ;
#46 = DIRECTION ( 'NONE',  ( 0.000000000000000000, 0.000000000000000000, -1.000000000000000000 ) ) ;
#47 = VECTOR ( 'NONE', #179, 1000.000000000000000 ) ;
#48 = EDGE_CURVE ( 'NONE', #265, #197, #206, .T. ) ;
#49 = ADVANCED_FACE ( 'NONE', ( #155 ), #242, .T. ) ;
#50 = DIRECTION ( 'NONE',  ( -0.000000000000000000, -1.000000000000000000, -0.000000000000000000 ) ) ;
#51 =( LENGTH_UNIT ( ) NAMED_UNIT ( * ) SI_UNIT ( .MILLI., .METRE. ) );
#52 = CIRCLE ( 'NONE', #264, 8.000000000000000000 ) ;
#53 = ORIENTED_EDGE ( 'NONE', *, *, #84, .F. ) ;
#54 = ORIENTED_EDGE ( 'NONE', *, *, #79, .T. ) ;
#55 = UNCERTAINTY_MEASURE_WITH_UNIT (LENGTH_MEASURE( 1.000000000000000082E-05 ), #196, 'distance_accuracy_value', 'NONE');
#56 = FILL_AREA_STYLE_COLOUR ( '', #67 ) ;
#57 = CARTESIAN_POINT ( 'NONE',  ( 7.999999999999998224, 89.00000000000000000, 9.797174393178825657E-16 ) ) ;
#58 = EDGE_CURVE ( 'NONE', #121, #283, #74, .T. ) ;
#59 = FILL_AREA_STYLE_COLOUR ( '', #195 ) ;
#60 = VERTEX_POINT ( 'NONE', #276 ) ;
#61 = DIRECTION ( 'NONE',  ( -1.000000000000000000, 0.000000000000000000, 0.000000000000000000 ) ) ;
#62 = SURFACE_STYLE_FILL_AREA ( #40 ) ;
#63 = DIRECTION ( 'NONE',  ( -0.000000000000000000, -1.000000000000000000, -0.000000000000000000 ) ) ;
#64 = CARTESIAN_POINT ( 'NONE',  ( 9.797174393178825657E-16, 0.000000000000000000, 8.000000000000000000 ) ) ;
#65 = DIRECTION ( 'NONE',  ( 0.000000000000000000, 0.000000000000000000, -1.000000000000000000 ) ) ;
#66 = CARTESIAN_POINT ( 'NONE',  ( -8.000000000000000000, 32.00000000000000000, 0.000000000000000000 ) ) ;
#67 = COLOUR_RGB ( '',1.000000000000000000, 0.000000000000000000, 0.000000000000000000 ) ;
#68 = FILL_AREA_STYLE ('',( #59 ) ) ;
#69 = MANIFOLD_SOLID_BREP ( 'Revolve - Cutting Edge', #281 ) ;
#70 = STYLED_ITEM ( 'NONE', ( #273 ), #69 ) ;
#71 = ADVANCED_FACE ( 'NONE', ( #224 ), #25, .F. ) ;
#72 = DIRECTION ( 'NONE',  ( 0.000000000000000000, 0.000000000000000000, 1.000000000000000000 ) ) ;
#73 = PRODUCT ( '59751', '59751', '', ( #254 ) ) ;
#74 = CIRCLE ( 'NONE', #135, 8.000000000000000000 ) ;
#75 = ORIENTED_EDGE ( 'NONE', *, *, #79, .F. ) ;
#76 = MANIFOLD_SOLID_BREP ( 'Revolve - Tool Body (Straight Shanked)', #188 ) ;
#77 = FILL_AREA_STYLE_COLOUR ( '', #164 ) ;
#78 = ORIENTED_EDGE ( 'NONE', *, *, #48, .T. ) ;
#79 = EDGE_CURVE ( 'NONE', #283, #121, #211, .T. ) ;
#80 =( GEOMETRIC_REPRESENTATION_CONTEXT ( 3 ) GLOBAL_UNCERTAINTY_ASSIGNED_CONTEXT ( ( #92 ) ) GLOBAL_UNIT_ASSIGNED_CONTEXT ( ( #124, #215, #8 ) ) REPRESENTATION_CONTEXT ( 'NONE', 'WORKASPACE' ) );
#81 = VERTEX_POINT ( 'NONE', #66 ) ;
#82 = FACE_OUTER_BOUND ( 'NONE', #236, .T. ) ;
#83 = ORIENTED_EDGE ( 'NONE', *, *, #107, .T. ) ;
#84 = EDGE_CURVE ( 'NONE', #115, #174, #52, .T. ) ;
#85 = FILL_AREA_STYLE ('',( #56 ) ) ;
#86 = AXIS2_PLACEMENT_3D ( 'NONE', #123, #125, #200 ) ;
#87 =( GEOMETRIC_REPRESENTATION_CONTEXT ( 3 ) GLOBAL_UNCERTAINTY_ASSIGNED_CONTEXT ( ( #217 ) ) GLOBAL_UNIT_ASSIGNED_CONTEXT ( ( #51, #102, #208 ) ) REPRESENTATION_CONTEXT ( 'NONE', 'WORKASPACE' ) );
#88 = DIRECTION ( 'NONE',  ( -1.000000000000000000, 0.000000000000000000, 0.000000000000000000 ) ) ;
#89 = ORIENTED_EDGE ( 'NONE', *, *, #29, .F. ) ;
#90 = DIRECTION ( 'NONE',  ( -0.000000000000000000, -1.000000000000000000, -0.000000000000000000 ) ) ;
#91 = ORIENTED_EDGE ( 'NONE', *, *, #84, .T. ) ;
#92 = UNCERTAINTY_MEASURE_WITH_UNIT (LENGTH_MEASURE( 1.000000000000000082E-05 ), #124, 'distance_accuracy_value', 'NONE');
#93 = LINE ( 'NONE', #237, #47 ) ;
#94 = CARTESIAN_POINT ( 'NONE',  ( -1.714505518806293849E-15, 89.00000000000000000, 0.000000000000000000 ) ) ;
#95 =( LENGTH_UNIT ( ) NAMED_UNIT ( * ) SI_UNIT ( .MILLI., .METRE. ) );
#96 = SURFACE_STYLE_USAGE ( .BOTH. , #152 ) ;
#97 = COLOUR_RGB ( '',1.000000000000000000, 0.000000000000000000, 0.000000000000000000 ) ;
#98 = APPLICATION_PROTOCOL_DEFINITION ( 'draft international standard', 'automotive_design', 1998, #286 ) ;
#99 = VECTOR ( 'NONE', #151, 1000.000000000000000 ) ;
#100 = MECHANICAL_DESIGN_GEOMETRIC_PRESENTATION_REPRESENTATION (  '', ( #261 ), #189 ) ;
#101 = CARTESIAN_POINT ( 'NONE',  ( 0.000000000000000000, 32.00000000000000000, 0.000000000000000000 ) ) ;
#102 =( NAMED_UNIT ( * ) PLANE_ANGLE_UNIT ( ) SI_UNIT ( $, .RADIAN. ) );
#103 = SURFACE_STYLE_FILL_AREA ( #185 ) ;
#104 = AXIS2_PLACEMENT_3D ( 'NONE', #114, #138, #15 ) ;
#105 = MECHANICAL_DESIGN_GEOMETRIC_PRESENTATION_REPRESENTATION (  '', ( #230 ), #35 ) ;
#106 = PRESENTATION_STYLE_ASSIGNMENT (( #132 ) ) ;
#107 = EDGE_CURVE ( 'NONE', #121, #115, #248, .T. ) ;
#108 = SURFACE_SIDE_STYLE ('',( #28 ) ) ;
#109 = ORIENTED_EDGE ( 'NONE', *, *, #58, .T. ) ;
#110 = AXIS2_PLACEMENT_3D ( 'NONE', #194, #140, #220 ) ;
#111 = EDGE_LOOP ( 'NONE', ( #239, #37 ) ) ;
#112 = CARTESIAN_POINT ( 'NONE',  ( 0.000000000000000000, 32.00000000000000000, -8.000000000000000000 ) ) ;
#113 = EDGE_CURVE ( 'NONE', #81, #60, #260, .T. ) ;
#114 = CARTESIAN_POINT ( 'NONE',  ( -1.714505518806293849E-15, 89.00000000000000000, 0.000000000000000000 ) ) ;
#115 = VERTEX_POINT ( 'NONE', #36 ) ;
#116 = DIRECTION ( 'NONE',  ( -3.007904418958410489E-17, 1.000000000000000000, -0.000000000000000000 ) ) ;
#117 = PRODUCT_DEFINITION_CONTEXT ( 'detailed design', #286, 'design' ) ;
#118 = PRESENTATION_LAYER_ASSIGNMENT (  '', '', ( #70 ) ) ;
#119 = STYLED_ITEM ( 'NONE', ( #20 ), #259 ) ;
#120 =( NAMED_UNIT ( * ) PLANE_ANGLE_UNIT ( ) SI_UNIT ( $, .RADIAN. ) );
#121 = VERTEX_POINT ( 'NONE', #112 ) ;
#122 = CARTESIAN_POINT ( 'NONE',  ( 3.618995597435813748E-33, 32.00000000000000000, 0.000000000000000000 ) ) ;
#123 = CARTESIAN_POINT ( 'NONE',  ( -1.714505518806293849E-15, 89.00000000000000000, 0.000000000000000000 ) ) ;
#124 =( LENGTH_UNIT ( ) NAMED_UNIT ( * ) SI_UNIT ( .MILLI., .METRE. ) );
#125 = DIRECTION ( 'NONE',  ( -3.007904418958410489E-17, 1.000000000000000000, -0.000000000000000000 ) ) ;
#126 = CARTESIAN_POINT ( 'NONE',  ( 9.797174393178825657E-16, 32.00000000000000000, 8.000000000000000000 ) ) ;
#127 = COLOUR_RGB ( '',0.7921568627450980005, 0.8196078431372548767, 0.9333333333333333481 ) ;
#128 =( GEOMETRIC_REPRESENTATION_CONTEXT ( 3 ) GLOBAL_UNCERTAINTY_ASSIGNED_CONTEXT ( ( #133 ) ) GLOBAL_UNIT_ASSIGNED_CONTEXT ( ( #247, #172, #5 ) ) REPRESENTATION_CONTEXT ( 'NONE', 'WORKASPACE' ) );
#129 = UNCERTAINTY_MEASURE_WITH_UNIT (LENGTH_MEASURE( 1.000000000000000082E-05 ), #144, 'distance_accuracy_value', 'NONE');
#130 = AXIS2_PLACEMENT_3D ( 'NONE', #167, #205, #258 ) ;
#131 = EDGE_CURVE ( 'NONE', #197, #265, #181, .T. ) ;
#132 = SURFACE_STYLE_USAGE ( .BOTH. , #108 ) ;
#133 = UNCERTAINTY_MEASURE_WITH_UNIT (LENGTH_MEASURE( 1.000000000000000082E-05 ), #247, 'distance_accuracy_value', 'NONE');
#134 = ORIENTED_EDGE ( 'NONE', *, *, #231, .T. ) ;
#135 = AXIS2_PLACEMENT_3D ( 'NONE', #9, #39, #46 ) ;
#136 = STYLED_ITEM ( 'NONE', ( #106 ), #204 ) ;
#137 = CARTESIAN_POINT ( 'NONE',  ( 8.000000000000000000, 89.00000000000000000, 9.797174393178825657E-16 ) ) ;
#138 = DIRECTION ( 'NONE',  ( -3.007904418958410489E-17, 1.000000000000000000, -0.000000000000000000 ) ) ;
#139 = DIRECTION ( 'NONE',  ( 0.000000000000000000, 1.000000000000000000, 0.000000000000000000 ) ) ;
#140 = DIRECTION ( 'NONE',  ( -0.000000000000000000, -1.000000000000000000, -0.000000000000000000 ) ) ;
#141 = AXIS2_PLACEMENT_3D ( 'NONE', #26, #139, #219 ) ;
#142 =( NAMED_UNIT ( * ) SI_UNIT ( $, .STERADIAN. ) SOLID_ANGLE_UNIT ( ) );
#143 = DIRECTION ( 'NONE',  ( -1.000000000000000000, -3.007904418958410489E-17, 0.000000000000000000 ) ) ;
#144 =( LENGTH_UNIT ( ) NAMED_UNIT ( * ) SI_UNIT ( .MILLI., .METRE. ) );
#145 =( NAMED_UNIT ( * ) PLANE_ANGLE_UNIT ( ) SI_UNIT ( $, .RADIAN. ) );
#146 = AXIS2_PLACEMENT_3D ( 'NONE', #94, #2, #88 ) ;
#147 = AXIS2_PLACEMENT_3D ( 'NONE', #238, #50, #235 ) ;
#148 = STYLED_ITEM ( 'NONE', ( #275 ), #76 ) ;
#149 = PRODUCT_DEFINITION_FORMATION_WITH_SPECIFIED_SOURCE ( 'ANY', '', #73, .NOT_KNOWN. ) ;
#150 = EDGE_LOOP ( 'NONE', ( #109, #262, #53, #280 ) ) ;
#151 = DIRECTION ( 'NONE',  ( -3.007904418958410489E-17, 1.000000000000000000, -0.000000000000000000 ) ) ;
#152 = SURFACE_SIDE_STYLE ('',( #173 ) ) ;
#153 = ORIENTED_EDGE ( 'NONE', *, *, #58, .F. ) ;
#154 = SURFACE_STYLE_FILL_AREA ( #85 ) ;
#155 = FACE_OUTER_BOUND ( 'NONE', #177, .T. ) ;
#156 = CARTESIAN_POINT ( 'NONE',  ( -8.000000000000003553, 89.00000000000000000, 0.000000000000000000 ) ) ;
#157 = AXIS2_PLACEMENT_3D ( 'NONE', #178, #158, #270 ) ;
#158 = DIRECTION ( 'NONE',  ( 0.000000000000000000, -1.000000000000000000, -0.000000000000000000 ) ) ;
#159 = FACE_OUTER_BOUND ( 'NONE', #214, .T. ) ;
#160 = ADVANCED_FACE ( 'NONE', ( #7 ), #4, .T. ) ;
#161 = CARTESIAN_POINT ( 'NONE',  ( 0.000000000000000000, 0.000000000000000000, 0.000000000000000000 ) ) ;
#162 = CYLINDRICAL_SURFACE ( 'NONE', #130, 8.000000000000000000 ) ;
#163 =( GEOMETRIC_REPRESENTATION_CONTEXT ( 3 ) GLOBAL_UNCERTAINTY_ASSIGNED_CONTEXT ( ( #55 ) ) GLOBAL_UNIT_ASSIGNED_CONTEXT ( ( #196, #145, #27 ) ) REPRESENTATION_CONTEXT ( 'NONE', 'WORKASPACE' ) );
#164 = COLOUR_RGB ( '',1.000000000000000000, 0.000000000000000000, 0.000000000000000000 ) ;
#165 = DIRECTION ( 'NONE',  ( 1.000000000000000000, 0.000000000000000000, 0.000000000000000000 ) ) ;
#166 = PRESENTATION_LAYER_ASSIGNMENT (  '', '', ( #230 ) ) ;
#167 = CARTESIAN_POINT ( 'NONE',  ( 0.000000000000000000, 0.000000000000000000, 0.000000000000000000 ) ) ;
#168 = EDGE_LOOP ( 'NONE', ( #23, #3, #212, #34 ) ) ;
#169 =( NAMED_UNIT ( * ) PLANE_ANGLE_UNIT ( ) SI_UNIT ( $, .RADIAN. ) );
#170 = ORIENTED_EDGE ( 'NONE', *, *, #38, .F. ) ;
#171 = SURFACE_STYLE_USAGE ( .BOTH. , #218 ) ;
#172 =( NAMED_UNIT ( * ) PLANE_ANGLE_UNIT ( ) SI_UNIT ( $, .RADIAN. ) );
#173 = SURFACE_STYLE_FILL_AREA ( #180 ) ;
#174 = VERTEX_POINT ( 'NONE', #64 ) ;
#175 =( NAMED_UNIT ( * ) SI_UNIT ( $, .STERADIAN. ) SOLID_ANGLE_UNIT ( ) );
#176 = DIRECTION ( 'NONE',  ( 0.000000000000000000, 0.000000000000000000, -1.000000000000000000 ) ) ;
#177 = EDGE_LOOP ( 'NONE', ( #89, #134, #14, #190 ) ) ;
#178 = CARTESIAN_POINT ( 'NONE',  ( 0.000000000000000000, 0.000000000000000000, 0.000000000000000000 ) ) ;
#179 = DIRECTION ( 'NONE',  ( -3.007904418958410489E-17, 1.000000000000000000, -0.000000000000000000 ) ) ;
#180 = FILL_AREA_STYLE ('',( #199 ) ) ;
#181 = CIRCLE ( 'NONE', #246, 8.000000000000001776 ) ;
#182 = CIRCLE ( 'NONE', #42, 8.000000000000000000 ) ;
#183 = PRODUCT_RELATED_PRODUCT_CATEGORY ( 'part', '', ( #73 ) ) ;
#184 =( GEOMETRIC_REPRESENTATION_CONTEXT ( 3 ) GLOBAL_UNCERTAINTY_ASSIGNED_CONTEXT ( ( #129 ) ) GLOBAL_UNIT_ASSIGNED_CONTEXT ( ( #144, #120, #142 ) ) REPRESENTATION_CONTEXT ( 'NONE', 'WORKASPACE' ) );
#185 = FILL_AREA_STYLE ('',( #77 ) ) ;
#186 = PRESENTATION_STYLE_ASSIGNMENT (( #209 ) ) ;
#187 = DIRECTION ( 'NONE',  ( -1.000000000000000000, 0.000000000000000000, 0.000000000000000000 ) ) ;
#188 = CLOSED_SHELL ( 'NONE', ( #21, #271, #49, #71 ) ) ;
#189 =( GEOMETRIC_REPRESENTATION_CONTEXT ( 3 ) GLOBAL_UNCERTAINTY_ASSIGNED_CONTEXT ( ( #285 ) ) GLOBAL_UNIT_ASSIGNED_CONTEXT ( ( #95, #240, #249 ) ) REPRESENTATION_CONTEXT ( 'NONE', 'WORKASPACE' ) );
#190 = ORIENTED_EDGE ( 'NONE', *, *, #48, .F. ) ;
#191 = DIRECTION ( 'NONE',  ( -3.007904418958410489E-17, 1.000000000000000000, -0.000000000000000000 ) ) ;
#192 = LINE ( 'NONE', #57, #99 ) ;
#193 = SURFACE_SIDE_STYLE ('',( #62 ) ) ;
#194 = CARTESIAN_POINT ( 'NONE',  ( 0.000000000000000000, 32.00000000000000000, 0.000000000000000000 ) ) ;
#195 = COLOUR_RGB ( '',0.7921568627450980005, 0.8196078431372548767, 0.9333333333333333481 ) ;
#196 =( LENGTH_UNIT ( ) NAMED_UNIT ( * ) SI_UNIT ( .MILLI., .METRE. ) );
#197 = VERTEX_POINT ( 'NONE', #156 ) ;
#198 = DIRECTION ( 'NONE',  ( -3.007904418958410489E-17, 1.000000000000000000, 0.000000000000000000 ) ) ;
#199 = FILL_AREA_STYLE_COLOUR ( '', #127 ) ;
#200 = DIRECTION ( 'NONE',  ( -1.000000000000000000, 0.000000000000000000, 0.000000000000000000 ) ) ;
#201 = PRODUCT_DEFINITION ( 'UNKNOWN', '', #149, #117 ) ;
#202 = CIRCLE ( 'NONE', #147, 8.000000000000000000 ) ;
#203 = AXIS2_PLACEMENT_3D ( 'NONE', #122, #198, #143 ) ;
#204 = ADVANCED_FACE ( 'NONE', ( #225 ), #162, .T. ) ;
#205 = DIRECTION ( 'NONE',  ( -0.000000000000000000, -1.000000000000000000, -0.000000000000000000 ) ) ;
#206 = CIRCLE ( 'NONE', #146, 8.000000000000001776 ) ;
#207 = CYLINDRICAL_SURFACE ( 'NONE', #104, 8.000000000000000000 ) ;
#208 =( NAMED_UNIT ( * ) SI_UNIT ( $, .STERADIAN. ) SOLID_ANGLE_UNIT ( ) );
#209 = SURFACE_STYLE_USAGE ( .BOTH. , #33 ) ;
#210 = ORIENTED_EDGE ( 'NONE', *, *, #131, .T. ) ;
#211 = CIRCLE ( 'NONE', #110, 8.000000000000000000 ) ;
#212 = ORIENTED_EDGE ( 'NONE', *, *, #131, .F. ) ;
#213 = FACE_OUTER_BOUND ( 'NONE', #168, .T. ) ;
#214 = EDGE_LOOP ( 'NONE', ( #153, #75 ) ) ;
#215 =( NAMED_UNIT ( * ) PLANE_ANGLE_UNIT ( ) SI_UNIT ( $, .RADIAN. ) );
#216 = ORIENTED_EDGE ( 'NONE', *, *, #12, .T. ) ;
#217 = UNCERTAINTY_MEASURE_WITH_UNIT (LENGTH_MEASURE( 1.000000000000000082E-05 ), #51, 'distance_accuracy_value', 'NONE');
#218 = SURFACE_SIDE_STYLE ('',( #154 ) ) ;
#219 = DIRECTION ( 'NONE',  ( 0.000000000000000000, -0.000000000000000000, 1.000000000000000000 ) ) ;
#220 = DIRECTION ( 'NONE',  ( 0.000000000000000000, 0.000000000000000000, -1.000000000000000000 ) ) ;
#221 = VECTOR ( 'NONE', #63, 1000.000000000000000 ) ;
#222 = PRESENTATION_LAYER_ASSIGNMENT (  '', '', ( #261 ) ) ;
#223 = PLANE ( 'NONE',  #203 ) ;
#224 = FACE_OUTER_BOUND ( 'NONE', #287, .T. ) ;
#225 = FACE_OUTER_BOUND ( 'NONE', #150, .T. ) ;
#226 = SURFACE_SIDE_STYLE ('',( #41 ) ) ;
#227 = FILL_AREA_STYLE ('',( #277 ) ) ;
#228 = SHAPE_DEFINITION_REPRESENTATION ( #243, #10 ) ;
#229 = MECHANICAL_DESIGN_GEOMETRIC_PRESENTATION_REPRESENTATION (  '', ( #148 ), #184 ) ;
#230 = STYLED_ITEM ( 'NONE', ( #186 ), #251 ) ;
#231 = EDGE_CURVE ( 'NONE', #60, #81, #182, .T. ) ;
#232 = CARTESIAN_POINT ( 'NONE',  ( 0.000000000000000000, 32.00000000000000000, 0.000000000000000000 ) ) ;
#233 = LINE ( 'NONE', #32, #256 ) ;
#234 = COLOUR_RGB ( '',1.000000000000000000, 0.000000000000000000, 0.000000000000000000 ) ;
#235 = DIRECTION ( 'NONE',  ( 0.000000000000000000, 0.000000000000000000, -1.000000000000000000 ) ) ;
#236 = EDGE_LOOP ( 'NONE', ( #170, #54, #83, #19 ) ) ;
#237 = CARTESIAN_POINT ( 'NONE',  ( -8.000000000000001776, 89.00000000000000000, 0.000000000000000000 ) ) ;
#238 = CARTESIAN_POINT ( 'NONE',  ( 0.000000000000000000, 0.000000000000000000, 0.000000000000000000 ) ) ;
#239 = ORIENTED_EDGE ( 'NONE', *, *, #113, .F. ) ;
#240 =( NAMED_UNIT ( * ) PLANE_ANGLE_UNIT ( ) SI_UNIT ( $, .RADIAN. ) );
#241 = PLANE ( 'NONE',  #141 ) ;
#242 = CYLINDRICAL_SURFACE ( 'NONE', #86, 8.000000000000000000 ) ;
#243 = PRODUCT_DEFINITION_SHAPE ( 'NONE', 'NONE',  #201 ) ;
#244 = SURFACE_STYLE_USAGE ( .BOTH. , #226 ) ;
#245 = PRESENTATION_LAYER_ASSIGNMENT (  '', '', ( #148 ) ) ;
#246 = AXIS2_PLACEMENT_3D ( 'NONE', #288, #116, #61 ) ;
#247 =( LENGTH_UNIT ( ) NAMED_UNIT ( * ) SI_UNIT ( .MILLI., .METRE. ) );
#248 = LINE ( 'NONE', #269, #221 ) ;
#249 =( NAMED_UNIT ( * ) SI_UNIT ( $, .STERADIAN. ) SOLID_ANGLE_UNIT ( ) );
#250 = DIRECTION ( 'NONE',  ( -0.000000000000000000, -1.000000000000000000, -0.000000000000000000 ) ) ;
#251 = ADVANCED_FACE ( 'NONE', ( #82 ), #279, .T. ) ;
#252 = MECHANICAL_DESIGN_GEOMETRIC_PRESENTATION_REPRESENTATION (  '', ( #70 ), #163 ) ;
#253 = AXIS2_PLACEMENT_3D ( 'NONE', #268, #272, #65 ) ;
#254 = PRODUCT_CONTEXT ( 'NONE', #266, 'mechanical' ) ;
#255 =( LENGTH_UNIT ( ) NAMED_UNIT ( * ) SI_UNIT ( .MILLI., .METRE. ) );
#256 = VECTOR ( 'NONE', #250, 1000.000000000000000 ) ;
#257 = MECHANICAL_DESIGN_GEOMETRIC_PRESENTATION_REPRESENTATION (  '', ( #119 ), #128 ) ;
#258 = DIRECTION ( 'NONE',  ( 0.000000000000000000, 0.000000000000000000, -1.000000000000000000 ) ) ;
#259 = ADVANCED_FACE ( 'NONE', ( #159 ), #241, .T. ) ;
#260 = CIRCLE ( 'NONE', #274, 8.000000000000000000 ) ;
#261 = STYLED_ITEM ( 'NONE', ( #1 ), #160 ) ;
#262 = ORIENTED_EDGE ( 'NONE', *, *, #38, .T. ) ;
#263 = FILL_AREA_STYLE_COLOUR ( '', #234 ) ;
#264 = AXIS2_PLACEMENT_3D ( 'NONE', #22, #90, #176 ) ;
#265 = VERTEX_POINT ( 'NONE', #137 ) ;
#266 = APPLICATION_CONTEXT ( 'automotive_design' ) ;
#267 = DIRECTION ( 'NONE',  ( -1.000000000000000000, 0.000000000000000000, 0.000000000000000000 ) ) ;
#268 = CARTESIAN_POINT ( 'NONE',  ( 0.000000000000000000, 0.000000000000000000, 0.000000000000000000 ) ) ;
#269 = CARTESIAN_POINT ( 'NONE',  ( 0.000000000000000000, 0.000000000000000000, -8.000000000000000000 ) ) ;
#270 = DIRECTION ( 'NONE',  ( 0.000000000000000000, 0.000000000000000000, -1.000000000000000000 ) ) ;
#271 = ADVANCED_FACE ( 'NONE', ( #43 ), #223, .F. ) ;
#272 = DIRECTION ( 'NONE',  ( -0.000000000000000000, -1.000000000000000000, -0.000000000000000000 ) ) ;
#273 = PRESENTATION_STYLE_ASSIGNMENT (( #96 ) ) ;
#274 = AXIS2_PLACEMENT_3D ( 'NONE', #101, #191, #267 ) ;
#275 = PRESENTATION_STYLE_ASSIGNMENT (( #244 ) ) ;
#276 = CARTESIAN_POINT ( 'NONE',  ( 8.000000000000000000, 32.00000000000000000, 9.797174393178825657E-16 ) ) ;
#277 = FILL_AREA_STYLE_COLOUR ( '', #97 ) ;
#278 = PRESENTATION_LAYER_ASSIGNMENT (  '', '', ( #119 ) ) ;
#279 = CYLINDRICAL_SURFACE ( 'NONE', #253, 8.000000000000000000 ) ;
#280 = ORIENTED_EDGE ( 'NONE', *, *, #107, .F. ) ;
#281 = CLOSED_SHELL ( 'NONE', ( #204, #259, #251, #160 ) ) ;
#282 = AXIS2_PLACEMENT_3D ( 'NONE', #161, #72, #165 ) ;
#283 = VERTEX_POINT ( 'NONE', #126 ) ;
#284 = EDGE_CURVE ( 'NONE', #81, #197, #93, .T. ) ;
#285 = UNCERTAINTY_MEASURE_WITH_UNIT (LENGTH_MEASURE( 1.000000000000000082E-05 ), #95, 'distance_accuracy_value', 'NONE');
#286 = APPLICATION_CONTEXT ( 'automotive_design' ) ;
#287 = EDGE_LOOP ( 'NONE', ( #210, #78 ) ) ;
#288 = CARTESIAN_POINT ( 'NONE',  ( -1.714505518806293849E-15, 89.00000000000000000, 0.000000000000000000 ) ) ;
ENDSEC;
END-ISO-10303-21;
