ISO-10303-21;
HEADER;
FILE_DESCRIPTION (( 'STEP AP214' ),
    '1' );
FILE_NAME ('Micro_BEM-500-04.STEP',
    '2021-09-03T13:15:58',
    ( '' ),
    ( '' ),
    'SwSTEP 2.0',
    'SolidWorks 2020',
    '' );
FILE_SCHEMA (( 'AUTOMOTIVE_DESIGN' ));
ENDSEC;

DATA;
#1 = DIRECTION ( 'NONE',  ( 0.0000000000000000000, 0.0000000000000000000, -1.000000000000000000 ) ) ;
#2 = MECHANICAL_DESIGN_GEOMETRIC_PRESENTATION_REPRESENTATION (  '', ( #9 ), #204 ) ;
#3 = FACE_OUTER_BOUND ( 'NONE', #112, .T. ) ;
#4 = EDGE_CURVE ( 'NONE', #316, #40, #117, .T. ) ;
#5 = DIRECTION ( 'NONE',  ( -0.0000000000000000000, -0.0000000000000000000, -1.000000000000000000 ) ) ;
#6 = DIRECTION ( 'NONE',  ( -0.0000000000000000000, -0.0000000000000000000, -1.000000000000000000 ) ) ;
#7 = DIRECTION ( 'NONE',  ( -0.7071067811865402453, 0.0000000000000000000, -0.7071067811865546782 ) ) ;
#8 = AXIS2_PLACEMENT_3D ( 'NONE', #279, #90, #248 ) ;
#9 = STYLED_ITEM ( 'NONE', ( #72 ), #167 ) ;
#10 = VERTEX_POINT ( 'NONE', #308 ) ;
#11 = PRESENTATION_STYLE_ASSIGNMENT (( #144 ) ) ;
#12 = ORIENTED_EDGE ( 'NONE', *, *, #123, .T. ) ;
#13 = ORIENTED_EDGE ( 'NONE', *, *, #269, .T. ) ;
#14 = DIRECTION ( 'NONE',  ( 0.0000000000000000000, 0.0000000000000000000, 1.000000000000000000 ) ) ;
#15 = VECTOR ( 'NONE', #20, 39.37007874015748143 ) ;
#16 = PRESENTATION_LAYER_ASSIGNMENT (  '', '', ( #9 ) ) ;
#17 = ORIENTED_EDGE ( 'NONE', *, *, #299, .T. ) ;
#18 = ORIENTED_EDGE ( 'NONE', *, *, #51, .F. ) ;
#19 = ADVANCED_FACE ( 'NONE', ( #267 ), #211, .T. ) ;
#20 = DIRECTION ( 'NONE',  ( -0.0000000000000000000, -0.0000000000000000000, -1.000000000000000000 ) ) ;
#21 = DIRECTION ( 'NONE',  ( 1.224646799147353454E-16, 0.0000000000000000000, 1.000000000000000000 ) ) ;
#22 = DIRECTION ( 'NONE',  ( -0.0000000000000000000, -0.0000000000000000000, -1.000000000000000000 ) ) ;
#23 = AXIS2_PLACEMENT_3D ( 'NONE', #302, #254, #178 ) ;
#24 = CARTESIAN_POINT ( 'NONE',  ( 1.226383128429217700E-16, 0.0000000000000000000, 1.001417820454904462 ) ) ;
#25 = CARTESIAN_POINT ( 'NONE',  ( 0.0000000000000000000, 0.0000000000000000000, 3.000000000000000444 ) ) ;
#26 = DIRECTION ( 'NONE',  ( -1.224646799147353454E-16, -0.0000000000000000000, -1.000000000000000000 ) ) ;
#27 = EDGE_LOOP ( 'NONE', ( #65, #66, #159, #156 ) ) ;
#28 = DIRECTION ( 'NONE',  ( 1.000000000000000000, 0.0000000000000000000, 0.0000000000000000000 ) ) ;
#29 =( LENGTH_UNIT ( ) NAMED_UNIT ( * ) SI_UNIT ( $, .METRE. ) );
#30 = CARTESIAN_POINT ( 'NONE',  ( 0.0000000000000000000, 0.0000000000000000000, 2.985000000000001208 ) ) ;
#31 = CONICAL_SURFACE ( 'NONE', #173, 0.2350000000000011524, 0.7853981633974380649 ) ;
#32 = EDGE_CURVE ( 'NONE', #286, #206, #141, .T. ) ;
#33 = FACE_OUTER_BOUND ( 'NONE', #250, .T. ) ;
#34 = UNCERTAINTY_MEASURE_WITH_UNIT (LENGTH_MEASURE( 1.000000000000000082E-05 ), #99, 'distance_accuracy_value', 'NONE');
#35 = CIRCLE ( 'NONE', #214, 0.2497499999999999998 ) ;
#36 = EDGE_CURVE ( 'NONE', #206, #40, #266, .T. ) ;
#37 = CIRCLE ( 'NONE', #91, 0.2497499999999999998 ) ;
#38 = ORIENTED_EDGE ( 'NONE', *, *, #220, .F. ) ;
#39 = PRODUCT_CONTEXT ( 'NONE', #130, 'mechanical' ) ;
#40 = VERTEX_POINT ( 'NONE', #121 ) ;
#41 = EDGE_LOOP ( 'NONE', ( #236, #12, #180 ) ) ;
#42 = VECTOR ( 'NONE', #7, 39.37007874015748854 ) ;
#43 = ORIENTED_EDGE ( 'NONE', *, *, #32, .T. ) ;
#44 = DIRECTION ( 'NONE',  ( 0.0000000000000000000, 0.0000000000000000000, 1.000000000000000000 ) ) ;
#45 = LINE ( 'NONE', #152, #79 ) ;
#46 = VECTOR ( 'NONE', #89, 39.37007874015748143 ) ;
#47 = ADVANCED_FACE ( 'NONE', ( #218 ), #143, .T. ) ;
#48 = SURFACE_STYLE_FILL_AREA ( #270 ) ;
#49 =( CONVERSION_BASED_UNIT ( 'INCH', #272 ) LENGTH_UNIT ( ) NAMED_UNIT ( #102 ) );
#50 = STYLED_ITEM ( 'NONE', ( #11 ), #212 ) ;
#51 = EDGE_CURVE ( 'NONE', #262, #268, #241, .T. ) ;
#52 = SPHERICAL_SURFACE ( 'NONE', #296, 0.2497499999999999998 ) ;
#53 = PRODUCT ( 'Micro_BEM-500-04', 'Micro_BEM-500-04', '', ( #39 ) ) ;
#54 =( NAMED_UNIT ( * ) PLANE_ANGLE_UNIT ( ) SI_UNIT ( $, .RADIAN. ) );
#55 = DIRECTION ( 'NONE',  ( 1.000000000000000000, 0.0000000000000000000, 0.0000000000000000000 ) ) ;
#56 = DIRECTION ( 'NONE',  ( 1.224646799147353454E-16, 0.0000000000000000000, 1.000000000000000000 ) ) ;
#57 = CARTESIAN_POINT ( 'NONE',  ( -0.2497499999999998888, 3.060086189369449292E-17, 1.000000000000000000 ) ) ;
#58 = AXIS2_PLACEMENT_3D ( 'NONE', #213, #192, #177 ) ;
#59 = AXIS2_PLACEMENT_3D ( 'NONE', #125, #223, #138 ) ;
#60 = CIRCLE ( 'NONE', #153, 0.2497499999999999998 ) ;
#61 = EDGE_LOOP ( 'NONE', ( #190, #63, #187, #114 ) ) ;
#62 = DIMENSIONAL_EXPONENTS ( 1.000000000000000000, 0.0000000000000000000, 0.0000000000000000000, 0.0000000000000000000, 0.0000000000000000000, 0.0000000000000000000, 0.0000000000000000000 ) ;
#63 = ORIENTED_EDGE ( 'NONE', *, *, #4, .T. ) ;
#64 = ORIENTED_EDGE ( 'NONE', *, *, #88, .F. ) ;
#65 = ORIENTED_EDGE ( 'NONE', *, *, #154, .F. ) ;
#66 = ORIENTED_EDGE ( 'NONE', *, *, #147, .T. ) ;
#67 = ORIENTED_EDGE ( 'NONE', *, *, #273, .T. ) ;
#68 = CARTESIAN_POINT ( 'NONE',  ( 0.0000000000000000000, 0.0000000000000000000, 3.000000000000000444 ) ) ;
#69 = SURFACE_SIDE_STYLE ('',( #48 ) ) ;
#70 = DIRECTION ( 'NONE',  ( -0.1736481776669312194, 2.126576849575783625E-17, 0.9848077530122080203 ) ) ;
#71 = CONICAL_SURFACE ( 'NONE', #256, 0.2497499999999999998, 0.1745329251994339192 ) ;
#72 = PRESENTATION_STYLE_ASSIGNMENT (( #294 ) ) ;
#73 = PRODUCT_RELATED_PRODUCT_CATEGORY ( 'part', '', ( #53 ) ) ;
#74 = CIRCLE ( 'NONE', #85, 0.2500000000000000000 ) ;
#75 = CIRCLE ( 'NONE', #185, 0.2500000000000000000 ) ;
#76 = FACE_OUTER_BOUND ( 'NONE', #280, .T. ) ;
#77 = DIRECTION ( 'NONE',  ( -1.000000000000000000, 0.0000000000000000000, 0.0000000000000000000 ) ) ;
#78 = CARTESIAN_POINT ( 'NONE',  ( -0.2350000000000011524, 0.0000000000000000000, 3.000000000000000444 ) ) ;
#79 = VECTOR ( 'NONE', #70, 39.37007874015747433 ) ;
#80 = CARTESIAN_POINT ( 'NONE',  ( 1.224646799147353454E-16, 0.0000000000000000000, 1.000000000000000000 ) ) ;
#81 = ORIENTED_EDGE ( 'NONE', *, *, #123, .F. ) ;
#82 = ORIENTED_EDGE ( 'NONE', *, *, #189, .F. ) ;
#83 = ORIENTED_EDGE ( 'NONE', *, *, #181, .T. ) ;
#84 =( LENGTH_UNIT ( ) NAMED_UNIT ( * ) SI_UNIT ( $, .METRE. ) );
#85 = AXIS2_PLACEMENT_3D ( 'NONE', #324, #274, #93 ) ;
#86 = PRESENTATION_LAYER_ASSIGNMENT (  '', '', ( #50 ) ) ;
#87 = VERTEX_POINT ( 'NONE', #142 ) ;
#88 = EDGE_CURVE ( 'NONE', #286, #87, #45, .T. ) ;
#89 = DIRECTION ( 'NONE',  ( -1.224646799147353454E-16, -0.0000000000000000000, -1.000000000000000000 ) ) ;
#90 = DIRECTION ( 'NONE',  ( 0.0000000000000000000, 1.000000000000000000, 0.0000000000000000000 ) ) ;
#91 = AXIS2_PLACEMENT_3D ( 'NONE', #259, #56, #253 ) ;
#92 = ADVANCED_FACE ( 'NONE', ( #225 ), #228, .T. ) ;
#93 = DIRECTION ( 'NONE',  ( 1.000000000000000000, 0.0000000000000000000, 0.0000000000000000000 ) ) ;
#94 = DIRECTION ( 'NONE',  ( 0.0000000000000000000, 0.0000000000000000000, 1.000000000000000000 ) ) ;
#95 = DIRECTION ( 'NONE',  ( 0.0000000000000000000, 0.0000000000000000000, -1.000000000000000000 ) ) ;
#96 = LENGTH_MEASURE_WITH_UNIT ( LENGTH_MEASURE( 0.02539999999999999897 ), #84 );
#97 = PRODUCT_DEFINITION_CONTEXT ( 'detailed design', #292, 'design' ) ;
#98 = CARTESIAN_POINT ( 'NONE',  ( 0.0000000000000000000, 0.0000000000000000000, 3.000000000000000444 ) ) ;
#99 =( CONVERSION_BASED_UNIT ( 'INCH', #96 ) LENGTH_UNIT ( ) NAMED_UNIT ( #62 ) );
#100 = CIRCLE ( 'NONE', #277, 0.2500000000000000000 ) ;
#101 = ADVANCED_FACE ( 'NONE', ( #3 ), #119, .T. ) ;
#102 = DIMENSIONAL_EXPONENTS ( 1.000000000000000000, 0.0000000000000000000, 0.0000000000000000000, 0.0000000000000000000, 0.0000000000000000000, 0.0000000000000000000, 0.0000000000000000000 ) ;
#103 = DIRECTION ( 'NONE',  ( -1.000000000000000000, 0.0000000000000000000, 0.0000000000000000000 ) ) ;
#104 = DIRECTION ( 'NONE',  ( -1.224646799147353454E-16, -0.0000000000000000000, -1.000000000000000000 ) ) ;
#105 = DIRECTION ( 'NONE',  ( 1.224646799147353207E-16, 1.000000000000000000, -0.0000000000000000000 ) ) ;
#106 = PRODUCT_DEFINITION ( 'UNKNOWN', '', #158, #97 ) ;
#107 = DIRECTION ( 'NONE',  ( 1.000000000000000000, 0.0000000000000000000, 0.0000000000000000000 ) ) ;
#108 = CARTESIAN_POINT ( 'NONE',  ( 3.058555380870515566E-17, 0.0000000000000000000, 0.2497499999999999998 ) ) ;
#109 = CARTESIAN_POINT ( 'NONE',  ( 0.2350000000000011524, 2.969768487932338510E-17, 3.000000000000000444 ) ) ;
#110 = COLOUR_RGB ( '',0.7921568627450980005, 0.8196078431372548767, 0.9333333333333333481 ) ;
#111 = ORIENTED_EDGE ( 'NONE', *, *, #304, .T. ) ;
#112 = EDGE_LOOP ( 'NONE', ( #157, #230 ) ) ;
#113 = DIRECTION ( 'NONE',  ( 1.000000000000000000, 0.0000000000000000000, 0.0000000000000000000 ) ) ;
#114 = ORIENTED_EDGE ( 'NONE', *, *, #32, .F. ) ;
#115 = SHAPE_DEFINITION_REPRESENTATION ( #298, #212 ) ;
#116 = AXIS2_PLACEMENT_3D ( 'NONE', #257, #5, #103 ) ;
#117 = LINE ( 'NONE', #317, #46 ) ;
#118 = ORIENTED_EDGE ( 'NONE', *, *, #297, .T. ) ;
#119 = PLANE ( 'NONE',  #124 ) ;
#120 = AXIS2_PLACEMENT_3D ( 'NONE', #98, #22, #77 ) ;
#121 = CARTESIAN_POINT ( 'NONE',  ( 0.2497500000000000553, 3.058555380870514950E-17, 0.2497499999999999720 ) ) ;
#122 = DIRECTION ( 'NONE',  ( 0.7071067811865402453, 8.659560562354845344E-17, -0.7071067811865546782 ) ) ;
#123 = EDGE_CURVE ( 'NONE', #282, #40, #35, .T. ) ;
#124 = AXIS2_PLACEMENT_3D ( 'NONE', #25, #44, #198 ) ;
#125 = CARTESIAN_POINT ( 'NONE',  ( 0.0000000000000000000, 0.0000000000000000000, 0.0000000000000000000 ) ) ;
#126 = DIRECTION ( 'NONE',  ( -1.224646799147353454E-16, -0.0000000000000000000, -1.000000000000000000 ) ) ;
#127 = CARTESIAN_POINT ( 'NONE',  ( 1.224646799147353454E-16, 0.0000000000000000000, 1.000000000000000000 ) ) ;
#128 = CARTESIAN_POINT ( 'NONE',  ( 1.224646799147353454E-16, 0.0000000000000000000, 1.000000000000000000 ) ) ;
#129 = ADVANCED_FACE ( 'NONE', ( #216 ), #301, .T. ) ;
#130 = APPLICATION_CONTEXT ( 'automotive_design' ) ;
#131 = AXIS2_PLACEMENT_3D ( 'NONE', #128, #21, #201 ) ;
#132 = ORIENTED_EDGE ( 'NONE', *, *, #205, .T. ) ;
#133 = CIRCLE ( 'NONE', #23, 0.2497499999999999998 ) ;
#134 = ORIENTED_EDGE ( 'NONE', *, *, #135, .T. ) ;
#135 = EDGE_CURVE ( 'NONE', #87, #268, #74, .T. ) ;
#136 = EDGE_LOOP ( 'NONE', ( #18, #67, #83, #283 ) ) ;
#137 = CARTESIAN_POINT ( 'NONE',  ( 0.2497500000000001386, 0.0000000000000000000, 1.000000000000000000 ) ) ;
#138 = DIRECTION ( 'NONE',  ( -1.000000000000000000, 0.0000000000000000000, 1.224646799147353700E-16 ) ) ;
#139 = EDGE_LOOP ( 'NONE', ( #82, #208, #134, #160 ) ) ;
#140 = VECTOR ( 'NONE', #263, 39.37007874015748143 ) ;
#141 = LINE ( 'NONE', #175, #284 ) ;
#142 = CARTESIAN_POINT ( 'NONE',  ( -0.2499999999999998612, 0.0000000000000000000, 1.001417820454904462 ) ) ;
#143 = CYLINDRICAL_SURFACE ( 'NONE', #191, 0.2497499999999999998 ) ;
#144 = SURFACE_STYLE_USAGE ( .BOTH. , #217 ) ;
#145 = SURFACE_STYLE_FILL_AREA ( #309 ) ;
#146 = AXIS2_PLACEMENT_3D ( 'NONE', #30, #171, #200 ) ;
#147 = EDGE_CURVE ( 'NONE', #186, #262, #193, .T. ) ;
#148 = DIRECTION ( 'NONE',  ( -1.000000000000000000, 0.0000000000000000000, 0.0000000000000000000 ) ) ;
#149 = ORIENTED_EDGE ( 'NONE', *, *, #311, .T. ) ;
#150 = LINE ( 'NONE', #78, #42 ) ;
#151 = CARTESIAN_POINT ( 'NONE',  ( 0.2500000000000001110, 3.061616997868383634E-17, 1.001417820454904462 ) ) ;
#152 = CARTESIAN_POINT ( 'NONE',  ( -0.2497499999999998888, 3.058555380870514950E-17, 1.000000000000000000 ) ) ;
#153 = AXIS2_PLACEMENT_3D ( 'NONE', #80, #26, #255 ) ;
#154 = EDGE_CURVE ( 'NONE', #186, #207, #170, .T. ) ;
#155 = CYLINDRICAL_SURFACE ( 'NONE', #59, 0.2497499999999999998 ) ;
#156 = ORIENTED_EDGE ( 'NONE', *, *, #297, .F. ) ;
#157 = ORIENTED_EDGE ( 'NONE', *, *, #220, .T. ) ;
#158 = PRODUCT_DEFINITION_FORMATION_WITH_SPECIFIED_SOURCE ( 'ANY', '', #53, .NOT_KNOWN. ) ;
#159 = ORIENTED_EDGE ( 'NONE', *, *, #304, .F. ) ;
#160 = ORIENTED_EDGE ( 'NONE', *, *, #311, .F. ) ;
#161 = FILL_AREA_STYLE_COLOUR ( '', #110 ) ;
#162 = EDGE_LOOP ( 'NONE', ( #184, #38, #118, #233 ) ) ;
#163 = CIRCLE ( 'NONE', #146, 0.2500000000000000000 ) ;
#164 = ORIENTED_EDGE ( 'NONE', *, *, #36, .T. ) ;
#165 = DIRECTION ( 'NONE',  ( 0.0000000000000000000, 0.0000000000000000000, -1.000000000000000000 ) ) ;
#166 = FILL_AREA_STYLE_COLOUR ( '', #303 ) ;
#167 = MANIFOLD_SOLID_BREP ( 'Fillet1', #183 ) ;
#168 = CARTESIAN_POINT ( 'NONE',  ( 3.058555380870515566E-17, 0.0000000000000000000, 0.2497499999999999998 ) ) ;
#169 = DIRECTION ( 'NONE',  ( 1.000000000000000000, 0.0000000000000000000, 0.0000000000000000000 ) ) ;
#170 = CIRCLE ( 'NONE', #179, 0.2350000000000011524 ) ;
#171 = DIRECTION ( 'NONE',  ( 0.0000000000000000000, 0.0000000000000000000, -1.000000000000000000 ) ) ;
#172 = CARTESIAN_POINT ( 'NONE',  ( 0.2500000000000000000, 3.061616997868382402E-17, 2.985000000000001208 ) ) ;
#173 = AXIS2_PLACEMENT_3D ( 'NONE', #246, #221, #148 ) ;
#174 = EDGE_LOOP ( 'NONE', ( #64, #265, #149, #17 ) ) ;
#175 = CARTESIAN_POINT ( 'NONE',  ( -0.2497499999999999998, 0.0000000000000000000, 3.058555380870515566E-17 ) ) ;
#176 = LINE ( 'NONE', #275, #140 ) ;
#177 = DIRECTION ( 'NONE',  ( -1.000000000000000000, 0.0000000000000000000, 1.367291288120251888E-16 ) ) ;
#178 = DIRECTION ( 'NONE',  ( -1.000000000000000000, 0.0000000000000000000, 0.0000000000000000000 ) ) ;
#179 = AXIS2_PLACEMENT_3D ( 'NONE', #196, #290, #107 ) ;
#180 = ORIENTED_EDGE ( 'NONE', *, *, #36, .F. ) ;
#181 = EDGE_CURVE ( 'NONE', #10, #87, #251, .T. ) ;
#182 =( NAMED_UNIT ( * ) SI_UNIT ( $, .STERADIAN. ) SOLID_ANGLE_UNIT ( ) );
#183 = CLOSED_SHELL ( 'NONE', ( #19, #47, #92, #252, #278, #129, #101, #195, #202, #244, #288 ) ) ;
#184 = ORIENTED_EDGE ( 'NONE', *, *, #147, .F. ) ;
#185 = AXIS2_PLACEMENT_3D ( 'NONE', #224, #1, #323 ) ;
#186 = VERTEX_POINT ( 'NONE', #109 ) ;
#187 = ORIENTED_EDGE ( 'NONE', *, *, #240, .T. ) ;
#188 = FACE_OUTER_BOUND ( 'NONE', #27, .T. ) ;
#189 = EDGE_CURVE ( 'NONE', #286, #316, #60, .T. ) ;
#190 = ORIENTED_EDGE ( 'NONE', *, *, #189, .T. ) ;
#191 = AXIS2_PLACEMENT_3D ( 'NONE', #320, #321, #243 ) ;
#192 = DIRECTION ( 'NONE',  ( 1.224646799147353454E-16, 0.0000000000000000000, 1.000000000000000000 ) ) ;
#193 = LINE ( 'NONE', #287, #313 ) ;
#194 = APPLICATION_PROTOCOL_DEFINITION ( 'draft international standard', 'automotive_design', 1998, #292 ) ;
#195 = ADVANCED_FACE ( 'NONE', ( #305 ), #31, .T. ) ;
#196 = CARTESIAN_POINT ( 'NONE',  ( 0.0000000000000000000, 0.0000000000000000000, 3.000000000000000444 ) ) ;
#197 = DIMENSIONAL_EXPONENTS ( 1.000000000000000000, 0.0000000000000000000, 0.0000000000000000000, 0.0000000000000000000, 0.0000000000000000000, 0.0000000000000000000, 0.0000000000000000000 ) ;
#198 = DIRECTION ( 'NONE',  ( 1.000000000000000000, 0.0000000000000000000, -0.0000000000000000000 ) ) ;
#199 = DIRECTION ( 'NONE',  ( -1.000000000000000000, 1.224646799147353454E-16, 0.0000000000000000000 ) ) ;
#200 = DIRECTION ( 'NONE',  ( 1.000000000000000000, 0.0000000000000000000, 0.0000000000000000000 ) ) ;
#201 = DIRECTION ( 'NONE',  ( 1.000000000000000000, 0.0000000000000000000, 0.0000000000000000000 ) ) ;
#202 = ADVANCED_FACE ( 'NONE', ( #249 ), #71, .T. ) ;
#203 = DIRECTION ( 'NONE',  ( 0.0000000000000000000, 1.000000000000000000, 0.0000000000000000000 ) ) ;
#204 =( GEOMETRIC_REPRESENTATION_CONTEXT ( 3 ) GLOBAL_UNCERTAINTY_ASSIGNED_CONTEXT ( ( #315 ) ) GLOBAL_UNIT_ASSIGNED_CONTEXT ( ( #49, #54, #182 ) ) REPRESENTATION_CONTEXT ( 'NONE', 'WORKASPACE' ) );
#205 = EDGE_CURVE ( 'NONE', #282, #206, #322, .T. ) ;
#206 = VERTEX_POINT ( 'NONE', #289 ) ;
#207 = VERTEX_POINT ( 'NONE', #215 ) ;
#208 = ORIENTED_EDGE ( 'NONE', *, *, #88, .T. ) ;
#209 = AXIS2_PLACEMENT_3D ( 'NONE', #325, #105, #199 ) ;
#210 = ORIENTED_EDGE ( 'NONE', *, *, #4, .F. ) ;
#211 = SPHERICAL_SURFACE ( 'NONE', #8, 0.2497499999999999998 ) ;
#212 = ADVANCED_BREP_SHAPE_REPRESENTATION ( 'Micro_BEM-500-04', ( #167, #300 ), #245 ) ;
#213 = CARTESIAN_POINT ( 'NONE',  ( 3.058555380870515566E-17, 0.0000000000000000000, 0.2497499999999999998 ) ) ;
#214 = AXIS2_PLACEMENT_3D ( 'NONE', #168, #319, #95 ) ;
#215 = CARTESIAN_POINT ( 'NONE',  ( -0.2350000000000011524, 0.0000000000000000000, 3.000000000000000444 ) ) ;
#216 = FACE_OUTER_BOUND ( 'NONE', #136, .T. ) ;
#217 = SURFACE_SIDE_STYLE ('',( #145 ) ) ;
#218 = FACE_OUTER_BOUND ( 'NONE', #61, .T. ) ;
#219 = VECTOR ( 'NONE', #6, 39.37007874015748143 ) ;
#220 = EDGE_CURVE ( 'NONE', #207, #186, #229, .T. ) ;
#221 = DIRECTION ( 'NONE',  ( 0.0000000000000000000, 0.0000000000000000000, -1.000000000000000000 ) ) ;
#222 = DIRECTION ( 'NONE',  ( 1.224646799147353454E-16, 0.0000000000000000000, 1.000000000000000000 ) ) ;
#223 = DIRECTION ( 'NONE',  ( -1.224646799147353454E-16, -0.0000000000000000000, -1.000000000000000000 ) ) ;
#224 = CARTESIAN_POINT ( 'NONE',  ( 0.0000000000000000000, 0.0000000000000000000, 2.985000000000001208 ) ) ;
#225 = FACE_OUTER_BOUND ( 'NONE', #139, .T. ) ;
#226 = CONICAL_SURFACE ( 'NONE', #235, 0.2350000000000011524, 0.7853981633974380649 ) ;
#227 = FACE_OUTER_BOUND ( 'NONE', #41, .T. ) ;
#228 = CONICAL_SURFACE ( 'NONE', #131, 0.2497499999999999998, 0.1745329251994339192 ) ;
#229 = CIRCLE ( 'NONE', #242, 0.2350000000000011524 ) ;
#230 = ORIENTED_EDGE ( 'NONE', *, *, #154, .T. ) ;
#231 = ORIENTED_EDGE ( 'NONE', *, *, #240, .F. ) ;
#232 =( NAMED_UNIT ( * ) PLANE_ANGLE_UNIT ( ) SI_UNIT ( $, .RADIAN. ) );
#233 = ORIENTED_EDGE ( 'NONE', *, *, #273, .F. ) ;
#234 =( NAMED_UNIT ( * ) SI_UNIT ( $, .STERADIAN. ) SOLID_ANGLE_UNIT ( ) );
#235 = AXIS2_PLACEMENT_3D ( 'NONE', #68, #165, #239 ) ;
#236 = ORIENTED_EDGE ( 'NONE', *, *, #205, .F. ) ;
#237 = ORIENTED_EDGE ( 'NONE', *, *, #181, .F. ) ;
#238 = CARTESIAN_POINT ( 'NONE',  ( 0.2500000000000000000, 3.061616997868382402E-17, 3.000000000000000444 ) ) ;
#239 = DIRECTION ( 'NONE',  ( -1.000000000000000000, 0.0000000000000000000, 0.0000000000000000000 ) ) ;
#240 = EDGE_CURVE ( 'NONE', #40, #206, #37, .T. ) ;
#241 = LINE ( 'NONE', #238, #15 ) ;
#242 = AXIS2_PLACEMENT_3D ( 'NONE', #306, #94, #169 ) ;
#243 = DIRECTION ( 'NONE',  ( -1.000000000000000000, 0.0000000000000000000, 1.224646799147353700E-16 ) ) ;
#244 = ADVANCED_FACE ( 'NONE', ( #33 ), #155, .T. ) ;
#245 =( GEOMETRIC_REPRESENTATION_CONTEXT ( 3 ) GLOBAL_UNCERTAINTY_ASSIGNED_CONTEXT ( ( #307 ) ) GLOBAL_UNIT_ASSIGNED_CONTEXT ( ( #281, #264, #295 ) ) REPRESENTATION_CONTEXT ( 'NONE', 'WORKASPACE' ) );
#246 = CARTESIAN_POINT ( 'NONE',  ( 0.0000000000000000000, 0.0000000000000000000, 3.000000000000000444 ) ) ;
#247 = DIRECTION ( 'NONE',  ( 1.000000000000000000, 0.0000000000000000000, 0.0000000000000000000 ) ) ;
#248 = DIRECTION ( 'NONE',  ( 1.000000000000000000, 0.0000000000000000000, 0.0000000000000000000 ) ) ;
#249 = FACE_OUTER_BOUND ( 'NONE', #174, .T. ) ;
#250 = EDGE_LOOP ( 'NONE', ( #210, #13, #43, #164 ) ) ;
#251 = LINE ( 'NONE', #276, #219 ) ;
#252 = ADVANCED_FACE ( 'NONE', ( #188 ), #226, .T. ) ;
#253 = DIRECTION ( 'NONE',  ( -1.000000000000000000, 0.0000000000000000000, 1.367291288120251888E-16 ) ) ;
#254 = DIRECTION ( 'NONE',  ( -1.224646799147353454E-16, -0.0000000000000000000, -1.000000000000000000 ) ) ;
#255 = DIRECTION ( 'NONE',  ( -1.000000000000000000, 0.0000000000000000000, 0.0000000000000000000 ) ) ;
#256 = AXIS2_PLACEMENT_3D ( 'NONE', #127, #222, #55 ) ;
#257 = CARTESIAN_POINT ( 'NONE',  ( 0.0000000000000000000, 0.0000000000000000000, 3.000000000000000444 ) ) ;
#258 = ORIENTED_EDGE ( 'NONE', *, *, #51, .T. ) ;
#259 = CARTESIAN_POINT ( 'NONE',  ( 3.058555380870515566E-17, 0.0000000000000000000, 0.2497499999999999998 ) ) ;
#260 = ORIENTED_EDGE ( 'NONE', *, *, #135, .F. ) ;
#261 = CARTESIAN_POINT ( 'NONE',  ( 0.0000000000000000000, 0.0000000000000000000, 0.0000000000000000000 ) ) ;
#262 = VERTEX_POINT ( 'NONE', #172 ) ;
#263 = DIRECTION ( 'NONE',  ( 0.1736481776669314137, 0.0000000000000000000, 0.9848077530122077983 ) ) ;
#264 =( NAMED_UNIT ( * ) PLANE_ANGLE_UNIT ( ) SI_UNIT ( $, .RADIAN. ) );
#265 = ORIENTED_EDGE ( 'NONE', *, *, #269, .F. ) ;
#266 = CIRCLE ( 'NONE', #58, 0.2497499999999999998 ) ;
#267 = FACE_OUTER_BOUND ( 'NONE', #310, .T. ) ;
#268 = VERTEX_POINT ( 'NONE', #151 ) ;
#269 = EDGE_CURVE ( 'NONE', #316, #286, #133, .T. ) ;
#270 = FILL_AREA_STYLE ('',( #166 ) ) ;
#271 = CARTESIAN_POINT ( 'NONE',  ( 4.587833071305773041E-17, 0.0000000000000000000, 0.0000000000000000000 ) ) ;
#272 = LENGTH_MEASURE_WITH_UNIT ( LENGTH_MEASURE( 0.02539999999999999897 ), #29 );
#273 = EDGE_CURVE ( 'NONE', #262, #10, #163, .T. ) ;
#274 = DIRECTION ( 'NONE',  ( -1.224646799147353454E-16, -0.0000000000000000000, -1.000000000000000000 ) ) ;
#275 = CARTESIAN_POINT ( 'NONE',  ( 0.2497500000000001386, 0.0000000000000000000, 1.000000000000000000 ) ) ;
#276 = CARTESIAN_POINT ( 'NONE',  ( -0.2500000000000000000, 0.0000000000000000000, 3.000000000000000444 ) ) ;
#277 = AXIS2_PLACEMENT_3D ( 'NONE', #24, #126, #28 ) ;
#278 = ADVANCED_FACE ( 'NONE', ( #76 ), #293, .T. ) ;
#279 = CARTESIAN_POINT ( 'NONE',  ( 3.058555380870515566E-17, 0.0000000000000000000, 0.2497499999999999998 ) ) ;
#280 = EDGE_LOOP ( 'NONE', ( #111, #258, #260, #237 ) ) ;
#281 =( CONVERSION_BASED_UNIT ( 'INCH', #291 ) LENGTH_UNIT ( ) NAMED_UNIT ( #197 ) );
#282 = VERTEX_POINT ( 'NONE', #271 ) ;
#283 = ORIENTED_EDGE ( 'NONE', *, *, #299, .F. ) ;
#284 = VECTOR ( 'NONE', #104, 39.37007874015748143 ) ;
#285 =( GEOMETRIC_REPRESENTATION_CONTEXT ( 3 ) GLOBAL_UNCERTAINTY_ASSIGNED_CONTEXT ( ( #34 ) ) GLOBAL_UNIT_ASSIGNED_CONTEXT ( ( #99, #232, #234 ) ) REPRESENTATION_CONTEXT ( 'NONE', 'WORKASPACE' ) );
#286 = VERTEX_POINT ( 'NONE', #57 ) ;
#287 = CARTESIAN_POINT ( 'NONE',  ( 0.2350000000000011524, 2.877919977996294002E-17, 3.000000000000000444 ) ) ;
#288 = ADVANCED_FACE ( 'NONE', ( #227 ), #52, .T. ) ;
#289 = CARTESIAN_POINT ( 'NONE',  ( -0.2497499999999999720, 0.0000000000000000000, 0.2497500000000000553 ) ) ;
#290 = DIRECTION ( 'NONE',  ( 0.0000000000000000000, 0.0000000000000000000, 1.000000000000000000 ) ) ;
#291 = LENGTH_MEASURE_WITH_UNIT ( LENGTH_MEASURE( 0.02539999999999999897 ), #318 );
#292 = APPLICATION_CONTEXT ( 'automotive_design' ) ;
#293 = CYLINDRICAL_SURFACE ( 'NONE', #116, 0.2500000000000000000 ) ;
#294 = SURFACE_STYLE_USAGE ( .BOTH. , #69 ) ;
#295 =( NAMED_UNIT ( * ) SI_UNIT ( $, .STERADIAN. ) SOLID_ANGLE_UNIT ( ) );
#296 = AXIS2_PLACEMENT_3D ( 'NONE', #108, #203, #247 ) ;
#297 = EDGE_CURVE ( 'NONE', #207, #10, #150, .T. ) ;
#298 = PRODUCT_DEFINITION_SHAPE ( 'NONE', 'NONE',  #106 ) ;
#299 = EDGE_CURVE ( 'NONE', #268, #87, #100, .T. ) ;
#300 = AXIS2_PLACEMENT_3D ( 'NONE', #261, #14, #113 ) ;
#301 = CYLINDRICAL_SURFACE ( 'NONE', #120, 0.2500000000000000000 ) ;
#302 = CARTESIAN_POINT ( 'NONE',  ( 1.224646799147353454E-16, 0.0000000000000000000, 1.000000000000000000 ) ) ;
#303 = COLOUR_RGB ( '',0.7921568627450980005, 0.8196078431372548767, 0.9333333333333333481 ) ;
#304 = EDGE_CURVE ( 'NONE', #10, #262, #75, .T. ) ;
#305 = FACE_OUTER_BOUND ( 'NONE', #162, .T. ) ;
#306 = CARTESIAN_POINT ( 'NONE',  ( 0.0000000000000000000, 0.0000000000000000000, 3.000000000000000444 ) ) ;
#307 = UNCERTAINTY_MEASURE_WITH_UNIT (LENGTH_MEASURE( 1.000000000000000082E-05 ), #281, 'distance_accuracy_value', 'NONE');
#308 = CARTESIAN_POINT ( 'NONE',  ( -0.2500000000000000000, 0.0000000000000000000, 2.985000000000001208 ) ) ;
#309 = FILL_AREA_STYLE ('',( #161 ) ) ;
#310 = EDGE_LOOP ( 'NONE', ( #81, #132, #231 ) ) ;
#311 = EDGE_CURVE ( 'NONE', #316, #268, #176, .T. ) ;
#312 = APPLICATION_PROTOCOL_DEFINITION ( 'draft international standard', 'automotive_design', 1998, #130 ) ;
#313 = VECTOR ( 'NONE', #122, 39.37007874015748854 ) ;
#314 = MECHANICAL_DESIGN_GEOMETRIC_PRESENTATION_REPRESENTATION (  '', ( #50 ), #285 ) ;
#315 = UNCERTAINTY_MEASURE_WITH_UNIT (LENGTH_MEASURE( 1.000000000000000082E-05 ), #49, 'distance_accuracy_value', 'NONE');
#316 = VERTEX_POINT ( 'NONE', #137 ) ;
#317 = CARTESIAN_POINT ( 'NONE',  ( 0.2497499999999999998, 3.058555380870514950E-17, -3.058555380870515566E-17 ) ) ;
#318 =( LENGTH_UNIT ( ) NAMED_UNIT ( * ) SI_UNIT ( $, .METRE. ) );
#319 = DIRECTION ( 'NONE',  ( 0.0000000000000000000, -1.000000000000000000, 0.0000000000000000000 ) ) ;
#320 = CARTESIAN_POINT ( 'NONE',  ( 0.0000000000000000000, 0.0000000000000000000, 0.0000000000000000000 ) ) ;
#321 = DIRECTION ( 'NONE',  ( -1.224646799147353454E-16, -0.0000000000000000000, -1.000000000000000000 ) ) ;
#322 = CIRCLE ( 'NONE', #209, 0.2497499999999999998 ) ;
#323 = DIRECTION ( 'NONE',  ( 1.000000000000000000, 0.0000000000000000000, 0.0000000000000000000 ) ) ;
#324 = CARTESIAN_POINT ( 'NONE',  ( 1.226383128429217700E-16, 0.0000000000000000000, 1.001417820454904462 ) ) ;
#325 = CARTESIAN_POINT ( 'NONE',  ( 3.058555380870515566E-17, 0.0000000000000000000, 0.2497499999999999998 ) ) ;
ENDSEC;
END-ISO-10303-21;
