ISO-10303-21;
HEADER;
FILE_DESCRIPTION (( 'STEP AP214' ),
    '1' );
FILE_NAME ('Micro_GEM-250-2.STEP',
    '2021-09-01T20:14:04',
    ( '' ),
    ( '' ),
    'SwSTEP 2.0',
    'SolidWorks 2020',
    '' );
FILE_SCHEMA (( 'AUTOMOTIVE_DESIGN' ));
ENDSEC;

DATA;
#1 = LINE ( 'NONE', #19, #36 ) ;
#2 = EDGE_CURVE ( 'NONE', #124, #244, #246, .T. ) ;
#3 = DIRECTION ( 'NONE',  ( -1.000000000000000000, 0.0000000000000000000, 0.0000000000000000000 ) ) ;
#4 = FACE_OUTER_BOUND ( 'NONE', #99, .T. ) ;
#5 = AXIS2_PLACEMENT_3D ( 'NONE', #108, #105, #207 ) ;
#6 = AXIS2_PLACEMENT_3D ( 'NONE', #239, #28, #9 ) ;
#7 =( NAMED_UNIT ( * ) SI_UNIT ( $, .STERADIAN. ) SOLID_ANGLE_UNIT ( ) );
#8 = DIRECTION ( 'NONE',  ( -1.224646799147353207E-16, -0.0000000000000000000, -1.000000000000000000 ) ) ;
#9 = DIRECTION ( 'NONE',  ( 1.000000000000000000, 0.0000000000000000000, -0.0000000000000000000 ) ) ;
#10 = COLOUR_RGB ( '',0.7921568627450980005, 0.8196078431372548767, 0.9333333333333333481 ) ;
#11 = EDGE_CURVE ( 'NONE', #224, #268, #128, .T. ) ;
#12 = ORIENTED_EDGE ( 'NONE', *, *, #25, .T. ) ;
#13 = EDGE_LOOP ( 'NONE', ( #171, #265, #242, #196 ) ) ;
#14 = EDGE_CURVE ( 'NONE', #172, #264, #1, .T. ) ;
#15 =( NAMED_UNIT ( * ) PLANE_ANGLE_UNIT ( ) SI_UNIT ( $, .RADIAN. ) );
#16 = VECTOR ( 'NONE', #90, 39.37007874015747433 ) ;
#17 = AXIS2_PLACEMENT_3D ( 'NONE', #121, #141, #219 ) ;
#18 = ORIENTED_EDGE ( 'NONE', *, *, #58, .F. ) ;
#19 = CARTESIAN_POINT ( 'NONE',  ( 0.1248750000000000970, 0.0000000000000000000, 0.7500000000000001110 ) ) ;
#20 = CARTESIAN_POINT ( 'NONE',  ( 0.1100000000000001948, 1.438959988998141146E-17, 2.500000000000000000 ) ) ;
#21 = AXIS2_PLACEMENT_3D ( 'NONE', #164, #95, #255 ) ;
#22 = EDGE_CURVE ( 'NONE', #80, #124, #197, .T. ) ;
#23 = LINE ( 'NONE', #92, #173 ) ;
#24 = DIRECTION ( 'NONE',  ( 0.0000000000000000000, 0.0000000000000000000, -1.000000000000000000 ) ) ;
#25 = EDGE_CURVE ( 'NONE', #178, #264, #262, .T. ) ;
#26 = FACE_OUTER_BOUND ( 'NONE', #148, .T. ) ;
#27 = AXIS2_PLACEMENT_3D ( 'NONE', #187, #68, #111 ) ;
#28 = DIRECTION ( 'NONE',  ( 0.0000000000000000000, 0.0000000000000000000, 1.000000000000000000 ) ) ;
#29 = DIRECTION ( 'NONE',  ( 1.000000000000000000, 0.0000000000000000000, 0.0000000000000000000 ) ) ;
#30 = EDGE_CURVE ( 'NONE', #172, #39, #206, .T. ) ;
#31 = CIRCLE ( 'NONE', #216, 0.1248749999999999999 ) ;
#32 = CYLINDRICAL_SURFACE ( 'NONE', #70, 0.1250000000000000000 ) ;
#33 = CARTESIAN_POINT ( 'NONE',  ( 0.0000000000000000000, 0.0000000000000000000, 2.500000000000000000 ) ) ;
#34 =( CONVERSION_BASED_UNIT ( 'INCH', #260 ) LENGTH_UNIT ( ) NAMED_UNIT ( #202 ) );
#35 = ORIENTED_EDGE ( 'NONE', *, *, #14, .T. ) ;
#36 = VECTOR ( 'NONE', #252, 39.37007874015748143 ) ;
#37 = AXIS2_PLACEMENT_3D ( 'NONE', #210, #52, #237 ) ;
#38 = ORIENTED_EDGE ( 'NONE', *, *, #212, .T. ) ;
#39 = VERTEX_POINT ( 'NONE', #156 ) ;
#40 = DIRECTION ( 'NONE',  ( 0.0000000000000000000, 0.0000000000000000000, 1.000000000000000000 ) ) ;
#41 = ORIENTED_EDGE ( 'NONE', *, *, #238, .T. ) ;
#42 = SURFACE_STYLE_USAGE ( .BOTH. , #248 ) ;
#43 = CARTESIAN_POINT ( 'NONE',  ( 0.0000000000000000000, 0.0000000000000000000, 2.500000000000000000 ) ) ;
#44 = CYLINDRICAL_SURFACE ( 'NONE', #5, 0.1248749999999999999 ) ;
#45 = AXIS2_PLACEMENT_3D ( 'NONE', #73, #253, #137 ) ;
#46 = APPLICATION_CONTEXT ( 'automotive_design' ) ;
#47 = DIRECTION ( 'NONE',  ( 0.0000000000000000000, 0.0000000000000000000, 1.000000000000000000 ) ) ;
#48 = CARTESIAN_POINT ( 'NONE',  ( 0.1248749999999999999, 1.529277690435257475E-17, -1.529277690435257475E-17 ) ) ;
#49 = LINE ( 'NONE', #259, #179 ) ;
#50 = CIRCLE ( 'NONE', #27, 0.1248749999999999999 ) ;
#51 = VECTOR ( 'NONE', #118, 39.37007874015748143 ) ;
#52 = DIRECTION ( 'NONE',  ( 0.0000000000000000000, 0.0000000000000000000, 1.000000000000000000 ) ) ;
#53 = DIRECTION ( 'NONE',  ( -0.0000000000000000000, -0.0000000000000000000, -1.000000000000000000 ) ) ;
#54 = DIRECTION ( 'NONE',  ( -1.224646799147353207E-16, -0.0000000000000000000, -1.000000000000000000 ) ) ;
#55 = PRESENTATION_LAYER_ASSIGNMENT (  '', '', ( #222 ) ) ;
#56 = CIRCLE ( 'NONE', #129, 0.1250000000000000000 ) ;
#57 = CARTESIAN_POINT ( 'NONE',  ( -0.1248749999999999999, 0.0000000000000000000, 3.058555380870514950E-17 ) ) ;
#58 = EDGE_CURVE ( 'NONE', #244, #221, #56, .T. ) ;
#59 = EDGE_LOOP ( 'NONE', ( #199, #245, #35, #291 ) ) ;
#60 = VECTOR ( 'NONE', #225, 39.37007874015748143 ) ;
#61 = CIRCLE ( 'NONE', #228, 0.1250000000000000000 ) ;
#62 =( LENGTH_UNIT ( ) NAMED_UNIT ( * ) SI_UNIT ( $, .METRE. ) );
#63 = ORIENTED_EDGE ( 'NONE', *, *, #143, .T. ) ;
#64 = ORIENTED_EDGE ( 'NONE', *, *, #258, .F. ) ;
#65 = CARTESIAN_POINT ( 'NONE',  ( 0.0000000000000000000, 0.0000000000000000000, 0.0000000000000000000 ) ) ;
#66 = ORIENTED_EDGE ( 'NONE', *, *, #11, .F. ) ;
#67 = CYLINDRICAL_SURFACE ( 'NONE', #274, 0.1248749999999999999 ) ;
#68 = DIRECTION ( 'NONE',  ( -1.224646799147353207E-16, -0.0000000000000000000, -1.000000000000000000 ) ) ;
#69 = AXIS2_PLACEMENT_3D ( 'NONE', #109, #231, #272 ) ;
#70 = AXIS2_PLACEMENT_3D ( 'NONE', #33, #53, #3 ) ;
#71 = DIRECTION ( 'NONE',  ( -0.0000000000000000000, -0.0000000000000000000, -1.000000000000000000 ) ) ;
#72 = DIRECTION ( 'NONE',  ( -1.000000000000000000, 0.0000000000000000000, 1.224646799147353454E-16 ) ) ;
#73 = CARTESIAN_POINT ( 'NONE',  ( 9.184850993605150903E-17, 0.0000000000000000000, 0.7500000000000001110 ) ) ;
#74 = PRESENTATION_LAYER_ASSIGNMENT (  '', '', ( #101 ) ) ;
#75 = FACE_OUTER_BOUND ( 'NONE', #13, .T. ) ;
#76 = DIRECTION ( 'NONE',  ( 1.224646799147353207E-16, 0.0000000000000000000, 1.000000000000000000 ) ) ;
#77 = FACE_OUTER_BOUND ( 'NONE', #59, .T. ) ;
#78 = AXIS2_PLACEMENT_3D ( 'NONE', #233, #54, #72 ) ;
#79 = SURFACE_STYLE_FILL_AREA ( #214 ) ;
#80 = VERTEX_POINT ( 'NONE', #20 ) ;
#81 = ORIENTED_EDGE ( 'NONE', *, *, #234, .F. ) ;
#82 = AXIS2_PLACEMENT_3D ( 'NONE', #201, #71, #294 ) ;
#83 =( GEOMETRIC_REPRESENTATION_CONTEXT ( 3 ) GLOBAL_UNCERTAINTY_ASSIGNED_CONTEXT ( ( #106 ) ) GLOBAL_UNIT_ASSIGNED_CONTEXT ( ( #34, #15, #142 ) ) REPRESENTATION_CONTEXT ( 'NONE', 'WORKASPACE' ) );
#84 = ORIENTED_EDGE ( 'NONE', *, *, #93, .T. ) ;
#85 = EDGE_LOOP ( 'NONE', ( #64, #220, #12, #119 ) ) ;
#86 = AXIS2_PLACEMENT_3D ( 'NONE', #230, #249, #183 ) ;
#87 = CONICAL_SURFACE ( 'NONE', #45, 0.1248749999999999999, 0.1745329251994339192 ) ;
#88 = PRESENTATION_STYLE_ASSIGNMENT (( #42 ) ) ;
#89 = CYLINDRICAL_SURFACE ( 'NONE', #82, 0.1250000000000000000 ) ;
#90 = DIRECTION ( 'NONE',  ( -0.1736481776669312194, 2.126576849575783625E-17, 0.9848077530122080203 ) ) ;
#91 = CARTESIAN_POINT ( 'NONE',  ( 0.0000000000000000000, 0.0000000000000000000, 2.500000000000000000 ) ) ;
#92 = CARTESIAN_POINT ( 'NONE',  ( 0.1250000000000000000, 1.530808498934191509E-17, 2.500000000000000000 ) ) ;
#93 = EDGE_CURVE ( 'NONE', #172, #224, #50, .T. ) ;
#94 = CARTESIAN_POINT ( 'NONE',  ( -0.1250000000000000000, 0.0000000000000000000, 2.500000000000000000 ) ) ;
#95 = DIRECTION ( 'NONE',  ( -1.224646799147353207E-16, -0.0000000000000000000, -1.000000000000000000 ) ) ;
#96 = PLANE ( 'NONE',  #37 ) ;
#97 = ADVANCED_FACE ( 'NONE', ( #157 ), #44, .T. ) ;
#98 = EDGE_LOOP ( 'NONE', ( #290, #176, #217, #81 ) ) ;
#99 = EDGE_LOOP ( 'NONE', ( #41, #288 ) ) ;
#100 = VECTOR ( 'NONE', #229, 39.37007874015748143 ) ;
#101 = STYLED_ITEM ( 'NONE', ( #285 ), #256 ) ;
#102 =( NAMED_UNIT ( * ) PLANE_ANGLE_UNIT ( ) SI_UNIT ( $, .RADIAN. ) );
#103 = ORIENTED_EDGE ( 'NONE', *, *, #30, .T. ) ;
#104 = ORIENTED_EDGE ( 'NONE', *, *, #143, .F. ) ;
#105 = DIRECTION ( 'NONE',  ( -1.224646799147353207E-16, -0.0000000000000000000, -1.000000000000000000 ) ) ;
#106 = UNCERTAINTY_MEASURE_WITH_UNIT (LENGTH_MEASURE( 1.000000000000000082E-05 ), #34, 'distance_accuracy_value', 'NONE');
#107 = CONICAL_SURFACE ( 'NONE', #279, 0.1248749999999999999, 0.1745329251994339192 ) ;
#108 = CARTESIAN_POINT ( 'NONE',  ( 0.0000000000000000000, 0.0000000000000000000, 0.0000000000000000000 ) ) ;
#109 = CARTESIAN_POINT ( 'NONE',  ( 0.0000000000000000000, 0.0000000000000000000, 2.500000000000000000 ) ) ;
#110 = CARTESIAN_POINT ( 'NONE',  ( -0.1248749999999999999, 0.0000000000000000000, 1.529277690435257475E-17 ) ) ;
#111 = DIRECTION ( 'NONE',  ( -1.000000000000000000, 0.0000000000000000000, 0.0000000000000000000 ) ) ;
#112 = FACE_OUTER_BOUND ( 'NONE', #85, .T. ) ;
#113 = ADVANCED_FACE ( 'NONE', ( #295 ), #89, .T. ) ;
#114 =( CONVERSION_BASED_UNIT ( 'INCH', #115 ) LENGTH_UNIT ( ) NAMED_UNIT ( #154 ) );
#115 = LENGTH_MEASURE_WITH_UNIT ( LENGTH_MEASURE( 0.02539999999999999897 ), #276 );
#116 = MECHANICAL_DESIGN_GEOMETRIC_PRESENTATION_REPRESENTATION (  '', ( #101 ), #263 ) ;
#117 = EDGE_CURVE ( 'NONE', #221, #264, #23, .T. ) ;
#118 = DIRECTION ( 'NONE',  ( -0.0000000000000000000, -0.0000000000000000000, -1.000000000000000000 ) ) ;
#119 = ORIENTED_EDGE ( 'NONE', *, *, #14, .F. ) ;
#120 = EDGE_LOOP ( 'NONE', ( #63, #126 ) ) ;
#121 = CARTESIAN_POINT ( 'NONE',  ( 0.0000000000000000000, 0.0000000000000000000, 2.500000000000000000 ) ) ;
#122 = ORIENTED_EDGE ( 'NONE', *, *, #181, .F. ) ;
#123 = APPLICATION_PROTOCOL_DEFINITION ( 'draft international standard', 'automotive_design', 1998, #209 ) ;
#124 = VERTEX_POINT ( 'NONE', #182 ) ;
#125 = ADVANCED_FACE ( 'NONE', ( #133 ), #232, .T. ) ;
#126 = ORIENTED_EDGE ( 'NONE', *, *, #22, .T. ) ;
#127 = DIRECTION ( 'NONE',  ( -1.000000000000000000, 0.0000000000000000000, 1.224646799147353454E-16 ) ) ;
#128 = LINE ( 'NONE', #110, #60 ) ;
#129 = AXIS2_PLACEMENT_3D ( 'NONE', #273, #24, #180 ) ;
#130 = DIRECTION ( 'NONE',  ( -0.0000000000000000000, -0.0000000000000000000, -1.000000000000000000 ) ) ;
#131 = ADVANCED_FACE ( 'NONE', ( #26 ), #67, .T. ) ;
#132 = FILL_AREA_STYLE ('',( #251 ) ) ;
#133 = FACE_OUTER_BOUND ( 'NONE', #151, .T. ) ;
#134 = DIRECTION ( 'NONE',  ( -1.000000000000000000, 0.0000000000000000000, 0.0000000000000000000 ) ) ;
#135 = PRODUCT_DEFINITION_FORMATION_WITH_SPECIFIED_SOURCE ( 'ANY', '', #283, .NOT_KNOWN. ) ;
#136 = DIRECTION ( 'NONE',  ( 1.000000000000000000, 0.0000000000000000000, 0.0000000000000000000 ) ) ;
#137 = DIRECTION ( 'NONE',  ( 1.000000000000000000, 0.0000000000000000000, 0.0000000000000000000 ) ) ;
#138 = CARTESIAN_POINT ( 'NONE',  ( 0.1250000000000000000, 1.530808498934191509E-17, 2.485000000000000320 ) ) ;
#139 = AXIS2_PLACEMENT_3D ( 'NONE', #91, #277, #205 ) ;
#140 = DIRECTION ( 'NONE',  ( 0.0000000000000000000, 0.0000000000000000000, -1.000000000000000000 ) ) ;
#141 = DIRECTION ( 'NONE',  ( 0.0000000000000000000, 0.0000000000000000000, -1.000000000000000000 ) ) ;
#142 =( NAMED_UNIT ( * ) SI_UNIT ( $, .STERADIAN. ) SOLID_ANGLE_UNIT ( ) );
#143 = EDGE_CURVE ( 'NONE', #124, #80, #236, .T. ) ;
#144 = EDGE_LOOP ( 'NONE', ( #146, #104, #261, #286 ) ) ;
#145 = CIRCLE ( 'NONE', #78, 0.1248749999999999999 ) ;
#146 = ORIENTED_EDGE ( 'NONE', *, *, #212, .F. ) ;
#147 =( NAMED_UNIT ( * ) SI_UNIT ( $, .STERADIAN. ) SOLID_ANGLE_UNIT ( ) );
#148 = EDGE_LOOP ( 'NONE', ( #200, #103, #267, #66 ) ) ;
#149 = EDGE_CURVE ( 'NONE', #224, #178, #297, .T. ) ;
#150 = SHAPE_DEFINITION_REPRESENTATION ( #208, #256 ) ;
#151 = EDGE_LOOP ( 'NONE', ( #218, #38, #18, #194 ) ) ;
#152 = CONICAL_SURFACE ( 'NONE', #17, 0.1100000000000001948, 0.7853981633974517207 ) ;
#153 = SURFACE_STYLE_FILL_AREA ( #132 ) ;
#154 = DIMENSIONAL_EXPONENTS ( 1.000000000000000000, 0.0000000000000000000, 0.0000000000000000000, 0.0000000000000000000, 0.0000000000000000000, 0.0000000000000000000, 0.0000000000000000000 ) ;
#155 = PRODUCT_DEFINITION_CONTEXT ( 'detailed design', #46, 'design' ) ;
#156 = CARTESIAN_POINT ( 'NONE',  ( 0.1248749999999999999, 1.529277690435257475E-17, 0.0000000000000000000 ) ) ;
#157 = FACE_OUTER_BOUND ( 'NONE', #293, .T. ) ;
#158 = DIMENSIONAL_EXPONENTS ( 1.000000000000000000, 0.0000000000000000000, 0.0000000000000000000, 0.0000000000000000000, 0.0000000000000000000, 0.0000000000000000000, 0.0000000000000000000 ) ;
#159 = PRODUCT_DEFINITION ( 'UNKNOWN', '', #135, #155 ) ;
#160 =( GEOMETRIC_REPRESENTATION_CONTEXT ( 3 ) GLOBAL_UNCERTAINTY_ASSIGNED_CONTEXT ( ( #270 ) ) GLOBAL_UNIT_ASSIGNED_CONTEXT ( ( #114, #213, #7 ) ) REPRESENTATION_CONTEXT ( 'NONE', 'WORKASPACE' ) );
#161 = CARTESIAN_POINT ( 'NONE',  ( 9.184850993605150903E-17, 0.0000000000000000000, 0.7500000000000001110 ) ) ;
#162 = DIRECTION ( 'NONE',  ( -1.224646799147353207E-16, -0.0000000000000000000, -1.000000000000000000 ) ) ;
#163 = CARTESIAN_POINT ( 'NONE',  ( 9.184850993605150903E-17, 0.0000000000000000000, 0.7500000000000001110 ) ) ;
#164 = CARTESIAN_POINT ( 'NONE',  ( 1.872825028598994811E-33, 0.0000000000000000000, 1.529277690435257475E-17 ) ) ;
#165 = PLANE ( 'NONE',  #6 ) ;
#166 = DIRECTION ( 'NONE',  ( 0.7071067811865499042, 8.659560562354961208E-17, -0.7071067811865451302 ) ) ;
#167 = CARTESIAN_POINT ( 'NONE',  ( 0.0000000000000000000, 0.0000000000000000000, 2.485000000000000320 ) ) ;
#168 = MANIFOLD_SOLID_BREP ( 'Cut-Revolve1', #215 ) ;
#169 = ADVANCED_FACE ( 'NONE', ( #112 ), #107, .T. ) ;
#170 =( LENGTH_UNIT ( ) NAMED_UNIT ( * ) SI_UNIT ( $, .METRE. ) );
#171 = ORIENTED_EDGE ( 'NONE', *, *, #58, .T. ) ;
#172 = VERTEX_POINT ( 'NONE', #191 ) ;
#173 = VECTOR ( 'NONE', #130, 39.37007874015748143 ) ;
#174 = CIRCLE ( 'NONE', #21, 0.1248749999999999999 ) ;
#175 = APPLICATION_PROTOCOL_DEFINITION ( 'draft international standard', 'automotive_design', 1998, #46 ) ;
#176 = ORIENTED_EDGE ( 'NONE', *, *, #287, .T. ) ;
#177 = ADVANCED_FACE ( 'NONE', ( #188 ), #165, .T. ) ;
#178 = VERTEX_POINT ( 'NONE', #211 ) ;
#179 = VECTOR ( 'NONE', #166, 39.37007874015748143 ) ;
#180 = DIRECTION ( 'NONE',  ( 1.000000000000000000, 0.0000000000000000000, 0.0000000000000000000 ) ) ;
#181 = EDGE_CURVE ( 'NONE', #39, #268, #174, .T. ) ;
#182 = CARTESIAN_POINT ( 'NONE',  ( -0.1100000000000001948, 0.0000000000000000000, 2.500000000000000000 ) ) ;
#183 = DIRECTION ( 'NONE',  ( 1.000000000000000000, 0.0000000000000000000, 0.0000000000000000000 ) ) ;
#184 = COLOUR_RGB ( '',0.7921568627450980005, 0.8196078431372548767, 0.9333333333333333481 ) ;
#185 = AXIS2_PLACEMENT_3D ( 'NONE', #189, #281, #257 ) ;
#186 = ADVANCED_FACE ( 'NONE', ( #4 ), #96, .F. ) ;
#187 = CARTESIAN_POINT ( 'NONE',  ( 9.184850993605150903E-17, 0.0000000000000000000, 0.7500000000000001110 ) ) ;
#188 = FACE_OUTER_BOUND ( 'NONE', #120, .T. ) ;
#189 = CARTESIAN_POINT ( 'NONE',  ( 9.193532640014472135E-17, 0.0000000000000000000, 0.7507089102274522308 ) ) ;
#190 = CIRCLE ( 'NONE', #185, 0.1250000000000000000 ) ;
#191 = CARTESIAN_POINT ( 'NONE',  ( 0.1248750000000000970, 0.0000000000000000000, 0.7500000000000001110 ) ) ;
#192 = CARTESIAN_POINT ( 'NONE',  ( 0.1250000000000000833, 1.530808498934192433E-17, 0.7507089102274522308 ) ) ;
#193 = ORIENTED_EDGE ( 'NONE', *, *, #30, .F. ) ;
#194 = ORIENTED_EDGE ( 'NONE', *, *, #2, .F. ) ;
#195 = LENGTH_MEASURE_WITH_UNIT ( LENGTH_MEASURE( 0.02539999999999999897 ), #62 );
#196 = ORIENTED_EDGE ( 'NONE', *, *, #203, .F. ) ;
#197 = CIRCLE ( 'NONE', #227, 0.1100000000000001948 ) ;
#198 = SURFACE_SIDE_STYLE ('',( #79 ) ) ;
#199 = ORIENTED_EDGE ( 'NONE', *, *, #149, .F. ) ;
#200 = ORIENTED_EDGE ( 'NONE', *, *, #258, .T. ) ;
#201 = CARTESIAN_POINT ( 'NONE',  ( 0.0000000000000000000, 0.0000000000000000000, 2.500000000000000000 ) ) ;
#202 = DIMENSIONAL_EXPONENTS ( 1.000000000000000000, 0.0000000000000000000, 0.0000000000000000000, 0.0000000000000000000, 0.0000000000000000000, 0.0000000000000000000, 0.0000000000000000000 ) ;
#203 = EDGE_CURVE ( 'NONE', #244, #178, #284, .T. ) ;
#204 = DIRECTION ( 'NONE',  ( 1.000000000000000000, 0.0000000000000000000, 0.0000000000000000000 ) ) ;
#205 = DIRECTION ( 'NONE',  ( 1.000000000000000000, 0.0000000000000000000, 0.0000000000000000000 ) ) ;
#206 = LINE ( 'NONE', #48, #269 ) ;
#207 = DIRECTION ( 'NONE',  ( -1.000000000000000000, 0.0000000000000000000, 1.224646799147353454E-16 ) ) ;
#208 = PRODUCT_DEFINITION_SHAPE ( 'NONE', 'NONE',  #159 ) ;
#209 = APPLICATION_CONTEXT ( 'automotive_design' ) ;
#210 = CARTESIAN_POINT ( 'NONE',  ( 0.0000000000000000000, 0.0000000000000000000, 0.0000000000000000000 ) ) ;
#211 = CARTESIAN_POINT ( 'NONE',  ( -0.1249999999999999167, 0.0000000000000000000, 0.7507089102274522308 ) ) ;
#212 = EDGE_CURVE ( 'NONE', #80, #221, #49, .T. ) ;
#213 =( NAMED_UNIT ( * ) PLANE_ANGLE_UNIT ( ) SI_UNIT ( $, .RADIAN. ) );
#214 = FILL_AREA_STYLE ('',( #223 ) ) ;
#215 = CLOSED_SHELL ( 'NONE', ( #131, #169, #125, #254, #113, #177, #292, #282, #97, #186 ) ) ;
#216 = AXIS2_PLACEMENT_3D ( 'NONE', #163, #8, #134 ) ;
#217 = ORIENTED_EDGE ( 'NONE', *, *, #203, .T. ) ;
#218 = ORIENTED_EDGE ( 'NONE', *, *, #22, .F. ) ;
#219 = DIRECTION ( 'NONE',  ( -1.000000000000000000, 0.0000000000000000000, 0.0000000000000000000 ) ) ;
#220 = ORIENTED_EDGE ( 'NONE', *, *, #149, .T. ) ;
#221 = VERTEX_POINT ( 'NONE', #138 ) ;
#222 = STYLED_ITEM ( 'NONE', ( #88 ), #168 ) ;
#223 = FILL_AREA_STYLE_COLOUR ( '', #10 ) ;
#224 = VERTEX_POINT ( 'NONE', #278 ) ;
#225 = DIRECTION ( 'NONE',  ( -1.224646799147353207E-16, -0.0000000000000000000, -1.000000000000000000 ) ) ;
#226 = CARTESIAN_POINT ( 'NONE',  ( -0.1100000000000001948, 0.0000000000000000000, 2.500000000000000000 ) ) ;
#227 = AXIS2_PLACEMENT_3D ( 'NONE', #43, #47, #204 ) ;
#228 = AXIS2_PLACEMENT_3D ( 'NONE', #167, #140, #136 ) ;
#229 = DIRECTION ( 'NONE',  ( -0.7071067811865499042, 0.0000000000000000000, -0.7071067811865451302 ) ) ;
#230 = CARTESIAN_POINT ( 'NONE',  ( 9.193532640014472135E-17, 0.0000000000000000000, 0.7507089102274522308 ) ) ;
#231 = DIRECTION ( 'NONE',  ( 0.0000000000000000000, 0.0000000000000000000, -1.000000000000000000 ) ) ;
#232 = CONICAL_SURFACE ( 'NONE', #69, 0.1100000000000001948, 0.7853981633974517207 ) ;
#233 = CARTESIAN_POINT ( 'NONE',  ( 1.872825028598994811E-33, 0.0000000000000000000, 1.529277690435257475E-17 ) ) ;
#234 = EDGE_CURVE ( 'NONE', #264, #178, #190, .T. ) ;
#235 = FACE_OUTER_BOUND ( 'NONE', #144, .T. ) ;
#236 = CIRCLE ( 'NONE', #139, 0.1100000000000001948 ) ;
#237 = DIRECTION ( 'NONE',  ( 1.000000000000000000, 0.0000000000000000000, -0.0000000000000000000 ) ) ;
#238 = EDGE_CURVE ( 'NONE', #268, #39, #145, .T. ) ;
#239 = CARTESIAN_POINT ( 'NONE',  ( 0.0000000000000000000, 0.0000000000000000000, 2.500000000000000000 ) ) ;
#240 = ORIENTED_EDGE ( 'NONE', *, *, #11, .T. ) ;
#241 = SURFACE_STYLE_USAGE ( .BOTH. , #198 ) ;
#242 = ORIENTED_EDGE ( 'NONE', *, *, #25, .F. ) ;
#243 = DIRECTION ( 'NONE',  ( 1.000000000000000000, 0.0000000000000000000, 0.0000000000000000000 ) ) ;
#244 = VERTEX_POINT ( 'NONE', #280 ) ;
#245 = ORIENTED_EDGE ( 'NONE', *, *, #93, .F. ) ;
#246 = LINE ( 'NONE', #226, #100 ) ;
#247 = UNCERTAINTY_MEASURE_WITH_UNIT (LENGTH_MEASURE( 1.000000000000000082E-05 ), #266, 'distance_accuracy_value', 'NONE');
#248 = SURFACE_SIDE_STYLE ('',( #153 ) ) ;
#249 = DIRECTION ( 'NONE',  ( -1.224646799147353207E-16, -0.0000000000000000000, -1.000000000000000000 ) ) ;
#250 = CARTESIAN_POINT ( 'NONE',  ( 0.0000000000000000000, 0.0000000000000000000, 0.0000000000000000000 ) ) ;
#251 = FILL_AREA_STYLE_COLOUR ( '', #184 ) ;
#252 = DIRECTION ( 'NONE',  ( 0.1736481776669314137, 0.0000000000000000000, 0.9848077530122077983 ) ) ;
#253 = DIRECTION ( 'NONE',  ( 1.224646799147353207E-16, 0.0000000000000000000, 1.000000000000000000 ) ) ;
#254 = ADVANCED_FACE ( 'NONE', ( #75 ), #32, .T. ) ;
#255 = DIRECTION ( 'NONE',  ( -1.000000000000000000, 0.0000000000000000000, 1.224646799147353454E-16 ) ) ;
#256 = ADVANCED_BREP_SHAPE_REPRESENTATION ( 'Micro_GEM-250-2', ( #168, #275 ), #83 ) ;
#257 = DIRECTION ( 'NONE',  ( 1.000000000000000000, 0.0000000000000000000, 0.0000000000000000000 ) ) ;
#258 = EDGE_CURVE ( 'NONE', #224, #172, #31, .T. ) ;
#259 = CARTESIAN_POINT ( 'NONE',  ( 0.1100000000000001948, 1.347111479062090784E-17, 2.500000000000000000 ) ) ;
#260 = LENGTH_MEASURE_WITH_UNIT ( LENGTH_MEASURE( 0.02539999999999999897 ), #170 );
#261 = ORIENTED_EDGE ( 'NONE', *, *, #2, .T. ) ;
#262 = CIRCLE ( 'NONE', #86, 0.1250000000000000000 ) ;
#263 =( GEOMETRIC_REPRESENTATION_CONTEXT ( 3 ) GLOBAL_UNCERTAINTY_ASSIGNED_CONTEXT ( ( #247 ) ) GLOBAL_UNIT_ASSIGNED_CONTEXT ( ( #266, #102, #147 ) ) REPRESENTATION_CONTEXT ( 'NONE', 'WORKASPACE' ) );
#264 = VERTEX_POINT ( 'NONE', #192 ) ;
#265 = ORIENTED_EDGE ( 'NONE', *, *, #117, .T. ) ;
#266 =( CONVERSION_BASED_UNIT ( 'INCH', #195 ) LENGTH_UNIT ( ) NAMED_UNIT ( #158 ) );
#267 = ORIENTED_EDGE ( 'NONE', *, *, #238, .F. ) ;
#268 = VERTEX_POINT ( 'NONE', #57 ) ;
#269 = VECTOR ( 'NONE', #298, 39.37007874015748143 ) ;
#270 = UNCERTAINTY_MEASURE_WITH_UNIT (LENGTH_MEASURE( 1.000000000000000082E-05 ), #114, 'distance_accuracy_value', 'NONE');
#271 = CARTESIAN_POINT ( 'NONE',  ( -0.1248749999999999166, 1.529277690435257475E-17, 0.7500000000000001110 ) ) ;
#272 = DIRECTION ( 'NONE',  ( -1.000000000000000000, 0.0000000000000000000, 0.0000000000000000000 ) ) ;
#273 = CARTESIAN_POINT ( 'NONE',  ( 0.0000000000000000000, 0.0000000000000000000, 2.485000000000000320 ) ) ;
#274 = AXIS2_PLACEMENT_3D ( 'NONE', #250, #162, #127 ) ;
#275 = AXIS2_PLACEMENT_3D ( 'NONE', #65, #40, #243 ) ;
#276 =( LENGTH_UNIT ( ) NAMED_UNIT ( * ) SI_UNIT ( $, .METRE. ) );
#277 = DIRECTION ( 'NONE',  ( 0.0000000000000000000, 0.0000000000000000000, 1.000000000000000000 ) ) ;
#278 = CARTESIAN_POINT ( 'NONE',  ( -0.1248749999999999166, 1.530043094684724646E-17, 0.7500000000000001110 ) ) ;
#279 = AXIS2_PLACEMENT_3D ( 'NONE', #161, #76, #29 ) ;
#280 = CARTESIAN_POINT ( 'NONE',  ( -0.1250000000000000000, 0.0000000000000000000, 2.485000000000000320 ) ) ;
#281 = DIRECTION ( 'NONE',  ( -1.224646799147353207E-16, -0.0000000000000000000, -1.000000000000000000 ) ) ;
#282 = ADVANCED_FACE ( 'NONE', ( #77 ), #87, .T. ) ;
#283 = PRODUCT ( 'Micro_GEM-250-2', 'Micro_GEM-250-2', '', ( #289 ) ) ;
#284 = LINE ( 'NONE', #94, #51 ) ;
#285 = PRESENTATION_STYLE_ASSIGNMENT (( #241 ) ) ;
#286 = ORIENTED_EDGE ( 'NONE', *, *, #287, .F. ) ;
#287 = EDGE_CURVE ( 'NONE', #221, #244, #61, .T. ) ;
#288 = ORIENTED_EDGE ( 'NONE', *, *, #181, .T. ) ;
#289 = PRODUCT_CONTEXT ( 'NONE', #209, 'mechanical' ) ;
#290 = ORIENTED_EDGE ( 'NONE', *, *, #117, .F. ) ;
#291 = ORIENTED_EDGE ( 'NONE', *, *, #234, .T. ) ;
#292 = ADVANCED_FACE ( 'NONE', ( #235 ), #152, .T. ) ;
#293 = EDGE_LOOP ( 'NONE', ( #193, #84, #240, #122 ) ) ;
#294 = DIRECTION ( 'NONE',  ( -1.000000000000000000, 0.0000000000000000000, 0.0000000000000000000 ) ) ;
#295 = FACE_OUTER_BOUND ( 'NONE', #98, .T. ) ;
#296 = PRODUCT_RELATED_PRODUCT_CATEGORY ( 'part', '', ( #283 ) ) ;
#297 = LINE ( 'NONE', #271, #16 ) ;
#298 = DIRECTION ( 'NONE',  ( -1.224646799147353207E-16, -0.0000000000000000000, -1.000000000000000000 ) ) ;
#299 = MECHANICAL_DESIGN_GEOMETRIC_PRESENTATION_REPRESENTATION (  '', ( #222 ), #160 ) ;
ENDSEC;
END-ISO-10303-21;
