ISO-10303-21;
HEADER;
FILE_DESCRIPTION (( 'STEP AP214' ),
    '1' );
FILE_NAME ('Micro_BMS-030-2X.STEP',
    '2021-09-03T15:07:40',
    ( '' ),
    ( '' ),
    'SwSTEP 2.0',
    'SolidWorks 2020',
    '' );
FILE_SCHEMA (( 'AUTOMOTIVE_DESIGN' ));
ENDSEC;

DATA;
#1 = AXIS2_PLACEMENT_3D ( 'NONE', #201, #275, #60 ) ;
#2 = EDGE_LOOP ( 'NONE', ( #102, #127, #299, #74 ) ) ;
#3 = CARTESIAN_POINT ( 'NONE',  ( 0.0000000000000000000, 0.0000000000000000000, 1.500000000000000222 ) ) ;
#4 = CARTESIAN_POINT ( 'NONE',  ( 0.01498500000000000006, 1.835133228522308816E-18, -1.835133228522309201E-18 ) ) ;
#5 = PRODUCT_DEFINITION ( 'UNKNOWN', '', #215, #49 ) ;
#6 = EDGE_CURVE ( 'NONE', #168, #189, #318, .T. ) ;
#7 = CIRCLE ( 'NONE', #238, 0.06250000000000000000 ) ;
#8 = DIRECTION ( 'NONE',  ( -0.0000000000000000000, -0.0000000000000000000, -1.000000000000000000 ) ) ;
#9 = DIRECTION ( 'NONE',  ( -1.000000000000000000, 1.224646799147353207E-16, 0.0000000000000000000 ) ) ;
#10 = SURFACE_STYLE_FILL_AREA ( #84 ) ;
#11 = DIRECTION ( 'NONE',  ( 0.0000000000000000000, 0.0000000000000000000, -1.000000000000000000 ) ) ;
#12 = VECTOR ( 'NONE', #30, 39.37007874015748143 ) ;
#13 = FILL_AREA_STYLE ('',( #263 ) ) ;
#14 = DIRECTION ( 'NONE',  ( -1.224646799147353454E-16, -0.0000000000000000000, -1.000000000000000000 ) ) ;
#15 = SURFACE_STYLE_FILL_AREA ( #13 ) ;
#16 = SURFACE_STYLE_USAGE ( .BOTH. , #118 ) ;
#17 = AXIS2_PLACEMENT_3D ( 'NONE', #203, #282, #227 ) ;
#18 = AXIS2_PLACEMENT_3D ( 'NONE', #117, #140, #42 ) ;
#19 = SHAPE_DEFINITION_REPRESENTATION ( #153, #298 ) ;
#20 = VERTEX_POINT ( 'NONE', #312 ) ;
#21 = CONICAL_SURFACE ( 'NONE', #254, 0.04750000000000064587, 0.7853981633974457255 ) ;
#22 = AXIS2_PLACEMENT_3D ( 'NONE', #257, #107, #36 ) ;
#23 = ORIENTED_EDGE ( 'NONE', *, *, #314, .T. ) ;
#24 = ORIENTED_EDGE ( 'NONE', *, *, #51, .F. ) ;
#25 = CARTESIAN_POINT ( 'NONE',  ( 0.0000000000000000000, 0.0000000000000000000, 0.0000000000000000000 ) ) ;
#26 = PRODUCT_RELATED_PRODUCT_CATEGORY ( 'part', '', ( #202 ) ) ;
#27 = ADVANCED_FACE ( 'NONE', ( #281 ), #75, .T. ) ;
#28 = ORIENTED_EDGE ( 'NONE', *, *, #6, .F. ) ;
#29 = ORIENTED_EDGE ( 'NONE', *, *, #285, .T. ) ;
#30 = DIRECTION ( 'NONE',  ( 0.1736481776669313304, 0.0000000000000000000, 0.9848077530122077983 ) ) ;
#31 = FACE_OUTER_BOUND ( 'NONE', #100, .T. ) ;
#32 = CONICAL_SURFACE ( 'NONE', #186, 0.04750000000000064587, 0.7853981633974457255 ) ;
#33 = DIRECTION ( 'NONE',  ( -0.7071067811865456854, 0.0000000000000000000, -0.7071067811865493491 ) ) ;
#34 =( NAMED_UNIT ( * ) SI_UNIT ( $, .STERADIAN. ) SOLID_ANGLE_UNIT ( ) );
#35 = DIRECTION ( 'NONE',  ( -0.1736481776669311639, 2.126576849575782392E-17, 0.9848077530122080203 ) ) ;
#36 = DIRECTION ( 'NONE',  ( 1.000000000000000000, 0.0000000000000000000, -0.0000000000000000000 ) ) ;
#37 = CARTESIAN_POINT ( 'NONE',  ( 5.510910596163090326E-18, 0.0000000000000000000, 0.04499999999999999833 ) ) ;
#38 = SPHERICAL_SURFACE ( 'NONE', #87, 0.01498500000000000006 ) ;
#39 = LINE ( 'NONE', #239, #95 ) ;
#40 = EDGE_CURVE ( 'NONE', #73, #189, #145, .T. ) ;
#41 = DIRECTION ( 'NONE',  ( -1.000000000000000000, 0.0000000000000000000, 1.224646799147353454E-16 ) ) ;
#42 = DIRECTION ( 'NONE',  ( -1.000000000000000000, 0.0000000000000000000, 0.0000000000000000000 ) ) ;
#43 = AXIS2_PLACEMENT_3D ( 'NONE', #69, #160, #41 ) ;
#44 = UNCERTAINTY_MEASURE_WITH_UNIT (LENGTH_MEASURE( 1.000000000000000082E-05 ), #176, 'distance_accuracy_value', 'NONE');
#45 = DIRECTION ( 'NONE',  ( 0.0000000000000000000, 0.0000000000000000000, 1.000000000000000000 ) ) ;
#46 = ORIENTED_EDGE ( 'NONE', *, *, #181, .F. ) ;
#47 = EDGE_LOOP ( 'NONE', ( #76, #128, #302 ) ) ;
#48 = AXIS2_PLACEMENT_3D ( 'NONE', #131, #114, #209 ) ;
#49 = PRODUCT_DEFINITION_CONTEXT ( 'detailed design', #214, 'design' ) ;
#50 = ORIENTED_EDGE ( 'NONE', *, *, #291, .T. ) ;
#51 = EDGE_CURVE ( 'NONE', #166, #325, #151, .T. ) ;
#52 = EDGE_LOOP ( 'NONE', ( #296, #217, #165, #28 ) ) ;
#53 = DIMENSIONAL_EXPONENTS ( 1.000000000000000000, 0.0000000000000000000, 0.0000000000000000000, 0.0000000000000000000, 0.0000000000000000000, 0.0000000000000000000, 0.0000000000000000000 ) ;
#54 = EDGE_LOOP ( 'NONE', ( #268, #122, #98, #272 ) ) ;
#55 = VECTOR ( 'NONE', #234, 39.37007874015748143 ) ;
#56 = PRESENTATION_LAYER_ASSIGNMENT (  '', '', ( #89 ) ) ;
#57 = LINE ( 'NONE', #129, #292 ) ;
#58 =( NAMED_UNIT ( * ) PLANE_ANGLE_UNIT ( ) SI_UNIT ( $, .RADIAN. ) );
#59 = CARTESIAN_POINT ( 'NONE',  ( -0.04750000000000064587, 0.0000000000000000000, 1.500000000000000222 ) ) ;
#60 = DIRECTION ( 'NONE',  ( -1.000000000000000000, 0.0000000000000000000, 0.0000000000000000000 ) ) ;
#61 = AXIS2_PLACEMENT_3D ( 'NONE', #83, #130, #9 ) ;
#62 = CARTESIAN_POINT ( 'NONE',  ( 0.04750000000000064587, 6.735557395310482421E-18, 1.500000000000000222 ) ) ;
#63 = CARTESIAN_POINT ( 'NONE',  ( 5.510910596163090326E-18, 0.0000000000000000000, 0.04499999999999999833 ) ) ;
#64 = DIRECTION ( 'NONE',  ( 1.000000000000000000, 0.0000000000000000000, 0.0000000000000000000 ) ) ;
#65 = MECHANICAL_DESIGN_GEOMETRIC_PRESENTATION_REPRESENTATION (  '', ( #89 ), #105 ) ;
#66 = DIRECTION ( 'NONE',  ( 0.0000000000000000000, 1.000000000000000000, 0.0000000000000000000 ) ) ;
#67 = ADVANCED_FACE ( 'NONE', ( #226 ), #21, .T. ) ;
#68 = FACE_OUTER_BOUND ( 'NONE', #144, .T. ) ;
#69 = CARTESIAN_POINT ( 'NONE',  ( 0.0000000000000000000, 0.0000000000000000000, 0.0000000000000000000 ) ) ;
#70 = AXIS2_PLACEMENT_3D ( 'NONE', #261, #185, #64 ) ;
#71 = MECHANICAL_DESIGN_GEOMETRIC_PRESENTATION_REPRESENTATION (  '', ( #115 ), #113 ) ;
#72 = ORIENTED_EDGE ( 'NONE', *, *, #174, .F. ) ;
#73 = VERTEX_POINT ( 'NONE', #85 ) ;
#74 = ORIENTED_EDGE ( 'NONE', *, *, #92, .F. ) ;
#75 = CONICAL_SURFACE ( 'NONE', #200, 0.01498499999999999832, 0.1745329251994338360 ) ;
#76 = ORIENTED_EDGE ( 'NONE', *, *, #314, .F. ) ;
#77 = APPLICATION_PROTOCOL_DEFINITION ( 'draft international standard', 'automotive_design', 1998, #214 ) ;
#78 = ORIENTED_EDGE ( 'NONE', *, *, #307, .T. ) ;
#79 = LINE ( 'NONE', #205, #12 ) ;
#80 = AXIS2_PLACEMENT_3D ( 'NONE', #63, #249, #179 ) ;
#81 =( NAMED_UNIT ( * ) PLANE_ANGLE_UNIT ( ) SI_UNIT ( $, .RADIAN. ) );
#82 = CARTESIAN_POINT ( 'NONE',  ( 0.01498500000000000526, 0.0000000000000000000, 0.04499999999999999833 ) ) ;
#83 = CARTESIAN_POINT ( 'NONE',  ( 1.835133228522309201E-18, 0.0000000000000000000, 0.01498500000000000006 ) ) ;
#84 = FILL_AREA_STYLE ('',( #276 ) ) ;
#85 = CARTESIAN_POINT ( 'NONE',  ( 0.06250000000000000000, 7.654042494670956004E-18, 1.485000000000000764 ) ) ;
#86 = ADVANCED_FACE ( 'NONE', ( #109 ), #158, .T. ) ;
#87 = AXIS2_PLACEMENT_3D ( 'NONE', #96, #66, #286 ) ;
#88 = DIRECTION ( 'NONE',  ( 0.0000000000000000000, 0.0000000000000000000, 1.000000000000000000 ) ) ;
#89 = STYLED_ITEM ( 'NONE', ( #212 ), #294 ) ;
#90 = FACE_OUTER_BOUND ( 'NONE', #52, .T. ) ;
#91 = DIRECTION ( 'NONE',  ( 1.000000000000000000, 0.0000000000000000000, 0.0000000000000000000 ) ) ;
#92 = EDGE_CURVE ( 'NONE', #166, #148, #79, .T. ) ;
#93 = PLANE ( 'NONE',  #22 ) ;
#94 = AXIS2_PLACEMENT_3D ( 'NONE', #3, #8, #111 ) ;
#95 = VECTOR ( 'NONE', #236, 39.37007874015748143 ) ;
#96 = CARTESIAN_POINT ( 'NONE',  ( 1.835133228522309201E-18, 0.0000000000000000000, 0.01498500000000000006 ) ) ;
#97 = ORIENTED_EDGE ( 'NONE', *, *, #278, .T. ) ;
#98 = ORIENTED_EDGE ( 'NONE', *, *, #92, .T. ) ;
#99 = ADVANCED_FACE ( 'NONE', ( #90 ), #32, .T. ) ;
#100 = EDGE_LOOP ( 'NONE', ( #72, #23, #150 ) ) ;
#101 = ORIENTED_EDGE ( 'NONE', *, *, #120, .T. ) ;
#102 = ORIENTED_EDGE ( 'NONE', *, *, #278, .F. ) ;
#103 = CARTESIAN_POINT ( 'NONE',  ( 0.0000000000000000000, 0.0000000000000000000, 1.500000000000000222 ) ) ;
#104 = DIRECTION ( 'NONE',  ( 1.000000000000000000, 0.0000000000000000000, 0.0000000000000000000 ) ) ;
#105 =( GEOMETRIC_REPRESENTATION_CONTEXT ( 3 ) GLOBAL_UNCERTAINTY_ASSIGNED_CONTEXT ( ( #196 ) ) GLOBAL_UNIT_ASSIGNED_CONTEXT ( ( #283, #58, #34 ) ) REPRESENTATION_CONTEXT ( 'NONE', 'WORKASPACE' ) );
#106 = DIMENSIONAL_EXPONENTS ( 1.000000000000000000, 0.0000000000000000000, 0.0000000000000000000, 0.0000000000000000000, 0.0000000000000000000, 0.0000000000000000000, 0.0000000000000000000 ) ;
#107 = DIRECTION ( 'NONE',  ( 0.0000000000000000000, 0.0000000000000000000, 1.000000000000000000 ) ) ;
#108 = DIRECTION ( 'NONE',  ( -1.000000000000000000, 0.0000000000000000000, 1.424261758458595593E-16 ) ) ;
#109 = FACE_OUTER_BOUND ( 'NONE', #125, .T. ) ;
#110 = LENGTH_MEASURE_WITH_UNIT ( LENGTH_MEASURE( 0.02539999999999999897 ), #178 );
#111 = DIRECTION ( 'NONE',  ( -1.000000000000000000, 0.0000000000000000000, 0.0000000000000000000 ) ) ;
#112 = VECTOR ( 'NONE', #182, 39.37007874015748143 ) ;
#113 =( GEOMETRIC_REPRESENTATION_CONTEXT ( 3 ) GLOBAL_UNCERTAINTY_ASSIGNED_CONTEXT ( ( #273 ) ) GLOBAL_UNIT_ASSIGNED_CONTEXT ( ( #206, #81, #218 ) ) REPRESENTATION_CONTEXT ( 'NONE', 'WORKASPACE' ) );
#114 = DIRECTION ( 'NONE',  ( 0.0000000000000000000, -1.000000000000000000, 0.0000000000000000000 ) ) ;
#115 = STYLED_ITEM ( 'NONE', ( #310 ), #298 ) ;
#116 = CYLINDRICAL_SURFACE ( 'NONE', #187, 0.01498500000000000006 ) ;
#117 = CARTESIAN_POINT ( 'NONE',  ( 5.510910596163090326E-18, 0.0000000000000000000, 0.04499999999999999833 ) ) ;
#118 = SURFACE_SIDE_STYLE ('',( #15 ) ) ;
#119 = EDGE_CURVE ( 'NONE', #193, #325, #156, .T. ) ;
#120 = EDGE_CURVE ( 'NONE', #166, #270, #269, .T. ) ;
#121 = CIRCLE ( 'NONE', #18, 0.01498499999999999832 ) ;
#122 = ORIENTED_EDGE ( 'NONE', *, *, #120, .F. ) ;
#123 = EDGE_CURVE ( 'NONE', #324, #148, #241, .T. ) ;
#124 = EDGE_LOOP ( 'NONE', ( #266, #248, #216, #195 ) ) ;
#125 = EDGE_LOOP ( 'NONE', ( #221, #245, #300, #46 ) ) ;
#126 = PRODUCT_CONTEXT ( 'NONE', #280, 'mechanical' ) ;
#127 = ORIENTED_EDGE ( 'NONE', *, *, #142, .T. ) ;
#128 = ORIENTED_EDGE ( 'NONE', *, *, #174, .T. ) ;
#129 = CARTESIAN_POINT ( 'NONE',  ( -0.01498499999999999312, 1.835133228522308431E-18, 0.04499999999999999833 ) ) ;
#130 = DIRECTION ( 'NONE',  ( 1.224646799147353207E-16, 1.000000000000000000, -0.0000000000000000000 ) ) ;
#131 = CARTESIAN_POINT ( 'NONE',  ( 1.835133228522309201E-18, 0.0000000000000000000, 0.01498500000000000006 ) ) ;
#132 = CYLINDRICAL_SURFACE ( 'NONE', #1, 0.06250000000000000000 ) ;
#133 =( LENGTH_UNIT ( ) NAMED_UNIT ( * ) SI_UNIT ( $, .METRE. ) );
#134 = DIRECTION ( 'NONE',  ( 0.0000000000000000000, 1.000000000000000000, 0.0000000000000000000 ) ) ;
#135 = LENGTH_MEASURE_WITH_UNIT ( LENGTH_MEASURE( 0.02539999999999999897 ), #317 );
#136 = DIRECTION ( 'NONE',  ( 0.0000000000000000000, 0.0000000000000000000, 1.000000000000000000 ) ) ;
#137 = AXIS2_PLACEMENT_3D ( 'NONE', #141, #237, #316 ) ;
#138 = LENGTH_MEASURE_WITH_UNIT ( LENGTH_MEASURE( 0.02539999999999999897 ), #133 );
#139 = LINE ( 'NONE', #289, #112 ) ;
#140 = DIRECTION ( 'NONE',  ( -1.224646799147353454E-16, -0.0000000000000000000, -1.000000000000000000 ) ) ;
#141 = CARTESIAN_POINT ( 'NONE',  ( 1.835133228522309201E-18, 0.0000000000000000000, 0.01498500000000000006 ) ) ;
#142 = EDGE_CURVE ( 'NONE', #270, #324, #57, .T. ) ;
#143 = FACE_OUTER_BOUND ( 'NONE', #47, .T. ) ;
#144 = EDGE_LOOP ( 'NONE', ( #97, #219, #50, #169 ) ) ;
#145 = CIRCLE ( 'NONE', #311, 0.06250000000000000000 ) ;
#146 = CIRCLE ( 'NONE', #247, 0.04750000000000064587 ) ;
#147 = VERTEX_POINT ( 'NONE', #62 ) ;
#148 = VERTEX_POINT ( 'NONE', #175 ) ;
#149 = ORIENTED_EDGE ( 'NONE', *, *, #250, .F. ) ;
#150 = ORIENTED_EDGE ( 'NONE', *, *, #119, .F. ) ;
#151 = LINE ( 'NONE', #4, #225 ) ;
#152 = SPHERICAL_SURFACE ( 'NONE', #191, 0.01498500000000000006 ) ;
#153 = PRODUCT_DEFINITION_SHAPE ( 'NONE', 'NONE',  #5 ) ;
#154 = SURFACE_STYLE_USAGE ( .BOTH. , #199 ) ;
#155 = CARTESIAN_POINT ( 'NONE',  ( -0.01498499999999999832, 0.0000000000000000000, 0.01498500000000000353 ) ) ;
#156 = CIRCLE ( 'NONE', #287, 0.01498500000000000006 ) ;
#157 = DIRECTION ( 'NONE',  ( -1.224646799147353454E-16, -0.0000000000000000000, -1.000000000000000000 ) ) ;
#158 = CYLINDRICAL_SURFACE ( 'NONE', #94, 0.06250000000000000000 ) ;
#159 = LINE ( 'NONE', #197, #232 ) ;
#160 = DIRECTION ( 'NONE',  ( -1.224646799147353454E-16, -0.0000000000000000000, -1.000000000000000000 ) ) ;
#161 = CARTESIAN_POINT ( 'NONE',  ( 0.0000000000000000000, 0.0000000000000000000, 0.0000000000000000000 ) ) ;
#162 = CARTESIAN_POINT ( 'NONE',  ( 0.0000000000000000000, 0.0000000000000000000, 1.500000000000000222 ) ) ;
#163 = ADVANCED_FACE ( 'NONE', ( #171 ), #132, .T. ) ;
#164 = FACE_OUTER_BOUND ( 'NONE', #2, .T. ) ;
#165 = ORIENTED_EDGE ( 'NONE', *, *, #208, .F. ) ;
#166 = VERTEX_POINT ( 'NONE', #82 ) ;
#167 = ORIENTED_EDGE ( 'NONE', *, *, #40, .T. ) ;
#168 = VERTEX_POINT ( 'NONE', #59 ) ;
#169 = ORIENTED_EDGE ( 'NONE', *, *, #285, .F. ) ;
#170 = AXIS2_PLACEMENT_3D ( 'NONE', #162, #136, #211 ) ;
#171 = FACE_OUTER_BOUND ( 'NONE', #244, .T. ) ;
#172 =( NAMED_UNIT ( * ) PLANE_ANGLE_UNIT ( ) SI_UNIT ( $, .RADIAN. ) );
#173 = ADVANCED_FACE ( 'NONE', ( #31 ), #152, .T. ) ;
#174 = EDGE_CURVE ( 'NONE', #20, #193, #265, .T. ) ;
#175 = CARTESIAN_POINT ( 'NONE',  ( 0.06250000000000004163, 7.654042494670960626E-18, 0.3144709556591340771 ) ) ;
#176 =( CONVERSION_BASED_UNIT ( 'INCH', #138 ) LENGTH_UNIT ( ) NAMED_UNIT ( #106 ) );
#177 = DIRECTION ( 'NONE',  ( -0.0000000000000000000, -0.0000000000000000000, -1.000000000000000000 ) ) ;
#178 =( LENGTH_UNIT ( ) NAMED_UNIT ( * ) SI_UNIT ( $, .METRE. ) );
#179 = DIRECTION ( 'NONE',  ( -1.000000000000000000, 0.0000000000000000000, 0.0000000000000000000 ) ) ;
#180 = DIRECTION ( 'NONE',  ( 0.0000000000000000000, 0.0000000000000000000, -1.000000000000000000 ) ) ;
#181 = EDGE_CURVE ( 'NONE', #189, #324, #159, .T. ) ;
#182 = DIRECTION ( 'NONE',  ( -0.0000000000000000000, -0.0000000000000000000, -1.000000000000000000 ) ) ;
#183 = DIRECTION ( 'NONE',  ( -1.000000000000000000, 0.0000000000000000000, 1.224646799147353454E-16 ) ) ;
#184 =( GEOMETRIC_REPRESENTATION_CONTEXT ( 3 ) GLOBAL_UNCERTAINTY_ASSIGNED_CONTEXT ( ( #44 ) ) GLOBAL_UNIT_ASSIGNED_CONTEXT ( ( #176, #172, #204 ) ) REPRESENTATION_CONTEXT ( 'NONE', 'WORKASPACE' ) );
#185 = DIRECTION ( 'NONE',  ( 1.224646799147353454E-16, 0.0000000000000000000, 1.000000000000000000 ) ) ;
#186 = AXIS2_PLACEMENT_3D ( 'NONE', #103, #180, #255 ) ;
#187 = AXIS2_PLACEMENT_3D ( 'NONE', #161, #14, #183 ) ;
#188 = CARTESIAN_POINT ( 'NONE',  ( -0.04750000000000064587, 0.0000000000000000000, 1.500000000000000222 ) ) ;
#189 = VERTEX_POINT ( 'NONE', #277 ) ;
#190 = EDGE_LOOP ( 'NONE', ( #24, #101, #29, #271 ) ) ;
#191 = AXIS2_PLACEMENT_3D ( 'NONE', #260, #134, #229 ) ;
#192 = AXIS2_PLACEMENT_3D ( 'NONE', #25, #45, #323 ) ;
#193 = VERTEX_POINT ( 'NONE', #155 ) ;
#194 = ADVANCED_FACE ( 'NONE', ( #68 ), #290, .T. ) ;
#195 = ORIENTED_EDGE ( 'NONE', *, *, #40, .F. ) ;
#196 = UNCERTAINTY_MEASURE_WITH_UNIT (LENGTH_MEASURE( 1.000000000000000082E-05 ), #283, 'distance_accuracy_value', 'NONE');
#197 = CARTESIAN_POINT ( 'NONE',  ( -0.06250000000000000000, 0.0000000000000000000, 1.500000000000000222 ) ) ;
#198 = DIMENSIONAL_EXPONENTS ( 1.000000000000000000, 0.0000000000000000000, 0.0000000000000000000, 0.0000000000000000000, 0.0000000000000000000, 0.0000000000000000000, 0.0000000000000000000 ) ;
#199 = SURFACE_SIDE_STYLE ('',( #10 ) ) ;
#200 = AXIS2_PLACEMENT_3D ( 'NONE', #37, #223, #104 ) ;
#201 = CARTESIAN_POINT ( 'NONE',  ( 0.0000000000000000000, 0.0000000000000000000, 1.500000000000000222 ) ) ;
#202 = PRODUCT ( 'Micro_BMS-030-2X', 'Micro_BMS-030-2X', '', ( #126 ) ) ;
#203 = CARTESIAN_POINT ( 'NONE',  ( 3.851158492727678098E-17, 0.0000000000000000000, 0.3144709556591340771 ) ) ;
#204 =( NAMED_UNIT ( * ) SI_UNIT ( $, .STERADIAN. ) SOLID_ANGLE_UNIT ( ) );
#205 = CARTESIAN_POINT ( 'NONE',  ( 0.01498500000000000526, 0.0000000000000000000, 0.04499999999999999833 ) ) ;
#206 =( CONVERSION_BASED_UNIT ( 'INCH', #110 ) LENGTH_UNIT ( ) NAMED_UNIT ( #53 ) );
#207 = DIRECTION ( 'NONE',  ( -1.224646799147353454E-16, -0.0000000000000000000, -1.000000000000000000 ) ) ;
#208 = EDGE_CURVE ( 'NONE', #189, #73, #319, .T. ) ;
#209 = DIRECTION ( 'NONE',  ( 0.0000000000000000000, 0.0000000000000000000, -1.000000000000000000 ) ) ;
#210 = CARTESIAN_POINT ( 'NONE',  ( -0.01498499999999999312, 4.744587861596633566E-18, 0.04499999999999999833 ) ) ;
#211 = DIRECTION ( 'NONE',  ( 1.000000000000000000, 0.0000000000000000000, 0.0000000000000000000 ) ) ;
#212 = PRESENTATION_STYLE_ASSIGNMENT (( #16 ) ) ;
#213 = CARTESIAN_POINT ( 'NONE',  ( 0.0000000000000000000, 0.0000000000000000000, 1.485000000000000764 ) ) ;
#214 = APPLICATION_CONTEXT ( 'automotive_design' ) ;
#215 = PRODUCT_DEFINITION_FORMATION_WITH_SPECIFIED_SOURCE ( 'ANY', '', #202, .NOT_KNOWN. ) ;
#216 = ORIENTED_EDGE ( 'NONE', *, *, #6, .T. ) ;
#217 = ORIENTED_EDGE ( 'NONE', *, *, #256, .T. ) ;
#218 =( NAMED_UNIT ( * ) SI_UNIT ( $, .STERADIAN. ) SOLID_ANGLE_UNIT ( ) );
#219 = ORIENTED_EDGE ( 'NONE', *, *, #51, .T. ) ;
#220 = CIRCLE ( 'NONE', #170, 0.04750000000000064587 ) ;
#221 = ORIENTED_EDGE ( 'NONE', *, *, #208, .T. ) ;
#222 = DIRECTION ( 'NONE',  ( -1.000000000000000000, 0.0000000000000000000, 0.0000000000000000000 ) ) ;
#223 = DIRECTION ( 'NONE',  ( 1.224646799147353454E-16, 0.0000000000000000000, 1.000000000000000000 ) ) ;
#224 = EDGE_CURVE ( 'NONE', #147, #168, #220, .T. ) ;
#225 = VECTOR ( 'NONE', #207, 39.37007874015748143 ) ;
#226 = FACE_OUTER_BOUND ( 'NONE', #124, .T. ) ;
#227 = DIRECTION ( 'NONE',  ( 1.000000000000000000, 0.0000000000000000000, 0.0000000000000000000 ) ) ;
#228 = ADVANCED_FACE ( 'NONE', ( #164 ), #262, .T. ) ;
#229 = DIRECTION ( 'NONE',  ( 1.000000000000000000, 0.0000000000000000000, 0.0000000000000000000 ) ) ;
#230 = CARTESIAN_POINT ( 'NONE',  ( 0.0000000000000000000, 0.0000000000000000000, 1.500000000000000222 ) ) ;
#231 = FACE_OUTER_BOUND ( 'NONE', #190, .T. ) ;
#232 = VECTOR ( 'NONE', #177, 39.37007874015748143 ) ;
#233 = CARTESIAN_POINT ( 'NONE',  ( 3.851158492727678098E-17, 0.0000000000000000000, 0.3144709556591340771 ) ) ;
#234 = DIRECTION ( 'NONE',  ( 0.7071067811865456854, 8.659560562354911904E-17, -0.7071067811865493491 ) ) ;
#235 = ADVANCED_FACE ( 'NONE', ( #143 ), #38, .T. ) ;
#236 = DIRECTION ( 'NONE',  ( -1.224646799147353454E-16, -0.0000000000000000000, -1.000000000000000000 ) ) ;
#237 = DIRECTION ( 'NONE',  ( 1.224646799147353454E-16, 0.0000000000000000000, 1.000000000000000000 ) ) ;
#238 = AXIS2_PLACEMENT_3D ( 'NONE', #233, #157, #259 ) ;
#239 = CARTESIAN_POINT ( 'NONE',  ( -0.01498500000000000006, 0.0000000000000000000, 1.835133228522309201E-18 ) ) ;
#240 = EDGE_LOOP ( 'NONE', ( #78, #303 ) ) ;
#241 = CIRCLE ( 'NONE', #17, 0.06250000000000000000 ) ;
#242 = CIRCLE ( 'NONE', #48, 0.01498500000000000006 ) ;
#243 = ORIENTED_EDGE ( 'NONE', *, *, #181, .T. ) ;
#244 = EDGE_LOOP ( 'NONE', ( #149, #167, #243, #322 ) ) ;
#245 = ORIENTED_EDGE ( 'NONE', *, *, #250, .T. ) ;
#246 = AXIS2_PLACEMENT_3D ( 'NONE', #213, #313, #91 ) ;
#247 = AXIS2_PLACEMENT_3D ( 'NONE', #230, #88, #251 ) ;
#248 = ORIENTED_EDGE ( 'NONE', *, *, #307, .F. ) ;
#249 = DIRECTION ( 'NONE',  ( -1.224646799147353454E-16, -0.0000000000000000000, -1.000000000000000000 ) ) ;
#250 = EDGE_CURVE ( 'NONE', #73, #148, #139, .T. ) ;
#251 = DIRECTION ( 'NONE',  ( 1.000000000000000000, 0.0000000000000000000, 0.0000000000000000000 ) ) ;
#252 = DIRECTION ( 'NONE',  ( 0.0000000000000000000, 0.0000000000000000000, -1.000000000000000000 ) ) ;
#253 = CARTESIAN_POINT ( 'NONE',  ( 0.01498500000000000353, 1.835133228522308816E-18, 0.01498499999999999832 ) ) ;
#254 = AXIS2_PLACEMENT_3D ( 'NONE', #305, #252, #222 ) ;
#255 = DIRECTION ( 'NONE',  ( -1.000000000000000000, 0.0000000000000000000, 0.0000000000000000000 ) ) ;
#256 = EDGE_CURVE ( 'NONE', #147, #73, #284, .T. ) ;
#257 = CARTESIAN_POINT ( 'NONE',  ( 0.0000000000000000000, 0.0000000000000000000, 1.500000000000000222 ) ) ;
#258 = DIRECTION ( 'NONE',  ( 1.224646799147353454E-16, 0.0000000000000000000, 1.000000000000000000 ) ) ;
#259 = DIRECTION ( 'NONE',  ( 1.000000000000000000, 0.0000000000000000000, 0.0000000000000000000 ) ) ;
#260 = CARTESIAN_POINT ( 'NONE',  ( 1.835133228522309201E-18, 0.0000000000000000000, 0.01498500000000000006 ) ) ;
#261 = CARTESIAN_POINT ( 'NONE',  ( 5.510910596163090326E-18, 0.0000000000000000000, 0.04499999999999999833 ) ) ;
#262 = CONICAL_SURFACE ( 'NONE', #70, 0.01498499999999999832, 0.1745329251994338360 ) ;
#263 = FILL_AREA_STYLE_COLOUR ( '', #320 ) ;
#264 = CARTESIAN_POINT ( 'NONE',  ( 0.04750000000000064587, 5.817072295950006528E-18, 1.500000000000000222 ) ) ;
#265 = CIRCLE ( 'NONE', #61, 0.01498500000000000006 ) ;
#266 = ORIENTED_EDGE ( 'NONE', *, *, #256, .F. ) ;
#267 = CLOSED_SHELL ( 'NONE', ( #235, #194, #228, #99, #86, #163, #297, #67, #27, #274, #173 ) ) ;
#268 = ORIENTED_EDGE ( 'NONE', *, *, #142, .F. ) ;
#269 = CIRCLE ( 'NONE', #80, 0.01498499999999999832 ) ;
#270 = VERTEX_POINT ( 'NONE', #210 ) ;
#271 = ORIENTED_EDGE ( 'NONE', *, *, #119, .T. ) ;
#272 = ORIENTED_EDGE ( 'NONE', *, *, #321, .T. ) ;
#273 = UNCERTAINTY_MEASURE_WITH_UNIT (LENGTH_MEASURE( 1.000000000000000082E-05 ), #206, 'distance_accuracy_value', 'NONE');
#274 = ADVANCED_FACE ( 'NONE', ( #231 ), #116, .T. ) ;
#275 = DIRECTION ( 'NONE',  ( -0.0000000000000000000, -0.0000000000000000000, -1.000000000000000000 ) ) ;
#276 = FILL_AREA_STYLE_COLOUR ( '', #301 ) ;
#277 = CARTESIAN_POINT ( 'NONE',  ( -0.06250000000000000000, 0.0000000000000000000, 1.485000000000000764 ) ) ;
#278 = EDGE_CURVE ( 'NONE', #270, #166, #121, .T. ) ;
#279 = FACE_OUTER_BOUND ( 'NONE', #240, .T. ) ;
#280 = APPLICATION_CONTEXT ( 'automotive_design' ) ;
#281 = FACE_OUTER_BOUND ( 'NONE', #54, .T. ) ;
#282 = DIRECTION ( 'NONE',  ( -1.224646799147353454E-16, -0.0000000000000000000, -1.000000000000000000 ) ) ;
#283 =( CONVERSION_BASED_UNIT ( 'INCH', #135 ) LENGTH_UNIT ( ) NAMED_UNIT ( #198 ) );
#284 = LINE ( 'NONE', #264, #55 ) ;
#285 = EDGE_CURVE ( 'NONE', #270, #193, #39, .T. ) ;
#286 = DIRECTION ( 'NONE',  ( 1.000000000000000000, 0.0000000000000000000, 0.0000000000000000000 ) ) ;
#287 = AXIS2_PLACEMENT_3D ( 'NONE', #309, #258, #108 ) ;
#288 = CIRCLE ( 'NONE', #137, 0.01498500000000000006 ) ;
#289 = CARTESIAN_POINT ( 'NONE',  ( 0.06250000000000000000, 7.654042494670956004E-18, 1.500000000000000222 ) ) ;
#290 = CYLINDRICAL_SURFACE ( 'NONE', #43, 0.01498500000000000006 ) ;
#291 = EDGE_CURVE ( 'NONE', #325, #193, #288, .T. ) ;
#292 = VECTOR ( 'NONE', #35, 39.37007874015747433 ) ;
#293 = PRESENTATION_LAYER_ASSIGNMENT (  '', '', ( #115 ) ) ;
#294 = MANIFOLD_SOLID_BREP ( 'Fillet1', #267 ) ;
#295 = APPLICATION_PROTOCOL_DEFINITION ( 'draft international standard', 'automotive_design', 1998, #280 ) ;
#296 = ORIENTED_EDGE ( 'NONE', *, *, #224, .F. ) ;
#297 = ADVANCED_FACE ( 'NONE', ( #279 ), #93, .T. ) ;
#298 = ADVANCED_BREP_SHAPE_REPRESENTATION ( 'Micro_BMS-030-2X', ( #294, #192 ), #184 ) ;
#299 = ORIENTED_EDGE ( 'NONE', *, *, #123, .T. ) ;
#300 = ORIENTED_EDGE ( 'NONE', *, *, #123, .F. ) ;
#301 = COLOUR_RGB ( '',0.7921568627450980005, 0.8196078431372548767, 0.9333333333333333481 ) ;
#302 = ORIENTED_EDGE ( 'NONE', *, *, #291, .F. ) ;
#303 = ORIENTED_EDGE ( 'NONE', *, *, #224, .T. ) ;
#304 = CARTESIAN_POINT ( 'NONE',  ( 0.0000000000000000000, 0.0000000000000000000, 1.485000000000000764 ) ) ;
#305 = CARTESIAN_POINT ( 'NONE',  ( 0.0000000000000000000, 0.0000000000000000000, 1.500000000000000222 ) ) ;
#306 = CARTESIAN_POINT ( 'NONE',  ( -0.06249999999999995837, 0.0000000000000000000, 0.3144709556591340771 ) ) ;
#307 = EDGE_CURVE ( 'NONE', #168, #147, #146, .T. ) ;
#308 = DIRECTION ( 'NONE',  ( 1.000000000000000000, 0.0000000000000000000, 0.0000000000000000000 ) ) ;
#309 = CARTESIAN_POINT ( 'NONE',  ( 1.835133228522309201E-18, 0.0000000000000000000, 0.01498500000000000006 ) ) ;
#310 = PRESENTATION_STYLE_ASSIGNMENT (( #154 ) ) ;
#311 = AXIS2_PLACEMENT_3D ( 'NONE', #304, #11, #308 ) ;
#312 = CARTESIAN_POINT ( 'NONE',  ( 2.752699842783463994E-18, 0.0000000000000000000, 0.0000000000000000000 ) ) ;
#313 = DIRECTION ( 'NONE',  ( 0.0000000000000000000, 0.0000000000000000000, -1.000000000000000000 ) ) ;
#314 = EDGE_CURVE ( 'NONE', #20, #325, #242, .T. ) ;
#315 = VECTOR ( 'NONE', #33, 39.37007874015748143 ) ;
#316 = DIRECTION ( 'NONE',  ( -1.000000000000000000, 0.0000000000000000000, 1.424261758458595593E-16 ) ) ;
#317 =( LENGTH_UNIT ( ) NAMED_UNIT ( * ) SI_UNIT ( $, .METRE. ) );
#318 = LINE ( 'NONE', #188, #315 ) ;
#319 = CIRCLE ( 'NONE', #246, 0.06250000000000000000 ) ;
#320 = COLOUR_RGB ( '',0.7921568627450980005, 0.8196078431372548767, 0.9333333333333333481 ) ;
#321 = EDGE_CURVE ( 'NONE', #148, #324, #7, .T. ) ;
#322 = ORIENTED_EDGE ( 'NONE', *, *, #321, .F. ) ;
#323 = DIRECTION ( 'NONE',  ( 1.000000000000000000, 0.0000000000000000000, 0.0000000000000000000 ) ) ;
#324 = VERTEX_POINT ( 'NONE', #306 ) ;
#325 = VERTEX_POINT ( 'NONE', #253 ) ;
ENDSEC;
END-ISO-10303-21;
