ISO-10303-21;
HEADER;
FILE_DESCRIPTION (( 'STEP AP214' ),
    '1' );
FILE_NAME ('Micro_GEM-125-4.STEP',
    '2021-09-01T19:37:47',
    ( '' ),
    ( '' ),
    'SwSTEP 2.0',
    'SolidWorks 2020',
    '' );
FILE_SCHEMA (( 'AUTOMOTIVE_DESIGN' ));
ENDSEC;

DATA;
#1 = AXIS2_PLACEMENT_3D ( 'NONE', #190, #217, #286 ) ;
#2 = ORIENTED_EDGE ( 'NONE', *, *, #174, .F. ) ;
#3 = APPLICATION_PROTOCOL_DEFINITION ( 'draft international standard', 'automotive_design', 1998, #153 ) ;
#4 = PRODUCT_DEFINITION_SHAPE ( 'NONE', 'NONE',  #177 ) ;
#5 = VERTEX_POINT ( 'NONE', #236 ) ;
#6 = ADVANCED_BREP_SHAPE_REPRESENTATION ( 'Micro_GEM-125-4', ( #136, #115 ), #80 ) ;
#7 = DIRECTION ( 'NONE',  ( -1.000000000000000000, 0.0000000000000000000, 0.0000000000000000000 ) ) ;
#8 = VERTEX_POINT ( 'NONE', #288 ) ;
#9 = EDGE_LOOP ( 'NONE', ( #105, #254 ) ) ;
#10 = VECTOR ( 'NONE', #116, 39.37007874015748854 ) ;
#11 = DIRECTION ( 'NONE',  ( 1.000000000000000000, 0.0000000000000000000, 0.0000000000000000000 ) ) ;
#12 = DIRECTION ( 'NONE',  ( -0.1736481776669310251, 2.126576849575781468E-17, 0.9848077530122080203 ) ) ;
#13 = EDGE_CURVE ( 'NONE', #74, #5, #216, .T. ) ;
#14 =( NAMED_UNIT ( * ) SI_UNIT ( $, .STERADIAN. ) SOLID_ANGLE_UNIT ( ) );
#15 = ORIENTED_EDGE ( 'NONE', *, *, #291, .T. ) ;
#16 = DIRECTION ( 'NONE',  ( 1.000000000000000000, 0.0000000000000000000, 0.0000000000000000000 ) ) ;
#17 = AXIS2_PLACEMENT_3D ( 'NONE', #107, #110, #196 ) ;
#18 = CARTESIAN_POINT ( 'NONE',  ( -0.06243749999999999994, 0.0000000000000000000, 1.529277690435258091E-17 ) ) ;
#19 = CARTESIAN_POINT ( 'NONE',  ( 0.0000000000000000000, 0.0000000000000000000, 1.500000000000000222 ) ) ;
#20 = CARTESIAN_POINT ( 'NONE',  ( 9.364125142994982608E-34, 0.0000000000000000000, 7.646388452176290456E-18 ) ) ;
#21 = CARTESIAN_POINT ( 'NONE',  ( 0.0000000000000000000, 0.0000000000000000000, 0.0000000000000000000 ) ) ;
#22 = AXIS2_PLACEMENT_3D ( 'NONE', #155, #73, #122 ) ;
#23 = SURFACE_STYLE_FILL_AREA ( #248 ) ;
#24 = CARTESIAN_POINT ( 'NONE',  ( 0.0000000000000000000, 0.0000000000000000000, 1.500000000000000222 ) ) ;
#25 =( CONVERSION_BASED_UNIT ( 'INCH', #221 ) LENGTH_UNIT ( ) NAMED_UNIT ( #31 ) );
#26 =( GEOMETRIC_REPRESENTATION_CONTEXT ( 3 ) GLOBAL_UNCERTAINTY_ASSIGNED_CONTEXT ( ( #203 ) ) GLOBAL_UNIT_ASSIGNED_CONTEXT ( ( #179, #76, #35 ) ) REPRESENTATION_CONTEXT ( 'NONE', 'WORKASPACE' ) );
#27 = ORIENTED_EDGE ( 'NONE', *, *, #240, .T. ) ;
#28 = EDGE_CURVE ( 'NONE', #164, #102, #104, .T. ) ;
#29 = CYLINDRICAL_SURFACE ( 'NONE', #130, 0.06250000000000002776 ) ;
#30 = ORIENTED_EDGE ( 'NONE', *, *, #197, .T. ) ;
#31 = DIMENSIONAL_EXPONENTS ( 1.000000000000000000, 0.0000000000000000000, 0.0000000000000000000, 0.0000000000000000000, 0.0000000000000000000, 0.0000000000000000000, 0.0000000000000000000 ) ;
#32 = ORIENTED_EDGE ( 'NONE', *, *, #299, .F. ) ;
#33 = CIRCLE ( 'NONE', #17, 0.06243749999999999994 ) ;
#34 = DIRECTION ( 'NONE',  ( 0.0000000000000000000, 0.0000000000000000000, 1.000000000000000000 ) ) ;
#35 =( NAMED_UNIT ( * ) SI_UNIT ( $, .STERADIAN. ) SOLID_ANGLE_UNIT ( ) );
#36 = EDGE_CURVE ( 'NONE', #8, #47, #275, .T. ) ;
#37 = ORIENTED_EDGE ( 'NONE', *, *, #182, .F. ) ;
#38 = AXIS2_PLACEMENT_3D ( 'NONE', #272, #138, #49 ) ;
#39 = FILL_AREA_STYLE ('',( #244 ) ) ;
#40 = DIRECTION ( 'NONE',  ( 1.000000000000000000, 0.0000000000000000000, 0.0000000000000000000 ) ) ;
#41 = DIRECTION ( 'NONE',  ( -1.000000000000000000, 0.0000000000000000000, 0.0000000000000000000 ) ) ;
#42 = DIRECTION ( 'NONE',  ( -1.224646799147353700E-16, -0.0000000000000000000, -1.000000000000000000 ) ) ;
#43 = FACE_OUTER_BOUND ( 'NONE', #125, .T. ) ;
#44 = EDGE_LOOP ( 'NONE', ( #200, #253, #297, #30 ) ) ;
#45 = CARTESIAN_POINT ( 'NONE',  ( 0.0000000000000000000, 0.0000000000000000000, 1.500000000000000222 ) ) ;
#46 = CIRCLE ( 'NONE', #295, 0.06250000000000002776 ) ;
#47 = VERTEX_POINT ( 'NONE', #143 ) ;
#48 = CARTESIAN_POINT ( 'NONE',  ( -0.04750000000000064587, 0.0000000000000000000, 1.500000000000000222 ) ) ;
#49 = DIRECTION ( 'NONE',  ( -1.000000000000000000, 0.0000000000000000000, 1.224646799147353947E-16 ) ) ;
#50 = SURFACE_SIDE_STYLE ('',( #23 ) ) ;
#51 = DIRECTION ( 'NONE',  ( -1.000000000000000000, 0.0000000000000000000, 0.0000000000000000000 ) ) ;
#52 = VERTEX_POINT ( 'NONE', #230 ) ;
#53 = ADVANCED_FACE ( 'NONE', ( #204 ), #165, .T. ) ;
#54 = AXIS2_PLACEMENT_3D ( 'NONE', #19, #156, #51 ) ;
#55 = AXIS2_PLACEMENT_3D ( 'NONE', #24, #220, #91 ) ;
#56 = CARTESIAN_POINT ( 'NONE',  ( 0.06243750000000006239, 0.0000000000000000000, 0.5000000000000000000 ) ) ;
#57 = ORIENTED_EDGE ( 'NONE', *, *, #162, .T. ) ;
#58 = UNCERTAINTY_MEASURE_WITH_UNIT (LENGTH_MEASURE( 1.000000000000000082E-05 ), #25, 'distance_accuracy_value', 'NONE');
#59 = CONICAL_SURFACE ( 'NONE', #269, 0.04750000000000064587, 0.7853981633974466137 ) ;
#60 = ADVANCED_FACE ( 'NONE', ( #280 ), #187, .T. ) ;
#61 = VERTEX_POINT ( 'NONE', #284 ) ;
#62 = ORIENTED_EDGE ( 'NONE', *, *, #28, .T. ) ;
#63 = CARTESIAN_POINT ( 'NONE',  ( 0.06250000000000002776, 7.654042494670959086E-18, 1.500000000000000222 ) ) ;
#64 = FACE_OUTER_BOUND ( 'NONE', #188, .T. ) ;
#65 = EDGE_CURVE ( 'NONE', #52, #102, #82, .T. ) ;
#66 = DIRECTION ( 'NONE',  ( -1.000000000000000000, 0.0000000000000000000, 1.224646799147353947E-16 ) ) ;
#67 = VECTOR ( 'NONE', #12, 39.37007874015748854 ) ;
#68 = DIRECTION ( 'NONE',  ( 1.000000000000000000, 0.0000000000000000000, 0.0000000000000000000 ) ) ;
#69 = LINE ( 'NONE', #48, #10 ) ;
#70 = DIRECTION ( 'NONE',  ( 0.0000000000000000000, 0.0000000000000000000, -1.000000000000000000 ) ) ;
#71 = AXIS2_PLACEMENT_3D ( 'NONE', #266, #239, #16 ) ;
#72 = DIRECTION ( 'NONE',  ( 0.0000000000000000000, 0.0000000000000000000, -1.000000000000000000 ) ) ;
#73 = DIRECTION ( 'NONE',  ( 0.0000000000000000000, 0.0000000000000000000, 1.000000000000000000 ) ) ;
#74 = VERTEX_POINT ( 'NONE', #211 ) ;
#75 = CIRCLE ( 'NONE', #166, 0.06243749999999999994 ) ;
#76 =( NAMED_UNIT ( * ) PLANE_ANGLE_UNIT ( ) SI_UNIT ( $, .RADIAN. ) );
#77 = DIMENSIONAL_EXPONENTS ( 1.000000000000000000, 0.0000000000000000000, 0.0000000000000000000, 0.0000000000000000000, 0.0000000000000000000, 0.0000000000000000000, 0.0000000000000000000 ) ;
#78 = EDGE_LOOP ( 'NONE', ( #205, #278, #232, #259 ) ) ;
#79 = CARTESIAN_POINT ( 'NONE',  ( 0.0000000000000000000, 0.0000000000000000000, 1.500000000000000222 ) ) ;
#80 =( GEOMETRIC_REPRESENTATION_CONTEXT ( 3 ) GLOBAL_UNCERTAINTY_ASSIGNED_CONTEXT ( ( #58 ) ) GLOBAL_UNIT_ASSIGNED_CONTEXT ( ( #25, #93, #92 ) ) REPRESENTATION_CONTEXT ( 'NONE', 'WORKASPACE' ) );
#81 = ORIENTED_EDGE ( 'NONE', *, *, #28, .F. ) ;
#82 = LINE ( 'NONE', #250, #67 ) ;
#83 = EDGE_CURVE ( 'NONE', #74, #52, #75, .T. ) ;
#84 = DIRECTION ( 'NONE',  ( -0.0000000000000000000, -0.0000000000000000000, -1.000000000000000000 ) ) ;
#85 = FACE_OUTER_BOUND ( 'NONE', #145, .T. ) ;
#86 = VECTOR ( 'NONE', #84, 39.37007874015748143 ) ;
#87 = CONICAL_SURFACE ( 'NONE', #71, 0.06243749999999999994, 0.1745329251994337527 ) ;
#88 = SURFACE_STYLE_USAGE ( .BOTH. , #171 ) ;
#89 = MECHANICAL_DESIGN_GEOMETRIC_PRESENTATION_REPRESENTATION (  '', ( #120 ), #26 ) ;
#90 =( NAMED_UNIT ( * ) PLANE_ANGLE_UNIT ( ) SI_UNIT ( $, .RADIAN. ) );
#91 = DIRECTION ( 'NONE',  ( 1.000000000000000000, 0.0000000000000000000, 0.0000000000000000000 ) ) ;
#92 =( NAMED_UNIT ( * ) SI_UNIT ( $, .STERADIAN. ) SOLID_ANGLE_UNIT ( ) );
#93 =( NAMED_UNIT ( * ) PLANE_ANGLE_UNIT ( ) SI_UNIT ( $, .RADIAN. ) );
#94 = LENGTH_MEASURE_WITH_UNIT ( LENGTH_MEASURE( 0.02539999999999999897 ), #199 );
#95 = DIRECTION ( 'NONE',  ( 1.000000000000000000, 0.0000000000000000000, 0.0000000000000000000 ) ) ;
#96 = ORIENTED_EDGE ( 'NONE', *, *, #36, .T. ) ;
#97 = ORIENTED_EDGE ( 'NONE', *, *, #146, .T. ) ;
#98 = COLOUR_RGB ( '',0.7921568627450980005, 0.8196078431372548767, 0.9333333333333333481 ) ;
#99 = CARTESIAN_POINT ( 'NONE',  ( 0.0000000000000000000, 0.0000000000000000000, 1.500000000000000222 ) ) ;
#100 = EDGE_LOOP ( 'NONE', ( #129, #257, #2, #81 ) ) ;
#101 = ORIENTED_EDGE ( 'NONE', *, *, #240, .F. ) ;
#102 = VERTEX_POINT ( 'NONE', #214 ) ;
#103 = ADVANCED_FACE ( 'NONE', ( #111 ), #261, .T. ) ;
#104 = LINE ( 'NONE', #135, #86 ) ;
#105 = ORIENTED_EDGE ( 'NONE', *, *, #231, .T. ) ;
#106 = ORIENTED_EDGE ( 'NONE', *, *, #277, .F. ) ;
#107 = CARTESIAN_POINT ( 'NONE',  ( 6.123233995736768501E-17, 0.0000000000000000000, 0.5000000000000000000 ) ) ;
#108 = COLOUR_RGB ( '',0.7921568627450980005, 0.8196078431372548767, 0.9333333333333333481 ) ;
#109 = DIRECTION ( 'NONE',  ( -1.224646799147353700E-16, -0.0000000000000000000, -1.000000000000000000 ) ) ;
#110 = DIRECTION ( 'NONE',  ( -1.224646799147353700E-16, -0.0000000000000000000, -1.000000000000000000 ) ) ;
#111 = FACE_OUTER_BOUND ( 'NONE', #78, .T. ) ;
#112 = FACE_OUTER_BOUND ( 'NONE', #160, .T. ) ;
#113 = EDGE_CURVE ( 'NONE', #52, #140, #159, .T. ) ;
#114 = DIRECTION ( 'NONE',  ( -1.224646799147353700E-16, -0.0000000000000000000, -1.000000000000000000 ) ) ;
#115 = AXIS2_PLACEMENT_3D ( 'NONE', #260, #34, #11 ) ;
#116 = DIRECTION ( 'NONE',  ( -0.7071067811865462405, 0.0000000000000000000, -0.7071067811865486830 ) ) ;
#117 = FILL_AREA_STYLE_COLOUR ( '', #98 ) ;
#118 = CARTESIAN_POINT ( 'NONE',  ( 0.0000000000000000000, 0.0000000000000000000, 0.0000000000000000000 ) ) ;
#119 = AXIS2_PLACEMENT_3D ( 'NONE', #79, #144, #7 ) ;
#120 = STYLED_ITEM ( 'NONE', ( #198 ), #6 ) ;
#121 = DIMENSIONAL_EXPONENTS ( 1.000000000000000000, 0.0000000000000000000, 0.0000000000000000000, 0.0000000000000000000, 0.0000000000000000000, 0.0000000000000000000, 0.0000000000000000000 ) ;
#122 = DIRECTION ( 'NONE',  ( 1.000000000000000000, 0.0000000000000000000, -0.0000000000000000000 ) ) ;
#123 = ORIENTED_EDGE ( 'NONE', *, *, #13, .F. ) ;
#124 = CIRCLE ( 'NONE', #55, 0.04750000000000064587 ) ;
#125 = EDGE_LOOP ( 'NONE', ( #273, #227, #218, #123 ) ) ;
#126 = DIRECTION ( 'NONE',  ( 0.7071067811865462405, 8.659560562354916834E-17, -0.7071067811865486830 ) ) ;
#127 = AXIS2_PLACEMENT_3D ( 'NONE', #21, #114, #172 ) ;
#128 = ORIENTED_EDGE ( 'NONE', *, *, #270, .F. ) ;
#129 = ORIENTED_EDGE ( 'NONE', *, *, #294, .T. ) ;
#130 = AXIS2_PLACEMENT_3D ( 'NONE', #45, #247, #271 ) ;
#131 = CARTESIAN_POINT ( 'NONE',  ( 6.123233995736768501E-17, 0.0000000000000000000, 0.5000000000000000000 ) ) ;
#132 = DIRECTION ( 'NONE',  ( -1.224646799147353700E-16, -0.0000000000000000000, -1.000000000000000000 ) ) ;
#133 = CARTESIAN_POINT ( 'NONE',  ( -0.06250000000000002776, 0.0000000000000000000, 1.485000000000000764 ) ) ;
#134 = ADVANCED_FACE ( 'NONE', ( #43 ), #154, .T. ) ;
#135 = CARTESIAN_POINT ( 'NONE',  ( -0.06250000000000002776, 0.0000000000000000000, 1.500000000000000222 ) ) ;
#136 = MANIFOLD_SOLID_BREP ( 'Cut-Revolve1', #209 ) ;
#137 = CARTESIAN_POINT ( 'NONE',  ( 0.0000000000000000000, 0.0000000000000000000, 1.485000000000000764 ) ) ;
#138 = DIRECTION ( 'NONE',  ( -1.224646799147353700E-16, -0.0000000000000000000, -1.000000000000000000 ) ) ;
#139 = SURFACE_STYLE_USAGE ( .BOTH. , #50 ) ;
#140 = VERTEX_POINT ( 'NONE', #18 ) ;
#141 = DIRECTION ( 'NONE',  ( -1.224646799147353700E-16, -0.0000000000000000000, -1.000000000000000000 ) ) ;
#142 = APPLICATION_CONTEXT ( 'automotive_design' ) ;
#143 = CARTESIAN_POINT ( 'NONE',  ( 0.06250000000000002776, 7.654042494670959086E-18, 1.485000000000000764 ) ) ;
#144 = DIRECTION ( 'NONE',  ( -0.0000000000000000000, -0.0000000000000000000, -1.000000000000000000 ) ) ;
#145 = EDGE_LOOP ( 'NONE', ( #97, #27, #223, #189 ) ) ;
#146 = EDGE_CURVE ( 'NONE', #52, #74, #33, .T. ) ;
#147 = DIRECTION ( 'NONE',  ( -0.0000000000000000000, -0.0000000000000000000, -1.000000000000000000 ) ) ;
#148 = CARTESIAN_POINT ( 'NONE',  ( 0.0000000000000000000, 0.0000000000000000000, 1.500000000000000222 ) ) ;
#149 = PRESENTATION_LAYER_ASSIGNMENT (  '', '', ( #237 ) ) ;
#150 = CARTESIAN_POINT ( 'NONE',  ( 0.06243749999999999994, 7.646388452176287375E-18, -7.646388452176290456E-18 ) ) ;
#151 = LINE ( 'NONE', #63, #161 ) ;
#152 =( LENGTH_UNIT ( ) NAMED_UNIT ( * ) SI_UNIT ( $, .METRE. ) );
#153 = APPLICATION_CONTEXT ( 'automotive_design' ) ;
#154 = CONICAL_SURFACE ( 'NONE', #202, 0.06243749999999999994, 0.1745329251994337527 ) ;
#155 = CARTESIAN_POINT ( 'NONE',  ( 0.0000000000000000000, 0.0000000000000000000, 0.0000000000000000000 ) ) ;
#156 = DIRECTION ( 'NONE',  ( 0.0000000000000000000, 0.0000000000000000000, -1.000000000000000000 ) ) ;
#157 = APPLICATION_PROTOCOL_DEFINITION ( 'draft international standard', 'automotive_design', 1998, #142 ) ;
#158 = PLANE ( 'NONE',  #22 ) ;
#159 = LINE ( 'NONE', #252, #283 ) ;
#160 = EDGE_LOOP ( 'NONE', ( #101, #235, #163, #106 ) ) ;
#161 = VECTOR ( 'NONE', #147, 39.37007874015748143 ) ;
#162 = EDGE_CURVE ( 'NONE', #61, #8, #233, .T. ) ;
#163 = ORIENTED_EDGE ( 'NONE', *, *, #113, .T. ) ;
#164 = VERTEX_POINT ( 'NONE', #133 ) ;
#165 = PLANE ( 'NONE',  #242 ) ;
#166 = AXIS2_PLACEMENT_3D ( 'NONE', #289, #132, #285 ) ;
#167 = ORIENTED_EDGE ( 'NONE', *, *, #299, .T. ) ;
#168 = SHAPE_DEFINITION_REPRESENTATION ( #4, #6 ) ;
#169 = AXIS2_PLACEMENT_3D ( 'NONE', #238, #262, #40 ) ;
#170 = DIRECTION ( 'NONE',  ( -1.224646799147353700E-16, -0.0000000000000000000, -1.000000000000000000 ) ) ;
#171 = SURFACE_SIDE_STYLE ('',( #245 ) ) ;
#172 = DIRECTION ( 'NONE',  ( -1.000000000000000000, 0.0000000000000000000, 1.224646799147353947E-16 ) ) ;
#173 = PRESENTATION_LAYER_ASSIGNMENT (  '', '', ( #120 ) ) ;
#174 = EDGE_CURVE ( 'NONE', #102, #5, #206, .T. ) ;
#175 = FACE_OUTER_BOUND ( 'NONE', #44, .T. ) ;
#176 =( CONVERSION_BASED_UNIT ( 'INCH', #192 ) LENGTH_UNIT ( ) NAMED_UNIT ( #121 ) );
#177 = PRODUCT_DEFINITION ( 'UNKNOWN', '', #265, #234 ) ;
#178 = CIRCLE ( 'NONE', #210, 0.06243749999999999994 ) ;
#179 =( CONVERSION_BASED_UNIT ( 'INCH', #94 ) LENGTH_UNIT ( ) NAMED_UNIT ( #77 ) );
#180 = CIRCLE ( 'NONE', #38, 0.06243749999999999994 ) ;
#181 = PRODUCT ( 'Micro_GEM-125-4', 'Micro_GEM-125-4', '', ( #229 ) ) ;
#182 = EDGE_CURVE ( 'NONE', #47, #5, #151, .T. ) ;
#183 = DIRECTION ( 'NONE',  ( 1.000000000000000000, 0.0000000000000000000, -0.0000000000000000000 ) ) ;
#184 = ORIENTED_EDGE ( 'NONE', *, *, #294, .F. ) ;
#185 = VECTOR ( 'NONE', #298, 39.37007874015748143 ) ;
#186 = VECTOR ( 'NONE', #126, 39.37007874015748854 ) ;
#187 = CYLINDRICAL_SURFACE ( 'NONE', #119, 0.06250000000000002776 ) ;
#188 = EDGE_LOOP ( 'NONE', ( #32, #96, #184, #128 ) ) ;
#189 = ORIENTED_EDGE ( 'NONE', *, *, #113, .F. ) ;
#190 = CARTESIAN_POINT ( 'NONE',  ( 0.0000000000000000000, 0.0000000000000000000, 1.500000000000000222 ) ) ;
#191 = EDGE_LOOP ( 'NONE', ( #37, #15, #62, #208 ) ) ;
#192 = LENGTH_MEASURE_WITH_UNIT ( LENGTH_MEASURE( 0.02539999999999999897 ), #212 );
#193 = CYLINDRICAL_SURFACE ( 'NONE', #127, 0.06243749999999999994 ) ;
#194 = ADVANCED_FACE ( 'NONE', ( #175 ), #87, .T. ) ;
#195 = PRESENTATION_STYLE_ASSIGNMENT (( #88 ) ) ;
#196 = DIRECTION ( 'NONE',  ( -1.000000000000000000, 0.0000000000000000000, 0.0000000000000000000 ) ) ;
#197 = EDGE_CURVE ( 'NONE', #5, #102, #46, .T. ) ;
#198 = PRESENTATION_STYLE_ASSIGNMENT (( #139 ) ) ;
#199 =( LENGTH_UNIT ( ) NAMED_UNIT ( * ) SI_UNIT ( $, .METRE. ) );
#200 = ORIENTED_EDGE ( 'NONE', *, *, #65, .F. ) ;
#201 = CARTESIAN_POINT ( 'NONE',  ( 0.0000000000000000000, 0.0000000000000000000, 1.485000000000000764 ) ) ;
#202 = AXIS2_PLACEMENT_3D ( 'NONE', #131, #287, #68 ) ;
#203 = UNCERTAINTY_MEASURE_WITH_UNIT (LENGTH_MEASURE( 1.000000000000000082E-05 ), #179, 'distance_accuracy_value', 'NONE');
#204 = FACE_OUTER_BOUND ( 'NONE', #282, .T. ) ;
#205 = ORIENTED_EDGE ( 'NONE', *, *, #36, .F. ) ;
#206 = CIRCLE ( 'NONE', #169, 0.06250000000000002776 ) ;
#207 = AXIS2_PLACEMENT_3D ( 'NONE', #201, #70, #296 ) ;
#208 = ORIENTED_EDGE ( 'NONE', *, *, #197, .F. ) ;
#209 = CLOSED_SHELL ( 'NONE', ( #225, #134, #219, #258, #60, #53, #103, #194, #255, #267 ) ) ;
#210 = AXIS2_PLACEMENT_3D ( 'NONE', #20, #215, #66 ) ;
#211 = CARTESIAN_POINT ( 'NONE',  ( 0.06243750000000006239, 0.0000000000000000000, 0.5000000000000000000 ) ) ;
#212 =( LENGTH_UNIT ( ) NAMED_UNIT ( * ) SI_UNIT ( $, .METRE. ) );
#213 = PRODUCT_RELATED_PRODUCT_CATEGORY ( 'part', '', ( #181 ) ) ;
#214 = CARTESIAN_POINT ( 'NONE',  ( -0.06249999999999996531, 0.0000000000000000000, 0.5003544551137262264 ) ) ;
#215 = DIRECTION ( 'NONE',  ( -1.224646799147353700E-16, -0.0000000000000000000, -1.000000000000000000 ) ) ;
#216 = LINE ( 'NONE', #56, #185 ) ;
#217 = DIRECTION ( 'NONE',  ( 0.0000000000000000000, 0.0000000000000000000, 1.000000000000000000 ) ) ;
#218 = ORIENTED_EDGE ( 'NONE', *, *, #174, .T. ) ;
#219 = ADVANCED_FACE ( 'NONE', ( #64 ), #59, .T. ) ;
#220 = DIRECTION ( 'NONE',  ( 0.0000000000000000000, 0.0000000000000000000, 1.000000000000000000 ) ) ;
#221 = LENGTH_MEASURE_WITH_UNIT ( LENGTH_MEASURE( 0.02539999999999999897 ), #152 );
#222 =( GEOMETRIC_REPRESENTATION_CONTEXT ( 3 ) GLOBAL_UNCERTAINTY_ASSIGNED_CONTEXT ( ( #279 ) ) GLOBAL_UNIT_ASSIGNED_CONTEXT ( ( #176, #90, #14 ) ) REPRESENTATION_CONTEXT ( 'NONE', 'WORKASPACE' ) );
#223 = ORIENTED_EDGE ( 'NONE', *, *, #231, .F. ) ;
#224 = CIRCLE ( 'NONE', #276, 0.06250000000000002776 ) ;
#225 = ADVANCED_FACE ( 'NONE', ( #85 ), #193, .T. ) ;
#226 = FACE_OUTER_BOUND ( 'NONE', #100, .T. ) ;
#227 = ORIENTED_EDGE ( 'NONE', *, *, #65, .T. ) ;
#228 = CARTESIAN_POINT ( 'NONE',  ( 0.04750000000000064587, 5.817072295950006528E-18, 1.500000000000000222 ) ) ;
#229 = PRODUCT_CONTEXT ( 'NONE', #142, 'mechanical' ) ;
#230 = CARTESIAN_POINT ( 'NONE',  ( -0.06243749999999994443, 7.650215473423623230E-18, 0.5000000000000000000 ) ) ;
#231 = EDGE_CURVE ( 'NONE', #140, #281, #178, .T. ) ;
#232 = ORIENTED_EDGE ( 'NONE', *, *, #270, .T. ) ;
#233 = CIRCLE ( 'NONE', #1, 0.04750000000000064587 ) ;
#234 = PRODUCT_DEFINITION_CONTEXT ( 'detailed design', #153, 'design' ) ;
#235 = ORIENTED_EDGE ( 'NONE', *, *, #83, .T. ) ;
#236 = CARTESIAN_POINT ( 'NONE',  ( 0.06250000000000008327, 7.654042494670966789E-18, 0.5003544551137262264 ) ) ;
#237 = STYLED_ITEM ( 'NONE', ( #195 ), #136 ) ;
#238 = CARTESIAN_POINT ( 'NONE',  ( 6.127574818941430966E-17, 0.0000000000000000000, 0.5003544551137262264 ) ) ;
#239 = DIRECTION ( 'NONE',  ( 1.224646799147353700E-16, 0.0000000000000000000, 1.000000000000000000 ) ) ;
#240 = EDGE_CURVE ( 'NONE', #74, #281, #264, .T. ) ;
#241 = DIRECTION ( 'NONE',  ( 0.0000000000000000000, 0.0000000000000000000, -1.000000000000000000 ) ) ;
#242 = AXIS2_PLACEMENT_3D ( 'NONE', #99, #256, #183 ) ;
#243 = CIRCLE ( 'NONE', #207, 0.06250000000000002776 ) ;
#244 = FILL_AREA_STYLE_COLOUR ( '', #108 ) ;
#245 = SURFACE_STYLE_FILL_AREA ( #39 ) ;
#246 = CYLINDRICAL_SURFACE ( 'NONE', #292, 0.06243749999999999994 ) ;
#247 = DIRECTION ( 'NONE',  ( -0.0000000000000000000, -0.0000000000000000000, -1.000000000000000000 ) ) ;
#248 = FILL_AREA_STYLE ('',( #117 ) ) ;
#249 = VECTOR ( 'NONE', #42, 39.37007874015748143 ) ;
#250 = CARTESIAN_POINT ( 'NONE',  ( -0.06243749999999994443, 7.646388452176287375E-18, 0.5000000000000000000 ) ) ;
#251 = FACE_OUTER_BOUND ( 'NONE', #9, .T. ) ;
#252 = CARTESIAN_POINT ( 'NONE',  ( -0.06243749999999999994, 0.0000000000000000000, 7.646388452176290456E-18 ) ) ;
#253 = ORIENTED_EDGE ( 'NONE', *, *, #83, .F. ) ;
#254 = ORIENTED_EDGE ( 'NONE', *, *, #277, .T. ) ;
#255 = ADVANCED_FACE ( 'NONE', ( #112 ), #246, .T. ) ;
#256 = DIRECTION ( 'NONE',  ( 0.0000000000000000000, 0.0000000000000000000, 1.000000000000000000 ) ) ;
#257 = ORIENTED_EDGE ( 'NONE', *, *, #182, .T. ) ;
#258 = ADVANCED_FACE ( 'NONE', ( #226 ), #29, .T. ) ;
#259 = ORIENTED_EDGE ( 'NONE', *, *, #291, .F. ) ;
#260 = CARTESIAN_POINT ( 'NONE',  ( 0.0000000000000000000, 0.0000000000000000000, 0.0000000000000000000 ) ) ;
#261 = CONICAL_SURFACE ( 'NONE', #54, 0.04750000000000064587, 0.7853981633974466137 ) ;
#262 = DIRECTION ( 'NONE',  ( -1.224646799147353700E-16, -0.0000000000000000000, -1.000000000000000000 ) ) ;
#263 = DIRECTION ( 'NONE',  ( 1.000000000000000000, 0.0000000000000000000, 0.0000000000000000000 ) ) ;
#264 = LINE ( 'NONE', #150, #249 ) ;
#265 = PRODUCT_DEFINITION_FORMATION_WITH_SPECIFIED_SOURCE ( 'ANY', '', #181, .NOT_KNOWN. ) ;
#266 = CARTESIAN_POINT ( 'NONE',  ( 6.123233995736768501E-17, 0.0000000000000000000, 0.5000000000000000000 ) ) ;
#267 = ADVANCED_FACE ( 'NONE', ( #251 ), #158, .F. ) ;
#268 = CARTESIAN_POINT ( 'NONE',  ( 0.06243749999999999994, 7.646388452176287375E-18, 0.0000000000000000000 ) ) ;
#269 = AXIS2_PLACEMENT_3D ( 'NONE', #148, #241, #41 ) ;
#270 = EDGE_CURVE ( 'NONE', #61, #164, #69, .T. ) ;
#271 = DIRECTION ( 'NONE',  ( -1.000000000000000000, 0.0000000000000000000, 0.0000000000000000000 ) ) ;
#272 = CARTESIAN_POINT ( 'NONE',  ( 9.364125142994982608E-34, 0.0000000000000000000, 7.646388452176290456E-18 ) ) ;
#273 = ORIENTED_EDGE ( 'NONE', *, *, #146, .F. ) ;
#274 = MECHANICAL_DESIGN_GEOMETRIC_PRESENTATION_REPRESENTATION (  '', ( #237 ), #222 ) ;
#275 = LINE ( 'NONE', #228, #186 ) ;
#276 = AXIS2_PLACEMENT_3D ( 'NONE', #137, #72, #95 ) ;
#277 = EDGE_CURVE ( 'NONE', #281, #140, #180, .T. ) ;
#278 = ORIENTED_EDGE ( 'NONE', *, *, #162, .F. ) ;
#279 = UNCERTAINTY_MEASURE_WITH_UNIT (LENGTH_MEASURE( 1.000000000000000082E-05 ), #176, 'distance_accuracy_value', 'NONE');
#280 = FACE_OUTER_BOUND ( 'NONE', #191, .T. ) ;
#281 = VERTEX_POINT ( 'NONE', #268 ) ;
#282 = EDGE_LOOP ( 'NONE', ( #57, #167 ) ) ;
#283 = VECTOR ( 'NONE', #170, 39.37007874015748143 ) ;
#284 = CARTESIAN_POINT ( 'NONE',  ( -0.04750000000000064587, 0.0000000000000000000, 1.500000000000000222 ) ) ;
#285 = DIRECTION ( 'NONE',  ( -1.000000000000000000, 0.0000000000000000000, 0.0000000000000000000 ) ) ;
#286 = DIRECTION ( 'NONE',  ( 1.000000000000000000, 0.0000000000000000000, 0.0000000000000000000 ) ) ;
#287 = DIRECTION ( 'NONE',  ( 1.224646799147353700E-16, 0.0000000000000000000, 1.000000000000000000 ) ) ;
#288 = CARTESIAN_POINT ( 'NONE',  ( 0.04750000000000064587, 6.735557395310483192E-18, 1.500000000000000222 ) ) ;
#289 = CARTESIAN_POINT ( 'NONE',  ( 6.123233995736768501E-17, 0.0000000000000000000, 0.5000000000000000000 ) ) ;
#290 = CARTESIAN_POINT ( 'NONE',  ( 6.127574818941430966E-17, 0.0000000000000000000, 0.5003544551137262264 ) ) ;
#291 = EDGE_CURVE ( 'NONE', #47, #164, #224, .T. ) ;
#292 = AXIS2_PLACEMENT_3D ( 'NONE', #118, #141, #293 ) ;
#293 = DIRECTION ( 'NONE',  ( -1.000000000000000000, 0.0000000000000000000, 1.224646799147353947E-16 ) ) ;
#294 = EDGE_CURVE ( 'NONE', #164, #47, #243, .T. ) ;
#295 = AXIS2_PLACEMENT_3D ( 'NONE', #290, #109, #263 ) ;
#296 = DIRECTION ( 'NONE',  ( 1.000000000000000000, 0.0000000000000000000, 0.0000000000000000000 ) ) ;
#297 = ORIENTED_EDGE ( 'NONE', *, *, #13, .T. ) ;
#298 = DIRECTION ( 'NONE',  ( 0.1736481776669312471, 0.0000000000000000000, 0.9848077530122077983 ) ) ;
#299 = EDGE_CURVE ( 'NONE', #8, #61, #124, .T. ) ;
ENDSEC;
END-ISO-10303-21;
