ISO-10303-21;
HEADER;
FILE_DESCRIPTION (( 'STEP AP214' ),
    '1' );
FILE_NAME ('Micro_GEM-078-4X.STEP',
    '2021-09-01T19:12:57',
    ( '' ),
    ( '' ),
    'SwSTEP 2.0',
    'SolidWorks 2020',
    '' );
FILE_SCHEMA (( 'AUTOMOTIVE_DESIGN' ));
ENDSEC;

DATA;
#1 = FACE_OUTER_BOUND ( 'NONE', #245, .T. ) ;
#2 = SURFACE_STYLE_USAGE ( .BOTH. , #252 ) ;
#3 = AXIS2_PLACEMENT_3D ( 'NONE', #256, #37, #131 ) ;
#4 = FILL_AREA_STYLE ('',( #145 ) ) ;
#5 = ADVANCED_FACE ( 'NONE', ( #113 ), #206, .T. ) ;
#6 = LENGTH_MEASURE_WITH_UNIT ( LENGTH_MEASURE( 0.02539999999999999897 ), #229 );
#7 = DIRECTION ( 'NONE',  ( 1.000000000000000000, 0.0000000000000000000, 0.0000000000000000000 ) ) ;
#8 =( CONVERSION_BASED_UNIT ( 'INCH', #227 ) LENGTH_UNIT ( ) NAMED_UNIT ( #296 ) );
#9 = APPLICATION_CONTEXT ( 'automotive_design' ) ;
#10 = AXIS2_PLACEMENT_3D ( 'NONE', #240, #49, #297 ) ;
#11 = COLOUR_RGB ( '',0.7921568627450980005, 0.8196078431372548767, 0.9333333333333333481 ) ;
#12 = CARTESIAN_POINT ( 'NONE',  ( 5.850705389343265247E-34, 0.0000000000000000000, 4.777463504919746737E-18 ) ) ;
#13 = ADVANCED_FACE ( 'NONE', ( #33 ), #125, .T. ) ;
#14 = DIRECTION ( 'NONE',  ( -1.224646799147353700E-16, -0.0000000000000000000, -1.000000000000000000 ) ) ;
#15 = FACE_OUTER_BOUND ( 'NONE', #281, .T. ) ;
#16 = VECTOR ( 'NONE', #177, 39.37007874015748854 ) ;
#17 = DIRECTION ( 'NONE',  ( -1.000000000000000000, 0.0000000000000000000, 1.224646799147353947E-16 ) ) ;
#18 = CARTESIAN_POINT ( 'NONE',  ( 3.933724995124051744E-17, 0.0000000000000000000, 0.3212130222250907940 ) ) ;
#19 = EDGE_LOOP ( 'NONE', ( #55, #166, #80, #260 ) ) ;
#20 = CIRCLE ( 'NONE', #10, 0.06250000000000002776 ) ;
#21 = EDGE_LOOP ( 'NONE', ( #200, #231, #140, #76 ) ) ;
#22 = DIRECTION ( 'NONE',  ( 0.0000000000000000000, 0.0000000000000000000, -1.000000000000000000 ) ) ;
#23 = VERTEX_POINT ( 'NONE', #62 ) ;
#24 = VERTEX_POINT ( 'NONE', #174 ) ;
#25 = DIRECTION ( 'NONE',  ( 1.000000000000000000, 0.0000000000000000000, 0.0000000000000000000 ) ) ;
#26 = AXIS2_PLACEMENT_3D ( 'NONE', #194, #130, #193 ) ;
#27 = VECTOR ( 'NONE', #36, 39.37007874015748143 ) ;
#28 = EDGE_LOOP ( 'NONE', ( #202, #180 ) ) ;
#29 = ADVANCED_FACE ( 'NONE', ( #1 ), #171, .T. ) ;
#30 = DIRECTION ( 'NONE',  ( -1.224646799147353700E-16, -0.0000000000000000000, -1.000000000000000000 ) ) ;
#31 = FILL_AREA_STYLE_COLOUR ( '', #11 ) ;
#32 = CARTESIAN_POINT ( 'NONE',  ( -0.03901094999999998175, 4.777463504919744426E-18, 0.1880000000000000282 ) ) ;
#33 = FACE_OUTER_BOUND ( 'NONE', #19, .T. ) ;
#34 = EDGE_CURVE ( 'NONE', #60, #162, #248, .T. ) ;
#35 = DIRECTION ( 'NONE',  ( -1.000000000000000000, 0.0000000000000000000, 0.0000000000000000000 ) ) ;
#36 = DIRECTION ( 'NONE',  ( -0.0000000000000000000, -0.0000000000000000000, -1.000000000000000000 ) ) ;
#37 = DIRECTION ( 'NONE',  ( 0.0000000000000000000, 0.0000000000000000000, -1.000000000000000000 ) ) ;
#38 = EDGE_CURVE ( 'NONE', #163, #99, #255, .T. ) ;
#39 = AXIS2_PLACEMENT_3D ( 'NONE', #135, #101, #7 ) ;
#40 = DIRECTION ( 'NONE',  ( 0.1736481776669313859, 0.0000000000000000000, 0.9848077530122077983 ) ) ;
#41 = CARTESIAN_POINT ( 'NONE',  ( 0.0000000000000000000, 0.0000000000000000000, 1.500000000000000222 ) ) ;
#42 = AXIS2_PLACEMENT_3D ( 'NONE', #164, #217, #25 ) ;
#43 = STYLED_ITEM ( 'NONE', ( #149 ), #53 ) ;
#44 = DIRECTION ( 'NONE',  ( -1.224646799147353700E-16, -0.0000000000000000000, -1.000000000000000000 ) ) ;
#45 = ADVANCED_FACE ( 'NONE', ( #106 ), #65, .T. ) ;
#46 = DIRECTION ( 'NONE',  ( -1.224646799147353700E-16, -0.0000000000000000000, -1.000000000000000000 ) ) ;
#47 = FACE_OUTER_BOUND ( 'NONE', #28, .T. ) ;
#48 = DIMENSIONAL_EXPONENTS ( 1.000000000000000000, 0.0000000000000000000, 0.0000000000000000000, 0.0000000000000000000, 0.0000000000000000000, 0.0000000000000000000, 0.0000000000000000000 ) ;
#49 = DIRECTION ( 'NONE',  ( -1.224646799147353700E-16, -0.0000000000000000000, -1.000000000000000000 ) ) ;
#50 = ORIENTED_EDGE ( 'NONE', *, *, #290, .F. ) ;
#51 = CARTESIAN_POINT ( 'NONE',  ( 0.0000000000000000000, 0.0000000000000000000, 1.500000000000000222 ) ) ;
#52 = DIRECTION ( 'NONE',  ( 0.7071067811865462405, 8.659560562354916834E-17, -0.7071067811865486830 ) ) ;
#53 = MANIFOLD_SOLID_BREP ( 'Cut-Revolve1', #258 ) ;
#54 = EDGE_CURVE ( 'NONE', #60, #24, #187, .T. ) ;
#55 = ORIENTED_EDGE ( 'NONE', *, *, #91, .F. ) ;
#56 = ORIENTED_EDGE ( 'NONE', *, *, #271, .T. ) ;
#57 = APPLICATION_PROTOCOL_DEFINITION ( 'draft international standard', 'automotive_design', 1998, #123 ) ;
#58 = DIRECTION ( 'NONE',  ( 0.0000000000000000000, 0.0000000000000000000, 1.000000000000000000 ) ) ;
#59 = EDGE_CURVE ( 'NONE', #162, #99, #249, .T. ) ;
#60 = VERTEX_POINT ( 'NONE', #272 ) ;
#61 = CONICAL_SURFACE ( 'NONE', #257, 0.04750000000000064587, 0.7853981633974466137 ) ;
#62 = CARTESIAN_POINT ( 'NONE',  ( 0.03901095000000000257, 4.777463504919744426E-18, 0.0000000000000000000 ) ) ;
#63 = SURFACE_STYLE_FILL_AREA ( #4 ) ;
#64 = SURFACE_STYLE_FILL_AREA ( #86 ) ;
#65 = CYLINDRICAL_SURFACE ( 'NONE', #95, 0.06250000000000002776 ) ;
#66 = DIRECTION ( 'NONE',  ( 1.000000000000000000, 0.0000000000000000000, 0.0000000000000000000 ) ) ;
#67 = ORIENTED_EDGE ( 'NONE', *, *, #215, .F. ) ;
#68 = COLOUR_RGB ( '',0.7921568627450980005, 0.8196078431372548767, 0.9333333333333333481 ) ;
#69 = CARTESIAN_POINT ( 'NONE',  ( 0.06250000000000002776, 7.654042494670959086E-18, 1.500000000000000222 ) ) ;
#70 = AXIS2_PLACEMENT_3D ( 'NONE', #105, #115, #153 ) ;
#71 = CARTESIAN_POINT ( 'NONE',  ( 0.03901095000000000257, 4.777463504919744426E-18, -4.777463504919746737E-18 ) ) ;
#72 = ADVANCED_FACE ( 'NONE', ( #144 ), #284, .T. ) ;
#73 = CARTESIAN_POINT ( 'NONE',  ( -0.06250000000000002776, 0.0000000000000000000, 1.500000000000000222 ) ) ;
#74 = AXIS2_PLACEMENT_3D ( 'NONE', #41, #139, #112 ) ;
#75 = DIRECTION ( 'NONE',  ( -1.000000000000000000, 0.0000000000000000000, 1.224646799147353947E-16 ) ) ;
#76 = ORIENTED_EDGE ( 'NONE', *, *, #109, .T. ) ;
#77 = DIRECTION ( 'NONE',  ( -1.000000000000000000, 0.0000000000000000000, 0.0000000000000000000 ) ) ;
#78 = ORIENTED_EDGE ( 'NONE', *, *, #34, .T. ) ;
#79 = DIRECTION ( 'NONE',  ( -1.000000000000000000, 0.0000000000000000000, 0.0000000000000000000 ) ) ;
#80 = ORIENTED_EDGE ( 'NONE', *, *, #199, .T. ) ;
#81 = ADVANCED_FACE ( 'NONE', ( #15 ), #83, .T. ) ;
#82 = UNCERTAINTY_MEASURE_WITH_UNIT (LENGTH_MEASURE( 1.000000000000000082E-05 ), #107, 'distance_accuracy_value', 'NONE');
#83 = CONICAL_SURFACE ( 'NONE', #39, 0.03901095000000000257, 0.1745329251994338915 ) ;
#84 = DIRECTION ( 'NONE',  ( -1.224646799147353700E-16, -0.0000000000000000000, -1.000000000000000000 ) ) ;
#85 = DIRECTION ( 'NONE',  ( -0.0000000000000000000, -0.0000000000000000000, -1.000000000000000000 ) ) ;
#86 = FILL_AREA_STYLE ('',( #31 ) ) ;
#87 = CARTESIAN_POINT ( 'NONE',  ( 0.0000000000000000000, 0.0000000000000000000, 1.500000000000000222 ) ) ;
#88 = ORIENTED_EDGE ( 'NONE', *, *, #109, .F. ) ;
#89 = ADVANCED_FACE ( 'NONE', ( #265 ), #93, .F. ) ;
#90 = DIRECTION ( 'NONE',  ( -1.224646799147353700E-16, -0.0000000000000000000, -1.000000000000000000 ) ) ;
#91 = EDGE_CURVE ( 'NONE', #162, #23, #198, .T. ) ;
#92 = LINE ( 'NONE', #73, #156 ) ;
#93 = PLANE ( 'NONE',  #117 ) ;
#94 = CIRCLE ( 'NONE', #42, 0.04750000000000064587 ) ;
#95 = AXIS2_PLACEMENT_3D ( 'NONE', #87, #209, #155 ) ;
#96 = EDGE_CURVE ( 'NONE', #162, #60, #269, .T. ) ;
#97 = VERTEX_POINT ( 'NONE', #288 ) ;
#98 = VERTEX_POINT ( 'NONE', #262 ) ;
#99 = VERTEX_POINT ( 'NONE', #289 ) ;
#100 = CIRCLE ( 'NONE', #212, 0.03901095000000000257 ) ;
#101 = DIRECTION ( 'NONE',  ( 1.224646799147353700E-16, 0.0000000000000000000, 1.000000000000000000 ) ) ;
#102 = EDGE_CURVE ( 'NONE', #98, #241, #292, .T. ) ;
#103 = ORIENTED_EDGE ( 'NONE', *, *, #136, .T. ) ;
#104 =( NAMED_UNIT ( * ) SI_UNIT ( $, .STERADIAN. ) SOLID_ANGLE_UNIT ( ) );
#105 = CARTESIAN_POINT ( 'NONE',  ( 0.0000000000000000000, 0.0000000000000000000, 1.500000000000000222 ) ) ;
#106 = FACE_OUTER_BOUND ( 'NONE', #293, .T. ) ;
#107 =( CONVERSION_BASED_UNIT ( 'INCH', #152 ) LENGTH_UNIT ( ) NAMED_UNIT ( #225 ) );
#108 = PRODUCT_DEFINITION_CONTEXT ( 'detailed design', #123, 'design' ) ;
#109 = EDGE_CURVE ( 'NONE', #99, #24, #216, .T. ) ;
#110 = AXIS2_PLACEMENT_3D ( 'NONE', #207, #253, #66 ) ;
#111 = DIRECTION ( 'NONE',  ( -0.1736481776669311916, 2.126576849575783316E-17, 0.9848077530122080203 ) ) ;
#112 = DIRECTION ( 'NONE',  ( -1.000000000000000000, 0.0000000000000000000, 0.0000000000000000000 ) ) ;
#113 = FACE_OUTER_BOUND ( 'NONE', #21, .T. ) ;
#114 = VECTOR ( 'NONE', #294, 39.37007874015748143 ) ;
#115 = DIRECTION ( 'NONE',  ( 0.0000000000000000000, 0.0000000000000000000, 1.000000000000000000 ) ) ;
#116 = PRODUCT_DEFINITION ( 'UNKNOWN', '', #132, #108 ) ;
#117 = AXIS2_PLACEMENT_3D ( 'NONE', #176, #196, #220 ) ;
#118 = EDGE_CURVE ( 'NONE', #241, #24, #92, .T. ) ;
#119 = VECTOR ( 'NONE', #44, 39.37007874015748143 ) ;
#120 = ORIENTED_EDGE ( 'NONE', *, *, #224, .T. ) ;
#121 = ORIENTED_EDGE ( 'NONE', *, *, #102, .F. ) ;
#122 = ORIENTED_EDGE ( 'NONE', *, *, #215, .T. ) ;
#123 = APPLICATION_CONTEXT ( 'automotive_design' ) ;
#124 = SURFACE_SIDE_STYLE ('',( #63 ) ) ;
#125 = CYLINDRICAL_SURFACE ( 'NONE', #173, 0.03901095000000000257 ) ;
#126 =( GEOMETRIC_REPRESENTATION_CONTEXT ( 3 ) GLOBAL_UNCERTAINTY_ASSIGNED_CONTEXT ( ( #186 ) ) GLOBAL_UNIT_ASSIGNED_CONTEXT ( ( #8, #129, #185 ) ) REPRESENTATION_CONTEXT ( 'NONE', 'WORKASPACE' ) );
#127 =( LENGTH_UNIT ( ) NAMED_UNIT ( * ) SI_UNIT ( $, .METRE. ) );
#128 = DIRECTION ( 'NONE',  ( -1.000000000000000000, 0.0000000000000000000, 0.0000000000000000000 ) ) ;
#129 =( NAMED_UNIT ( * ) PLANE_ANGLE_UNIT ( ) SI_UNIT ( $, .RADIAN. ) );
#130 = DIRECTION ( 'NONE',  ( 0.0000000000000000000, 0.0000000000000000000, 1.000000000000000000 ) ) ;
#131 = DIRECTION ( 'NONE',  ( 1.000000000000000000, 0.0000000000000000000, 0.0000000000000000000 ) ) ;
#132 = PRODUCT_DEFINITION_FORMATION_WITH_SPECIFIED_SOURCE ( 'ANY', '', #148, .NOT_KNOWN. ) ;
#133 = MECHANICAL_DESIGN_GEOMETRIC_PRESENTATION_REPRESENTATION (  '', ( #43 ), #126 ) ;
#134 = AXIS2_PLACEMENT_3D ( 'NONE', #168, #14, #75 ) ;
#135 = CARTESIAN_POINT ( 'NONE',  ( 2.302335982397025094E-17, 0.0000000000000000000, 0.1880000000000000282 ) ) ;
#136 = EDGE_CURVE ( 'NONE', #24, #99, #20, .T. ) ;
#137 = ORIENTED_EDGE ( 'NONE', *, *, #224, .F. ) ;
#138 = AXIS2_PLACEMENT_3D ( 'NONE', #287, #238, #17 ) ;
#139 = DIRECTION ( 'NONE',  ( 0.0000000000000000000, 0.0000000000000000000, -1.000000000000000000 ) ) ;
#140 = ORIENTED_EDGE ( 'NONE', *, *, #59, .T. ) ;
#141 = PRODUCT_CONTEXT ( 'NONE', #9, 'mechanical' ) ;
#142 = ORIENTED_EDGE ( 'NONE', *, *, #59, .F. ) ;
#143 =( NAMED_UNIT ( * ) PLANE_ANGLE_UNIT ( ) SI_UNIT ( $, .RADIAN. ) );
#144 = FACE_OUTER_BOUND ( 'NONE', #270, .T. ) ;
#145 = FILL_AREA_STYLE_COLOUR ( '', #68 ) ;
#146 = ADVANCED_FACE ( 'NONE', ( #299 ), #167, .T. ) ;
#147 = UNCERTAINTY_MEASURE_WITH_UNIT (LENGTH_MEASURE( 1.000000000000000082E-05 ), #232, 'distance_accuracy_value', 'NONE');
#148 = PRODUCT ( 'Micro_GEM-078-4X', 'Micro_GEM-078-4X', '', ( #141 ) ) ;
#149 = PRESENTATION_STYLE_ASSIGNMENT (( #278 ) ) ;
#150 = STYLED_ITEM ( 'NONE', ( #228 ), #214 ) ;
#151 = DIRECTION ( 'NONE',  ( 1.000000000000000000, 0.0000000000000000000, 0.0000000000000000000 ) ) ;
#152 = LENGTH_MEASURE_WITH_UNIT ( LENGTH_MEASURE( 0.02539999999999999897 ), #127 );
#153 = DIRECTION ( 'NONE',  ( 1.000000000000000000, 0.0000000000000000000, 0.0000000000000000000 ) ) ;
#154 = EDGE_CURVE ( 'NONE', #97, #163, #235, .T. ) ;
#155 = DIRECTION ( 'NONE',  ( -1.000000000000000000, 0.0000000000000000000, 0.0000000000000000000 ) ) ;
#156 = VECTOR ( 'NONE', #159, 39.37007874015748143 ) ;
#157 = CARTESIAN_POINT ( 'NONE',  ( -0.04750000000000064587, 0.0000000000000000000, 1.500000000000000222 ) ) ;
#158 = AXIS2_PLACEMENT_3D ( 'NONE', #51, #58, #210 ) ;
#159 = DIRECTION ( 'NONE',  ( -0.0000000000000000000, -0.0000000000000000000, -1.000000000000000000 ) ) ;
#160 = CARTESIAN_POINT ( 'NONE',  ( 2.302335982397025094E-17, 0.0000000000000000000, 0.1880000000000000282 ) ) ;
#161 = ORIENTED_EDGE ( 'NONE', *, *, #184, .F. ) ;
#162 = VERTEX_POINT ( 'NONE', #219 ) ;
#163 = VERTEX_POINT ( 'NONE', #195 ) ;
#164 = CARTESIAN_POINT ( 'NONE',  ( 0.0000000000000000000, 0.0000000000000000000, 1.500000000000000222 ) ) ;
#165 = AXIS2_PLACEMENT_3D ( 'NONE', #169, #211, #151 ) ;
#166 = ORIENTED_EDGE ( 'NONE', *, *, #96, .T. ) ;
#167 = CYLINDRICAL_SURFACE ( 'NONE', #134, 0.03901095000000000257 ) ;
#168 = CARTESIAN_POINT ( 'NONE',  ( 0.0000000000000000000, 0.0000000000000000000, 0.0000000000000000000 ) ) ;
#169 = CARTESIAN_POINT ( 'NONE',  ( 2.302335982397025094E-17, 0.0000000000000000000, 0.1880000000000000282 ) ) ;
#170 = CARTESIAN_POINT ( 'NONE',  ( 2.302335982397025094E-17, 0.0000000000000000000, 0.1880000000000000282 ) ) ;
#171 = CYLINDRICAL_SURFACE ( 'NONE', #286, 0.06250000000000002776 ) ;
#172 = PRODUCT_RELATED_PRODUCT_CATEGORY ( 'part', '', ( #148 ) ) ;
#173 = AXIS2_PLACEMENT_3D ( 'NONE', #226, #30, #191 ) ;
#174 = CARTESIAN_POINT ( 'NONE',  ( -0.06249999999999997918, 0.0000000000000000000, 0.3212130222250907940 ) ) ;
#175 = CARTESIAN_POINT ( 'NONE',  ( -0.03901095000000000257, 0.0000000000000000000, 9.554927009839493473E-18 ) ) ;
#176 = CARTESIAN_POINT ( 'NONE',  ( 0.0000000000000000000, 0.0000000000000000000, 0.0000000000000000000 ) ) ;
#177 = DIRECTION ( 'NONE',  ( -0.7071067811865462405, 0.0000000000000000000, -0.7071067811865486830 ) ) ;
#178 = AXIS2_PLACEMENT_3D ( 'NONE', #170, #84, #128 ) ;
#179 = PLANE ( 'NONE',  #158 ) ;
#180 = ORIENTED_EDGE ( 'NONE', *, *, #290, .T. ) ;
#181 = CARTESIAN_POINT ( 'NONE',  ( 0.0000000000000000000, 0.0000000000000000000, 1.500000000000000222 ) ) ;
#182 = ORIENTED_EDGE ( 'NONE', *, *, #118, .T. ) ;
#183 = EDGE_LOOP ( 'NONE', ( #203, #56 ) ) ;
#184 = EDGE_CURVE ( 'NONE', #190, #23, #234, .T. ) ;
#185 =( NAMED_UNIT ( * ) SI_UNIT ( $, .STERADIAN. ) SOLID_ANGLE_UNIT ( ) );
#186 = UNCERTAINTY_MEASURE_WITH_UNIT (LENGTH_MEASURE( 1.000000000000000082E-05 ), #8, 'distance_accuracy_value', 'NONE');
#187 = LINE ( 'NONE', #32, #239 ) ;
#188 = CIRCLE ( 'NONE', #70, 0.04750000000000064587 ) ;
#189 = CARTESIAN_POINT ( 'NONE',  ( 0.03901095000000003032, 0.0000000000000000000, 0.1880000000000000282 ) ) ;
#190 = VERTEX_POINT ( 'NONE', #175 ) ;
#191 = DIRECTION ( 'NONE',  ( -1.000000000000000000, 0.0000000000000000000, 1.224646799147353947E-16 ) ) ;
#192 = PRODUCT_DEFINITION_SHAPE ( 'NONE', 'NONE',  #116 ) ;
#193 = DIRECTION ( 'NONE',  ( 1.000000000000000000, 0.0000000000000000000, 0.0000000000000000000 ) ) ;
#194 = CARTESIAN_POINT ( 'NONE',  ( 0.0000000000000000000, 0.0000000000000000000, 0.0000000000000000000 ) ) ;
#195 = CARTESIAN_POINT ( 'NONE',  ( 0.06250000000000002776, 7.654042494670959086E-18, 1.485000000000000764 ) ) ;
#196 = DIRECTION ( 'NONE',  ( 0.0000000000000000000, 0.0000000000000000000, 1.000000000000000000 ) ) ;
#197 = CARTESIAN_POINT ( 'NONE',  ( -0.03901095000000000257, 0.0000000000000000000, 4.777463504919746737E-18 ) ) ;
#198 = LINE ( 'NONE', #71, #114 ) ;
#199 = EDGE_CURVE ( 'NONE', #60, #190, #261, .T. ) ;
#200 = ORIENTED_EDGE ( 'NONE', *, *, #54, .F. ) ;
#201 = ORIENTED_EDGE ( 'NONE', *, *, #118, .F. ) ;
#202 = ORIENTED_EDGE ( 'NONE', *, *, #208, .T. ) ;
#203 = ORIENTED_EDGE ( 'NONE', *, *, #184, .T. ) ;
#204 = ORIENTED_EDGE ( 'NONE', *, *, #208, .F. ) ;
#205 = ORIENTED_EDGE ( 'NONE', *, *, #154, .T. ) ;
#206 = CONICAL_SURFACE ( 'NONE', #165, 0.03901095000000000257, 0.1745329251994338915 ) ;
#207 = CARTESIAN_POINT ( 'NONE',  ( 0.0000000000000000000, 0.0000000000000000000, 1.485000000000000764 ) ) ;
#208 = EDGE_CURVE ( 'NONE', #98, #97, #188, .T. ) ;
#209 = DIRECTION ( 'NONE',  ( -0.0000000000000000000, -0.0000000000000000000, -1.000000000000000000 ) ) ;
#210 = DIRECTION ( 'NONE',  ( 1.000000000000000000, 0.0000000000000000000, -0.0000000000000000000 ) ) ;
#211 = DIRECTION ( 'NONE',  ( 1.224646799147353700E-16, 0.0000000000000000000, 1.000000000000000000 ) ) ;
#212 = AXIS2_PLACEMENT_3D ( 'NONE', #12, #236, #291 ) ;
#213 = CARTESIAN_POINT ( 'NONE',  ( -0.06250000000000002776, 0.0000000000000000000, 1.485000000000000764 ) ) ;
#214 = ADVANCED_BREP_SHAPE_REPRESENTATION ( 'Micro_GEM-078-4X', ( #53, #26 ), #263 ) ;
#215 = EDGE_CURVE ( 'NONE', #163, #241, #221, .T. ) ;
#216 = CIRCLE ( 'NONE', #264, 0.06250000000000002776 ) ;
#217 = DIRECTION ( 'NONE',  ( 0.0000000000000000000, 0.0000000000000000000, 1.000000000000000000 ) ) ;
#218 = FACE_OUTER_BOUND ( 'NONE', #254, .T. ) ;
#219 = CARTESIAN_POINT ( 'NONE',  ( 0.03901095000000003032, 0.0000000000000000000, 0.1880000000000000282 ) ) ;
#220 = DIRECTION ( 'NONE',  ( 1.000000000000000000, 0.0000000000000000000, -0.0000000000000000000 ) ) ;
#221 = CIRCLE ( 'NONE', #110, 0.06250000000000002776 ) ;
#222 = EDGE_LOOP ( 'NONE', ( #78, #279, #161, #251 ) ) ;
#223 = SHAPE_DEFINITION_REPRESENTATION ( #192, #214 ) ;
#224 = EDGE_CURVE ( 'NONE', #241, #163, #259, .T. ) ;
#225 = DIMENSIONAL_EXPONENTS ( 1.000000000000000000, 0.0000000000000000000, 0.0000000000000000000, 0.0000000000000000000, 0.0000000000000000000, 0.0000000000000000000, 0.0000000000000000000 ) ;
#226 = CARTESIAN_POINT ( 'NONE',  ( 0.0000000000000000000, 0.0000000000000000000, 0.0000000000000000000 ) ) ;
#227 = LENGTH_MEASURE_WITH_UNIT ( LENGTH_MEASURE( 0.02539999999999999897 ), #233 );
#228 = PRESENTATION_STYLE_ASSIGNMENT (( #2 ) ) ;
#229 =( LENGTH_UNIT ( ) NAMED_UNIT ( * ) SI_UNIT ( $, .METRE. ) );
#230 = VECTOR ( 'NONE', #40, 39.37007874015748143 ) ;
#231 = ORIENTED_EDGE ( 'NONE', *, *, #96, .F. ) ;
#232 =( CONVERSION_BASED_UNIT ( 'INCH', #6 ) LENGTH_UNIT ( ) NAMED_UNIT ( #48 ) );
#233 =( LENGTH_UNIT ( ) NAMED_UNIT ( * ) SI_UNIT ( $, .METRE. ) );
#234 = CIRCLE ( 'NONE', #138, 0.03901095000000000257 ) ;
#235 = LINE ( 'NONE', #242, #298 ) ;
#236 = DIRECTION ( 'NONE',  ( -1.224646799147353700E-16, -0.0000000000000000000, -1.000000000000000000 ) ) ;
#237 = DIRECTION ( 'NONE',  ( 1.000000000000000000, 0.0000000000000000000, 0.0000000000000000000 ) ) ;
#238 = DIRECTION ( 'NONE',  ( -1.224646799147353700E-16, -0.0000000000000000000, -1.000000000000000000 ) ) ;
#239 = VECTOR ( 'NONE', #111, 39.37007874015747433 ) ;
#240 = CARTESIAN_POINT ( 'NONE',  ( 3.933724995124051744E-17, 0.0000000000000000000, 0.3212130222250907940 ) ) ;
#241 = VERTEX_POINT ( 'NONE', #213 ) ;
#242 = CARTESIAN_POINT ( 'NONE',  ( 0.04750000000000064587, 5.817072295950006528E-18, 1.500000000000000222 ) ) ;
#243 = PRESENTATION_LAYER_ASSIGNMENT (  '', '', ( #43 ) ) ;
#244 = ORIENTED_EDGE ( 'NONE', *, *, #54, .T. ) ;
#245 = EDGE_LOOP ( 'NONE', ( #120, #273, #295, #201 ) ) ;
#246 = ORIENTED_EDGE ( 'NONE', *, *, #34, .F. ) ;
#247 = ORIENTED_EDGE ( 'NONE', *, *, #38, .F. ) ;
#248 = CIRCLE ( 'NONE', #178, 0.03901095000000000257 ) ;
#249 = LINE ( 'NONE', #189, #230 ) ;
#250 = APPLICATION_PROTOCOL_DEFINITION ( 'draft international standard', 'automotive_design', 1998, #9 ) ;
#251 = ORIENTED_EDGE ( 'NONE', *, *, #199, .F. ) ;
#252 = SURFACE_SIDE_STYLE ('',( #64 ) ) ;
#253 = DIRECTION ( 'NONE',  ( 0.0000000000000000000, 0.0000000000000000000, -1.000000000000000000 ) ) ;
#254 = EDGE_LOOP ( 'NONE', ( #266, #204, #267, #67 ) ) ;
#255 = LINE ( 'NONE', #69, #27 ) ;
#256 = CARTESIAN_POINT ( 'NONE',  ( 0.0000000000000000000, 0.0000000000000000000, 1.485000000000000764 ) ) ;
#257 = AXIS2_PLACEMENT_3D ( 'NONE', #181, #22, #79 ) ;
#258 = CLOSED_SHELL ( 'NONE', ( #146, #81, #72, #29, #45, #283, #285, #5, #13, #89 ) ) ;
#259 = CIRCLE ( 'NONE', #3, 0.06250000000000002776 ) ;
#260 = ORIENTED_EDGE ( 'NONE', *, *, #271, .F. ) ;
#261 = LINE ( 'NONE', #197, #119 ) ;
#262 = CARTESIAN_POINT ( 'NONE',  ( -0.04750000000000064587, 0.0000000000000000000, 1.500000000000000222 ) ) ;
#263 =( GEOMETRIC_REPRESENTATION_CONTEXT ( 3 ) GLOBAL_UNCERTAINTY_ASSIGNED_CONTEXT ( ( #147 ) ) GLOBAL_UNIT_ASSIGNED_CONTEXT ( ( #232, #143, #280 ) ) REPRESENTATION_CONTEXT ( 'NONE', 'WORKASPACE' ) );
#264 = AXIS2_PLACEMENT_3D ( 'NONE', #18, #90, #237 ) ;
#265 = FACE_OUTER_BOUND ( 'NONE', #183, .T. ) ;
#266 = ORIENTED_EDGE ( 'NONE', *, *, #154, .F. ) ;
#267 = ORIENTED_EDGE ( 'NONE', *, *, #102, .T. ) ;
#268 =( GEOMETRIC_REPRESENTATION_CONTEXT ( 3 ) GLOBAL_UNCERTAINTY_ASSIGNED_CONTEXT ( ( #82 ) ) GLOBAL_UNIT_ASSIGNED_CONTEXT ( ( #107, #274, #104 ) ) REPRESENTATION_CONTEXT ( 'NONE', 'WORKASPACE' ) );
#269 = CIRCLE ( 'NONE', #277, 0.03901095000000000257 ) ;
#270 = EDGE_LOOP ( 'NONE', ( #50, #205, #137, #121 ) ) ;
#271 = EDGE_CURVE ( 'NONE', #23, #190, #100, .T. ) ;
#272 = CARTESIAN_POINT ( 'NONE',  ( -0.03901094999999998175, 6.215752999795353296E-18, 0.1880000000000000282 ) ) ;
#273 = ORIENTED_EDGE ( 'NONE', *, *, #38, .T. ) ;
#274 =( NAMED_UNIT ( * ) PLANE_ANGLE_UNIT ( ) SI_UNIT ( $, .RADIAN. ) );
#275 = MECHANICAL_DESIGN_GEOMETRIC_PRESENTATION_REPRESENTATION (  '', ( #150 ), #268 ) ;
#276 = CARTESIAN_POINT ( 'NONE',  ( 0.0000000000000000000, 0.0000000000000000000, 1.500000000000000222 ) ) ;
#277 = AXIS2_PLACEMENT_3D ( 'NONE', #160, #46, #77 ) ;
#278 = SURFACE_STYLE_USAGE ( .BOTH. , #124 ) ;
#279 = ORIENTED_EDGE ( 'NONE', *, *, #91, .T. ) ;
#280 =( NAMED_UNIT ( * ) SI_UNIT ( $, .STERADIAN. ) SOLID_ANGLE_UNIT ( ) );
#281 = EDGE_LOOP ( 'NONE', ( #246, #244, #103, #142 ) ) ;
#282 = PRESENTATION_LAYER_ASSIGNMENT (  '', '', ( #150 ) ) ;
#283 = ADVANCED_FACE ( 'NONE', ( #47 ), #179, .T. ) ;
#284 = CONICAL_SURFACE ( 'NONE', #74, 0.04750000000000064587, 0.7853981633974466137 ) ;
#285 = ADVANCED_FACE ( 'NONE', ( #218 ), #61, .T. ) ;
#286 = AXIS2_PLACEMENT_3D ( 'NONE', #276, #85, #35 ) ;
#287 = CARTESIAN_POINT ( 'NONE',  ( 5.850705389343265247E-34, 0.0000000000000000000, 4.777463504919746737E-18 ) ) ;
#288 = CARTESIAN_POINT ( 'NONE',  ( 0.04750000000000064587, 6.735557395310483192E-18, 1.500000000000000222 ) ) ;
#289 = CARTESIAN_POINT ( 'NONE',  ( 0.06250000000000006939, 7.654042494670963708E-18, 0.3212130222250907940 ) ) ;
#290 = EDGE_CURVE ( 'NONE', #97, #98, #94, .T. ) ;
#291 = DIRECTION ( 'NONE',  ( -1.000000000000000000, 0.0000000000000000000, 1.224646799147353947E-16 ) ) ;
#292 = LINE ( 'NONE', #157, #16 ) ;
#293 = EDGE_LOOP ( 'NONE', ( #247, #122, #182, #88 ) ) ;
#294 = DIRECTION ( 'NONE',  ( -1.224646799147353700E-16, -0.0000000000000000000, -1.000000000000000000 ) ) ;
#295 = ORIENTED_EDGE ( 'NONE', *, *, #136, .F. ) ;
#296 = DIMENSIONAL_EXPONENTS ( 1.000000000000000000, 0.0000000000000000000, 0.0000000000000000000, 0.0000000000000000000, 0.0000000000000000000, 0.0000000000000000000, 0.0000000000000000000 ) ;
#297 = DIRECTION ( 'NONE',  ( 1.000000000000000000, 0.0000000000000000000, 0.0000000000000000000 ) ) ;
#298 = VECTOR ( 'NONE', #52, 39.37007874015748854 ) ;
#299 = FACE_OUTER_BOUND ( 'NONE', #222, .T. ) ;
ENDSEC;
END-ISO-10303-21;
