ISO-10303-21;
HEADER;
FILE_DESCRIPTION (( 'STEP AP214' ),
    '1' );
FILE_NAME ('Micro_RMEM-007-2.STEP',
    '2021-09-01T23:42:08',
    ( '' ),
    ( '' ),
    'SwSTEP 2.0',
    'SolidWorks 2020',
    '' );
FILE_SCHEMA (( 'AUTOMOTIVE_DESIGN' ));
ENDSEC;

DATA;
#1 = CARTESIAN_POINT ( 'NONE',  ( 0.0000000000000000000, 0.0000000000000000000, 1.481062999999999574 ) ) ;
#2 = CARTESIAN_POINT ( 'NONE',  ( -0.01376572049999998798, 1.685814554828210055E-18, 0.08267699999999998661 ) ) ;
#3 = CIRCLE ( 'NONE', #37, 0.01376572049999999839 ) ;
#4 = CIRCLE ( 'NONE', #191, 0.05905500000000000332 ) ;
#5 = DIRECTION ( 'NONE',  ( 1.000000000000000000, 0.0000000000000000000, 0.0000000000000000000 ) ) ;
#6 = DIRECTION ( 'NONE',  ( -1.000000000000000000, 0.0000000000000000000, 1.224646799147353207E-16 ) ) ;
#7 = EDGE_CURVE ( 'NONE', #204, #241, #3, .T. ) ;
#8 = DIRECTION ( 'NONE',  ( -0.0000000000000000000, -0.0000000000000000000, -1.000000000000000000 ) ) ;
#9 = CIRCLE ( 'NONE', #145, 0.01376572049999999839 ) ;
#10 = CARTESIAN_POINT ( 'NONE',  ( -0.05905500000000000332, 0.0000000000000000000, 1.481062999999999574 ) ) ;
#11 = EDGE_CURVE ( 'NONE', #204, #205, #92, .T. ) ;
#12 = DIRECTION ( 'NONE',  ( -1.000000000000000000, 0.0000000000000000000, 0.0000000000000000000 ) ) ;
#13 = DIRECTION ( 'NONE',  ( 0.0000000000000000000, 0.0000000000000000000, 1.000000000000000000 ) ) ;
#14 = STYLED_ITEM ( 'NONE', ( #98 ), #49 ) ;
#15 = APPLICATION_CONTEXT ( 'automotive_design' ) ;
#16 = DIRECTION ( 'NONE',  ( 1.000000000000000000, 0.0000000000000000000, 0.0000000000000000000 ) ) ;
#17 = ORIENTED_EDGE ( 'NONE', *, *, #11, .F. ) ;
#18 = FILL_AREA_STYLE ('',( #202 ) ) ;
#19 = ORIENTED_EDGE ( 'NONE', *, *, #52, .T. ) ;
#20 = AXIS2_PLACEMENT_3D ( 'NONE', #284, #81, #79 ) ;
#21 = ORIENTED_EDGE ( 'NONE', *, *, #62, .F. ) ;
#22 = SHAPE_DEFINITION_REPRESENTATION ( #154, #236 ) ;
#23 = ORIENTED_EDGE ( 'NONE', *, *, #157, .F. ) ;
#24 = CARTESIAN_POINT ( 'NONE',  ( 0.01376572049999999665, 1.685814554828209863E-18, -1.685814554828209863E-18 ) ) ;
#25 = CARTESIAN_POINT ( 'NONE',  ( 0.0000000000000000000, 0.0000000000000000000, 1.496062999999999921 ) ) ;
#26 = EDGE_CURVE ( 'NONE', #139, #70, #210, .T. ) ;
#27 = CARTESIAN_POINT ( 'NONE',  ( 0.05905500000000000332, 7.232151672364695422E-18, 1.481062999999999574 ) ) ;
#28 = LENGTH_MEASURE_WITH_UNIT ( LENGTH_MEASURE( 0.02539999999999999897 ), #117 );
#29 = AXIS2_PLACEMENT_3D ( 'NONE', #226, #275, #5 ) ;
#30 =( GEOMETRIC_REPRESENTATION_CONTEXT ( 3 ) GLOBAL_UNCERTAINTY_ASSIGNED_CONTEXT ( ( #46 ) ) GLOBAL_UNIT_ASSIGNED_CONTEXT ( ( #111, #244, #218 ) ) REPRESENTATION_CONTEXT ( 'NONE', 'WORKASPACE' ) );
#31 = CARTESIAN_POINT ( 'NONE',  ( 2.064527398526387168E-34, 0.0000000000000000000, 1.685814554828209863E-18 ) ) ;
#32 = CARTESIAN_POINT ( 'NONE',  ( 0.0000000000000000000, 0.0000000000000000000, 1.496062999999999921 ) ) ;
#33 = DIRECTION ( 'NONE',  ( -1.000000000000000000, 0.0000000000000000000, 0.0000000000000000000 ) ) ;
#34 = CYLINDRICAL_SURFACE ( 'NONE', #159, 0.05905500000000000332 ) ;
#35 = DIRECTION ( 'NONE',  ( 1.000000000000000000, 0.0000000000000000000, -0.0000000000000000000 ) ) ;
#36 = EDGE_LOOP ( 'NONE', ( #249, #272 ) ) ;
#37 = AXIS2_PLACEMENT_3D ( 'NONE', #142, #274, #47 ) ;
#38 = EDGE_CURVE ( 'NONE', #70, #109, #48, .T. ) ;
#39 = VERTEX_POINT ( 'NONE', #192 ) ;
#40 = LENGTH_MEASURE_WITH_UNIT ( LENGTH_MEASURE( 0.02539999999999999897 ), #132 );
#41 = ORIENTED_EDGE ( 'NONE', *, *, #256, .F. ) ;
#42 =( NAMED_UNIT ( * ) PLANE_ANGLE_UNIT ( ) SI_UNIT ( $, .RADIAN. ) );
#43 =( NAMED_UNIT ( * ) SI_UNIT ( $, .STERADIAN. ) SOLID_ANGLE_UNIT ( ) );
#44 = MECHANICAL_DESIGN_GEOMETRIC_PRESENTATION_REPRESENTATION (  '', ( #14 ), #219 ) ;
#45 = ORIENTED_EDGE ( 'NONE', *, *, #97, .T. ) ;
#46 = UNCERTAINTY_MEASURE_WITH_UNIT (LENGTH_MEASURE( 1.000000000000000082E-05 ), #111, 'distance_accuracy_value', 'NONE');
#47 = DIRECTION ( 'NONE',  ( -1.000000000000000000, 0.0000000000000000000, 0.0000000000000000000 ) ) ;
#48 = LINE ( 'NONE', #148, #182 ) ;
#49 = MANIFOLD_SOLID_BREP ( 'Cut-Revolve1', #168 ) ;
#50 = CARTESIAN_POINT ( 'NONE',  ( 0.05905500000000000332, 7.232151672364695422E-18, 1.496062999999999921 ) ) ;
#51 = CIRCLE ( 'NONE', #29, 0.05905500000000000332 ) ;
#52 = EDGE_CURVE ( 'NONE', #39, #222, #51, .T. ) ;
#53 = CARTESIAN_POINT ( 'NONE',  ( 1.012501234131057143E-17, 0.0000000000000000000, 0.08267699999999998661 ) ) ;
#54 = DIRECTION ( 'NONE',  ( -0.1736481776669311639, 2.126576849575783008E-17, 0.9848077530122080203 ) ) ;
#55 = DIRECTION ( 'NONE',  ( 1.000000000000000000, 0.0000000000000000000, -0.0000000000000000000 ) ) ;
#56 = EDGE_CURVE ( 'NONE', #222, #39, #78, .T. ) ;
#57 = FACE_OUTER_BOUND ( 'NONE', #136, .T. ) ;
#58 = DIRECTION ( 'NONE',  ( 0.0000000000000000000, 0.0000000000000000000, -1.000000000000000000 ) ) ;
#59 = CARTESIAN_POINT ( 'NONE',  ( -0.01376572049999999665, 0.0000000000000000000, 3.371629109656419725E-18 ) ) ;
#60 = CIRCLE ( 'NONE', #91, 0.05905500000000000332 ) ;
#61 = DIRECTION ( 'NONE',  ( -0.0000000000000000000, -0.0000000000000000000, -1.000000000000000000 ) ) ;
#62 = EDGE_CURVE ( 'NONE', #109, #181, #60, .T. ) ;
#63 = ORIENTED_EDGE ( 'NONE', *, *, #26, .F. ) ;
#64 = AXIS2_PLACEMENT_3D ( 'NONE', #146, #207, #299 ) ;
#65 = DIRECTION ( 'NONE',  ( 0.0000000000000000000, 0.0000000000000000000, 1.000000000000000000 ) ) ;
#66 = ORIENTED_EDGE ( 'NONE', *, *, #69, .T. ) ;
#67 = EDGE_LOOP ( 'NONE', ( #201, #243, #224, #203 ) ) ;
#68 = UNCERTAINTY_MEASURE_WITH_UNIT (LENGTH_MEASURE( 1.000000000000000082E-05 ), #257, 'distance_accuracy_value', 'NONE');
#69 = EDGE_CURVE ( 'NONE', #109, #222, #74, .T. ) ;
#70 = VERTEX_POINT ( 'NONE', #171 ) ;
#71 = CIRCLE ( 'NONE', #265, 0.04405499999999973326 ) ;
#72 = CIRCLE ( 'NONE', #176, 0.01376572049999999665 ) ;
#73 = FILL_AREA_STYLE ('',( #208 ) ) ;
#74 = LINE ( 'NONE', #50, #155 ) ;
#75 = DIRECTION ( 'NONE',  ( 1.000000000000000000, 0.0000000000000000000, 0.0000000000000000000 ) ) ;
#76 = LINE ( 'NONE', #150, #194 ) ;
#77 = DIRECTION ( 'NONE',  ( 0.0000000000000000000, 0.0000000000000000000, -1.000000000000000000 ) ) ;
#78 = CIRCLE ( 'NONE', #64, 0.05905500000000000332 ) ;
#79 = DIRECTION ( 'NONE',  ( -1.000000000000000000, 0.0000000000000000000, 0.0000000000000000000 ) ) ;
#80 = EDGE_CURVE ( 'NONE', #241, #271, #121, .T. ) ;
#81 = DIRECTION ( 'NONE',  ( 0.0000000000000000000, 0.0000000000000000000, -1.000000000000000000 ) ) ;
#82 = DIRECTION ( 'NONE',  ( -1.000000000000000000, 0.0000000000000000000, 1.224646799147353207E-16 ) ) ;
#83 = AXIS2_PLACEMENT_3D ( 'NONE', #206, #167, #253 ) ;
#84 = DIRECTION ( 'NONE',  ( -1.224646799147353207E-16, -0.0000000000000000000, -1.000000000000000000 ) ) ;
#85 = ORIENTED_EDGE ( 'NONE', *, *, #110, .F. ) ;
#86 = ORIENTED_EDGE ( 'NONE', *, *, #56, .T. ) ;
#87 = SURFACE_SIDE_STYLE ('',( #158 ) ) ;
#88 = ORIENTED_EDGE ( 'NONE', *, *, #296, .F. ) ;
#89 = ORIENTED_EDGE ( 'NONE', *, *, #7, .F. ) ;
#90 = EDGE_LOOP ( 'NONE', ( #221, #164, #273, #163 ) ) ;
#91 = AXIS2_PLACEMENT_3D ( 'NONE', #1, #93, #188 ) ;
#92 = LINE ( 'NONE', #24, #286 ) ;
#93 = DIRECTION ( 'NONE',  ( 0.0000000000000000000, 0.0000000000000000000, -1.000000000000000000 ) ) ;
#94 = EDGE_CURVE ( 'NONE', #70, #139, #71, .T. ) ;
#95 = LINE ( 'NONE', #170, #134 ) ;
#96 = PRESENTATION_LAYER_ASSIGNMENT (  '', '', ( #231 ) ) ;
#97 = EDGE_CURVE ( 'NONE', #204, #222, #95, .T. ) ;
#98 = PRESENTATION_STYLE_ASSIGNMENT (( #297 ) ) ;
#99 = AXIS2_PLACEMENT_3D ( 'NONE', #149, #153, #107 ) ;
#100 = PRODUCT_DEFINITION ( 'UNKNOWN', '', #180, #247 ) ;
#101 = SURFACE_SIDE_STYLE ('',( #251 ) ) ;
#102 = DIRECTION ( 'NONE',  ( 1.224646799147353207E-16, 0.0000000000000000000, 1.000000000000000000 ) ) ;
#103 = CARTESIAN_POINT ( 'NONE',  ( 0.05905500000000004496, 7.232151672364700045E-18, 0.3395252674519336766 ) ) ;
#104 = FACE_OUTER_BOUND ( 'NONE', #162, .T. ) ;
#105 = CARTESIAN_POINT ( 'NONE',  ( -0.05905500000000000332, 0.0000000000000000000, 1.496062999999999921 ) ) ;
#106 = EDGE_CURVE ( 'NONE', #241, #204, #9, .T. ) ;
#107 = DIRECTION ( 'NONE',  ( 1.000000000000000000, 0.0000000000000000000, 0.0000000000000000000 ) ) ;
#108 = ORIENTED_EDGE ( 'NONE', *, *, #38, .T. ) ;
#109 = VERTEX_POINT ( 'NONE', #27 ) ;
#110 = EDGE_CURVE ( 'NONE', #241, #39, #209, .T. ) ;
#111 =( CONVERSION_BASED_UNIT ( 'INCH', #40 ) LENGTH_UNIT ( ) NAMED_UNIT ( #124 ) );
#112 = EDGE_LOOP ( 'NONE', ( #17, #184, #267, #88 ) ) ;
#113 = CONICAL_SURFACE ( 'NONE', #20, 0.04405499999999973326, 0.7853981633974491672 ) ;
#114 = APPLICATION_PROTOCOL_DEFINITION ( 'draft international standard', 'automotive_design', 1998, #242 ) ;
#115 = ORIENTED_EDGE ( 'NONE', *, *, #94, .F. ) ;
#116 = ADVANCED_FACE ( 'NONE', ( #230 ), #166, .T. ) ;
#117 =( LENGTH_UNIT ( ) NAMED_UNIT ( * ) SI_UNIT ( $, .METRE. ) );
#118 = DIRECTION ( 'NONE',  ( 0.0000000000000000000, 0.0000000000000000000, 1.000000000000000000 ) ) ;
#119 = DIRECTION ( 'NONE',  ( 0.7071067811865482389, 8.659560562354941486E-17, -0.7071067811865469066 ) ) ;
#120 = AXIS2_PLACEMENT_3D ( 'NONE', #173, #102, #259 ) ;
#121 = LINE ( 'NONE', #211, #169 ) ;
#122 = COLOUR_RGB ( '',0.7921568627450980005, 0.8196078431372548767, 0.9333333333333333481 ) ;
#123 = DIRECTION ( 'NONE',  ( -1.000000000000000000, 0.0000000000000000000, 1.224646799147353207E-16 ) ) ;
#124 = DIMENSIONAL_EXPONENTS ( 1.000000000000000000, 0.0000000000000000000, 0.0000000000000000000, 0.0000000000000000000, 0.0000000000000000000, 0.0000000000000000000, 0.0000000000000000000 ) ;
#125 = FACE_OUTER_BOUND ( 'NONE', #90, .T. ) ;
#126 = FACE_OUTER_BOUND ( 'NONE', #112, .T. ) ;
#127 = ADVANCED_FACE ( 'NONE', ( #232 ), #277, .T. ) ;
#128 = VECTOR ( 'NONE', #61, 39.37007874015748143 ) ;
#129 = CARTESIAN_POINT ( 'NONE',  ( 0.0000000000000000000, 0.0000000000000000000, 1.496062999999999921 ) ) ;
#130 = DIRECTION ( 'NONE',  ( -0.0000000000000000000, -0.0000000000000000000, -1.000000000000000000 ) ) ;
#131 = ADVANCED_FACE ( 'NONE', ( #233 ), #196, .T. ) ;
#132 =( LENGTH_UNIT ( ) NAMED_UNIT ( * ) SI_UNIT ( $, .METRE. ) );
#133 = ORIENTED_EDGE ( 'NONE', *, *, #256, .T. ) ;
#134 = VECTOR ( 'NONE', #255, 39.37007874015748143 ) ;
#135 =( CONVERSION_BASED_UNIT ( 'INCH', #140 ) LENGTH_UNIT ( ) NAMED_UNIT ( #260 ) );
#136 = EDGE_LOOP ( 'NONE', ( #85, #89, #45, #86 ) ) ;
#137 = CARTESIAN_POINT ( 'NONE',  ( 0.0000000000000000000, 0.0000000000000000000, 0.0000000000000000000 ) ) ;
#138 = EDGE_CURVE ( 'NONE', #271, #205, #298, .T. ) ;
#139 = VERTEX_POINT ( 'NONE', #197 ) ;
#140 = LENGTH_MEASURE_WITH_UNIT ( LENGTH_MEASURE( 0.02539999999999999897 ), #268 );
#141 = AXIS2_PLACEMENT_3D ( 'NONE', #266, #212, #6 ) ;
#142 = CARTESIAN_POINT ( 'NONE',  ( 1.012501234131057143E-17, 0.0000000000000000000, 0.08267699999999998661 ) ) ;
#143 = ADVANCED_FACE ( 'NONE', ( #281 ), #195, .T. ) ;
#144 =( NAMED_UNIT ( * ) SI_UNIT ( $, .STERADIAN. ) SOLID_ANGLE_UNIT ( ) );
#145 = AXIS2_PLACEMENT_3D ( 'NONE', #53, #147, #229 ) ;
#146 = CARTESIAN_POINT ( 'NONE',  ( 4.157985320146596782E-17, 0.0000000000000000000, 0.3395252674519336766 ) ) ;
#147 = DIRECTION ( 'NONE',  ( -1.224646799147353207E-16, -0.0000000000000000000, -1.000000000000000000 ) ) ;
#148 = CARTESIAN_POINT ( 'NONE',  ( 0.04405499999999973326, 5.395181473643630390E-18, 1.496062999999999921 ) ) ;
#149 = CARTESIAN_POINT ( 'NONE',  ( 1.012501234131057143E-17, 0.0000000000000000000, 0.08267699999999998661 ) ) ;
#150 = CARTESIAN_POINT ( 'NONE',  ( -0.04405499999999973326, 0.0000000000000000000, 1.496062999999999921 ) ) ;
#151 = DIRECTION ( 'NONE',  ( 0.0000000000000000000, 0.0000000000000000000, 1.000000000000000000 ) ) ;
#152 =( GEOMETRIC_REPRESENTATION_CONTEXT ( 3 ) GLOBAL_UNCERTAINTY_ASSIGNED_CONTEXT ( ( #252 ) ) GLOBAL_UNIT_ASSIGNED_CONTEXT ( ( #135, #42, #43 ) ) REPRESENTATION_CONTEXT ( 'NONE', 'WORKASPACE' ) );
#153 = DIRECTION ( 'NONE',  ( 1.224646799147353207E-16, 0.0000000000000000000, 1.000000000000000000 ) ) ;
#154 = PRODUCT_DEFINITION_SHAPE ( 'NONE', 'NONE',  #100 ) ;
#155 = VECTOR ( 'NONE', #228, 39.37007874015748143 ) ;
#156 = FACE_OUTER_BOUND ( 'NONE', #293, .T. ) ;
#157 = EDGE_CURVE ( 'NONE', #139, #181, #76, .T. ) ;
#158 = SURFACE_STYLE_FILL_AREA ( #18 ) ;
#159 = AXIS2_PLACEMENT_3D ( 'NONE', #129, #130, #217 ) ;
#160 = EDGE_LOOP ( 'NONE', ( #246, #185, #19, #179 ) ) ;
#161 = AXIS2_PLACEMENT_3D ( 'NONE', #193, #77, #12 ) ;
#162 = EDGE_LOOP ( 'NONE', ( #115, #108, #41, #23 ) ) ;
#163 = ORIENTED_EDGE ( 'NONE', *, *, #56, .F. ) ;
#164 = ORIENTED_EDGE ( 'NONE', *, *, #62, .T. ) ;
#165 = AXIS2_PLACEMENT_3D ( 'NONE', #177, #13, #55 ) ;
#166 = CONICAL_SURFACE ( 'NONE', #161, 0.04405499999999973326, 0.7853981633974491672 ) ;
#167 = DIRECTION ( 'NONE',  ( 0.0000000000000000000, 0.0000000000000000000, 1.000000000000000000 ) ) ;
#168 = CLOSED_SHELL ( 'NONE', ( #143, #127, #235, #276, #190, #131, #116, #189, #261, #294 ) ) ;
#169 = VECTOR ( 'NONE', #278, 39.37007874015748143 ) ;
#170 = CARTESIAN_POINT ( 'NONE',  ( 0.01376572050000000880, 0.0000000000000000000, 0.08267699999999998661 ) ) ;
#171 = CARTESIAN_POINT ( 'NONE',  ( 0.04405499999999973326, 6.313666573004162521E-18, 1.496062999999999921 ) ) ;
#172 = DIRECTION ( 'NONE',  ( -1.224646799147353207E-16, -0.0000000000000000000, -1.000000000000000000 ) ) ;
#173 = CARTESIAN_POINT ( 'NONE',  ( 1.012501234131057143E-17, 0.0000000000000000000, 0.08267699999999998661 ) ) ;
#174 = CARTESIAN_POINT ( 'NONE',  ( -0.01376572049999998798, 4.458983113596452354E-18, 0.08267699999999998661 ) ) ;
#175 = DIRECTION ( 'NONE',  ( 1.000000000000000000, 0.0000000000000000000, 0.0000000000000000000 ) ) ;
#176 = AXIS2_PLACEMENT_3D ( 'NONE', #289, #84, #287 ) ;
#177 = CARTESIAN_POINT ( 'NONE',  ( 0.0000000000000000000, 0.0000000000000000000, 0.0000000000000000000 ) ) ;
#178 = AXIS2_PLACEMENT_3D ( 'NONE', #31, #285, #123 ) ;
#179 = ORIENTED_EDGE ( 'NONE', *, *, #97, .F. ) ;
#180 = PRODUCT_DEFINITION_FORMATION_WITH_SPECIFIED_SOURCE ( 'ANY', '', #214, .NOT_KNOWN. ) ;
#181 = VERTEX_POINT ( 'NONE', #10 ) ;
#182 = VECTOR ( 'NONE', #119, 39.37007874015748143 ) ;
#183 = SURFACE_STYLE_USAGE ( .BOTH. , #87 ) ;
#184 = ORIENTED_EDGE ( 'NONE', *, *, #7, .T. ) ;
#185 = ORIENTED_EDGE ( 'NONE', *, *, #110, .T. ) ;
#186 = PRESENTATION_LAYER_ASSIGNMENT (  '', '', ( #14 ) ) ;
#187 =( NAMED_UNIT ( * ) PLANE_ANGLE_UNIT ( ) SI_UNIT ( $, .RADIAN. ) );
#188 = DIRECTION ( 'NONE',  ( 1.000000000000000000, 0.0000000000000000000, 0.0000000000000000000 ) ) ;
#189 = ADVANCED_FACE ( 'NONE', ( #57 ), #250, .T. ) ;
#190 = ADVANCED_FACE ( 'NONE', ( #125 ), #283, .T. ) ;
#191 = AXIS2_PLACEMENT_3D ( 'NONE', #262, #58, #175 ) ;
#192 = CARTESIAN_POINT ( 'NONE',  ( -0.05905499999999996169, 0.0000000000000000000, 0.3395252674519336766 ) ) ;
#193 = CARTESIAN_POINT ( 'NONE',  ( 0.0000000000000000000, 0.0000000000000000000, 1.496062999999999921 ) ) ;
#194 = VECTOR ( 'NONE', #279, 39.37007874015748143 ) ;
#195 = CYLINDRICAL_SURFACE ( 'NONE', #141, 0.01376572049999999665 ) ;
#196 = PLANE ( 'NONE',  #237 ) ;
#197 = CARTESIAN_POINT ( 'NONE',  ( -0.04405499999999973326, 0.0000000000000000000, 1.496062999999999921 ) ) ;
#198 = MECHANICAL_DESIGN_GEOMETRIC_PRESENTATION_REPRESENTATION (  '', ( #231 ), #152 ) ;
#199 = ORIENTED_EDGE ( 'NONE', *, *, #138, .T. ) ;
#200 = PRODUCT_CONTEXT ( 'NONE', #15, 'mechanical' ) ;
#201 = ORIENTED_EDGE ( 'NONE', *, *, #106, .T. ) ;
#202 = FILL_AREA_STYLE_COLOUR ( '', #122 ) ;
#203 = ORIENTED_EDGE ( 'NONE', *, *, #80, .F. ) ;
#204 = VERTEX_POINT ( 'NONE', #239 ) ;
#205 = VERTEX_POINT ( 'NONE', #234 ) ;
#206 = CARTESIAN_POINT ( 'NONE',  ( 0.0000000000000000000, 0.0000000000000000000, 1.496062999999999921 ) ) ;
#207 = DIRECTION ( 'NONE',  ( -1.224646799147353207E-16, -0.0000000000000000000, -1.000000000000000000 ) ) ;
#208 = FILL_AREA_STYLE_COLOUR ( '', #291 ) ;
#209 = LINE ( 'NONE', #2, #282 ) ;
#210 = CIRCLE ( 'NONE', #83, 0.04405499999999973326 ) ;
#211 = CARTESIAN_POINT ( 'NONE',  ( -0.01376572049999999665, 0.0000000000000000000, 1.685814554828209863E-18 ) ) ;
#212 = DIRECTION ( 'NONE',  ( -1.224646799147353207E-16, -0.0000000000000000000, -1.000000000000000000 ) ) ;
#213 = CARTESIAN_POINT ( 'NONE',  ( 0.0000000000000000000, 0.0000000000000000000, 1.496062999999999921 ) ) ;
#214 = PRODUCT ( 'Micro_RMEM-007-2', 'Micro_RMEM-007-2', '', ( #200 ) ) ;
#215 = CYLINDRICAL_SURFACE ( 'NONE', #227, 0.01376572049999999665 ) ;
#216 = FACE_OUTER_BOUND ( 'NONE', #290, .T. ) ;
#217 = DIRECTION ( 'NONE',  ( -1.000000000000000000, 0.0000000000000000000, 0.0000000000000000000 ) ) ;
#218 =( NAMED_UNIT ( * ) SI_UNIT ( $, .STERADIAN. ) SOLID_ANGLE_UNIT ( ) );
#219 =( GEOMETRIC_REPRESENTATION_CONTEXT ( 3 ) GLOBAL_UNCERTAINTY_ASSIGNED_CONTEXT ( ( #68 ) ) GLOBAL_UNIT_ASSIGNED_CONTEXT ( ( #257, #187, #144 ) ) REPRESENTATION_CONTEXT ( 'NONE', 'WORKASPACE' ) );
#220 = EDGE_LOOP ( 'NONE', ( #240, #63, #295, #21 ) ) ;
#221 = ORIENTED_EDGE ( 'NONE', *, *, #69, .F. ) ;
#222 = VERTEX_POINT ( 'NONE', #103 ) ;
#223 = APPLICATION_PROTOCOL_DEFINITION ( 'draft international standard', 'automotive_design', 1998, #15 ) ;
#224 = ORIENTED_EDGE ( 'NONE', *, *, #138, .F. ) ;
#225 = DIRECTION ( 'NONE',  ( -1.224646799147353207E-16, -0.0000000000000000000, -1.000000000000000000 ) ) ;
#226 = CARTESIAN_POINT ( 'NONE',  ( 4.157985320146596782E-17, 0.0000000000000000000, 0.3395252674519336766 ) ) ;
#227 = AXIS2_PLACEMENT_3D ( 'NONE', #264, #172, #82 ) ;
#228 = DIRECTION ( 'NONE',  ( -0.0000000000000000000, -0.0000000000000000000, -1.000000000000000000 ) ) ;
#229 = DIRECTION ( 'NONE',  ( -1.000000000000000000, 0.0000000000000000000, 0.0000000000000000000 ) ) ;
#230 = FACE_OUTER_BOUND ( 'NONE', #220, .T. ) ;
#231 = STYLED_ITEM ( 'NONE', ( #270 ), #236 ) ;
#232 = FACE_OUTER_BOUND ( 'NONE', #160, .T. ) ;
#233 = FACE_OUTER_BOUND ( 'NONE', #36, .T. ) ;
#234 = CARTESIAN_POINT ( 'NONE',  ( 0.01376572049999999665, 1.685814554828209863E-18, 0.0000000000000000000 ) ) ;
#235 = ADVANCED_FACE ( 'NONE', ( #104 ), #113, .T. ) ;
#236 = ADVANCED_BREP_SHAPE_REPRESENTATION ( 'Micro_RMEM-007-2', ( #49, #248 ), #30 ) ;
#237 = AXIS2_PLACEMENT_3D ( 'NONE', #32, #151, #35 ) ;
#238 = LINE ( 'NONE', #105, #128 ) ;
#239 = CARTESIAN_POINT ( 'NONE',  ( 0.01376572050000000880, 0.0000000000000000000, 0.08267699999999998661 ) ) ;
#240 = ORIENTED_EDGE ( 'NONE', *, *, #38, .F. ) ;
#241 = VERTEX_POINT ( 'NONE', #174 ) ;
#242 = APPLICATION_CONTEXT ( 'automotive_design' ) ;
#243 = ORIENTED_EDGE ( 'NONE', *, *, #11, .T. ) ;
#244 =( NAMED_UNIT ( * ) PLANE_ANGLE_UNIT ( ) SI_UNIT ( $, .RADIAN. ) );
#245 = EDGE_CURVE ( 'NONE', #181, #39, #238, .T. ) ;
#246 = ORIENTED_EDGE ( 'NONE', *, *, #106, .F. ) ;
#247 = PRODUCT_DEFINITION_CONTEXT ( 'detailed design', #242, 'design' ) ;
#248 = AXIS2_PLACEMENT_3D ( 'NONE', #137, #65, #16 ) ;
#249 = ORIENTED_EDGE ( 'NONE', *, *, #26, .T. ) ;
#250 = CONICAL_SURFACE ( 'NONE', #120, 0.01376572049999999839, 0.1745329251994338637 ) ;
#251 = SURFACE_STYLE_FILL_AREA ( #73 ) ;
#252 = UNCERTAINTY_MEASURE_WITH_UNIT (LENGTH_MEASURE( 1.000000000000000082E-05 ), #135, 'distance_accuracy_value', 'NONE');
#253 = DIRECTION ( 'NONE',  ( 1.000000000000000000, 0.0000000000000000000, 0.0000000000000000000 ) ) ;
#254 = AXIS2_PLACEMENT_3D ( 'NONE', #213, #8, #33 ) ;
#255 = DIRECTION ( 'NONE',  ( 0.1736481776669313581, 0.0000000000000000000, 0.9848077530122077983 ) ) ;
#256 = EDGE_CURVE ( 'NONE', #181, #109, #4, .T. ) ;
#257 =( CONVERSION_BASED_UNIT ( 'INCH', #28 ) LENGTH_UNIT ( ) NAMED_UNIT ( #280 ) );
#258 = PLANE ( 'NONE',  #165 ) ;
#259 = DIRECTION ( 'NONE',  ( 1.000000000000000000, 0.0000000000000000000, 0.0000000000000000000 ) ) ;
#260 = DIMENSIONAL_EXPONENTS ( 1.000000000000000000, 0.0000000000000000000, 0.0000000000000000000, 0.0000000000000000000, 0.0000000000000000000, 0.0000000000000000000, 0.0000000000000000000 ) ;
#261 = ADVANCED_FACE ( 'NONE', ( #126 ), #215, .T. ) ;
#262 = CARTESIAN_POINT ( 'NONE',  ( 0.0000000000000000000, 0.0000000000000000000, 1.481062999999999574 ) ) ;
#263 = PRODUCT_RELATED_PRODUCT_CATEGORY ( 'part', '', ( #214 ) ) ;
#264 = CARTESIAN_POINT ( 'NONE',  ( 0.0000000000000000000, 0.0000000000000000000, 0.0000000000000000000 ) ) ;
#265 = AXIS2_PLACEMENT_3D ( 'NONE', #25, #118, #75 ) ;
#266 = CARTESIAN_POINT ( 'NONE',  ( 0.0000000000000000000, 0.0000000000000000000, 0.0000000000000000000 ) ) ;
#267 = ORIENTED_EDGE ( 'NONE', *, *, #80, .T. ) ;
#268 =( LENGTH_UNIT ( ) NAMED_UNIT ( * ) SI_UNIT ( $, .METRE. ) );
#269 = ORIENTED_EDGE ( 'NONE', *, *, #296, .T. ) ;
#270 = PRESENTATION_STYLE_ASSIGNMENT (( #183 ) ) ;
#271 = VERTEX_POINT ( 'NONE', #59 ) ;
#272 = ORIENTED_EDGE ( 'NONE', *, *, #94, .T. ) ;
#273 = ORIENTED_EDGE ( 'NONE', *, *, #245, .T. ) ;
#274 = DIRECTION ( 'NONE',  ( -1.224646799147353207E-16, -0.0000000000000000000, -1.000000000000000000 ) ) ;
#275 = DIRECTION ( 'NONE',  ( -1.224646799147353207E-16, -0.0000000000000000000, -1.000000000000000000 ) ) ;
#276 = ADVANCED_FACE ( 'NONE', ( #156 ), #34, .T. ) ;
#277 = CONICAL_SURFACE ( 'NONE', #99, 0.01376572049999999839, 0.1745329251994338637 ) ;
#278 = DIRECTION ( 'NONE',  ( -1.224646799147353207E-16, -0.0000000000000000000, -1.000000000000000000 ) ) ;
#279 = DIRECTION ( 'NONE',  ( -0.7071067811865482389, 0.0000000000000000000, -0.7071067811865469066 ) ) ;
#280 = DIMENSIONAL_EXPONENTS ( 1.000000000000000000, 0.0000000000000000000, 0.0000000000000000000, 0.0000000000000000000, 0.0000000000000000000, 0.0000000000000000000, 0.0000000000000000000 ) ;
#281 = FACE_OUTER_BOUND ( 'NONE', #67, .T. ) ;
#282 = VECTOR ( 'NONE', #54, 39.37007874015747433 ) ;
#283 = CYLINDRICAL_SURFACE ( 'NONE', #254, 0.05905500000000000332 ) ;
#284 = CARTESIAN_POINT ( 'NONE',  ( 0.0000000000000000000, 0.0000000000000000000, 1.496062999999999921 ) ) ;
#285 = DIRECTION ( 'NONE',  ( -1.224646799147353207E-16, -0.0000000000000000000, -1.000000000000000000 ) ) ;
#286 = VECTOR ( 'NONE', #225, 39.37007874015748143 ) ;
#287 = DIRECTION ( 'NONE',  ( -1.000000000000000000, 0.0000000000000000000, 1.224646799147353207E-16 ) ) ;
#288 = ORIENTED_EDGE ( 'NONE', *, *, #52, .F. ) ;
#289 = CARTESIAN_POINT ( 'NONE',  ( 2.064527398526387168E-34, 0.0000000000000000000, 1.685814554828209863E-18 ) ) ;
#290 = EDGE_LOOP ( 'NONE', ( #199, #269 ) ) ;
#291 = COLOUR_RGB ( '',0.7921568627450980005, 0.8196078431372548767, 0.9333333333333333481 ) ;
#292 = ORIENTED_EDGE ( 'NONE', *, *, #245, .F. ) ;
#293 = EDGE_LOOP ( 'NONE', ( #133, #66, #288, #292 ) ) ;
#294 = ADVANCED_FACE ( 'NONE', ( #216 ), #258, .F. ) ;
#295 = ORIENTED_EDGE ( 'NONE', *, *, #157, .T. ) ;
#296 = EDGE_CURVE ( 'NONE', #205, #271, #72, .T. ) ;
#297 = SURFACE_STYLE_USAGE ( .BOTH. , #101 ) ;
#298 = CIRCLE ( 'NONE', #178, 0.01376572049999999665 ) ;
#299 = DIRECTION ( 'NONE',  ( 1.000000000000000000, 0.0000000000000000000, 0.0000000000000000000 ) ) ;
ENDSEC;
END-ISO-10303-21;
