ISO-10303-21;
HEADER;
FILE_DESCRIPTION (( 'STEP AP214' ),
    '1' );
FILE_NAME ('Micro_EMS-500-3X.STEP',
    '2021-09-01T18:01:04',
    ( '' ),
    ( '' ),
    'SwSTEP 2.0',
    'SolidWorks 2020',
    '' );
FILE_SCHEMA (( 'AUTOMOTIVE_DESIGN' ));
ENDSEC;

DATA;
#1 = EDGE_LOOP ( 'NONE', ( #157, #278, #258, #69 ) ) ;
#2 = SURFACE_SIDE_STYLE ('',( #232 ) ) ;
#3 = CYLINDRICAL_SURFACE ( 'NONE', #98, 0.2500000000000000000 ) ;
#4 = DIMENSIONAL_EXPONENTS ( 1.000000000000000000, 0.0000000000000000000, 0.0000000000000000000, 0.0000000000000000000, 0.0000000000000000000, 0.0000000000000000000, 0.0000000000000000000 ) ;
#5 = DIRECTION ( 'NONE',  ( -1.000000000000000000, 0.0000000000000000000, 1.224646799147353700E-16 ) ) ;
#6 = AXIS2_PLACEMENT_3D ( 'NONE', #255, #192, #99 ) ;
#7 = CARTESIAN_POINT ( 'NONE',  ( 0.0000000000000000000, 0.0000000000000000000, 3.000000000000000444 ) ) ;
#8 =( LENGTH_UNIT ( ) NAMED_UNIT ( * ) SI_UNIT ( $, .METRE. ) );
#9 = AXIS2_PLACEMENT_3D ( 'NONE', #126, #105, #173 ) ;
#10 = FILL_AREA_STYLE_COLOUR ( '', #196 ) ;
#11 = CYLINDRICAL_SURFACE ( 'NONE', #9, 0.2497499999999999998 ) ;
#12 = STYLED_ITEM ( 'NONE', ( #155 ), #57 ) ;
#13 = CARTESIAN_POINT ( 'NONE',  ( 0.0000000000000000000, 0.0000000000000000000, 2.985000000000001208 ) ) ;
#14 = ADVANCED_FACE ( 'NONE', ( #18 ), #3, .T. ) ;
#15 = CARTESIAN_POINT ( 'NONE',  ( 3.745650057197990990E-33, 0.0000000000000000000, 3.058555380870515566E-17 ) ) ;
#16 = CARTESIAN_POINT ( 'NONE',  ( 1.226383128429217700E-16, 0.0000000000000000000, 1.001417820454904462 ) ) ;
#17 = ORIENTED_EDGE ( 'NONE', *, *, #107, .T. ) ;
#18 = FACE_OUTER_BOUND ( 'NONE', #179, .T. ) ;
#19 = CONICAL_SURFACE ( 'NONE', #187, 0.2497499999999999998, 0.1745329251994339192 ) ;
#20 =( NAMED_UNIT ( * ) SI_UNIT ( $, .STERADIAN. ) SOLID_ANGLE_UNIT ( ) );
#21 = ORIENTED_EDGE ( 'NONE', *, *, #167, .T. ) ;
#22 = ORIENTED_EDGE ( 'NONE', *, *, #49, .F. ) ;
#23 = DIMENSIONAL_EXPONENTS ( 1.000000000000000000, 0.0000000000000000000, 0.0000000000000000000, 0.0000000000000000000, 0.0000000000000000000, 0.0000000000000000000, 0.0000000000000000000 ) ;
#24 = ORIENTED_EDGE ( 'NONE', *, *, #230, .T. ) ;
#25 =( NAMED_UNIT ( * ) SI_UNIT ( $, .STERADIAN. ) SOLID_ANGLE_UNIT ( ) );
#26 = AXIS2_PLACEMENT_3D ( 'NONE', #280, #140, #80 ) ;
#27 = LINE ( 'NONE', #76, #265 ) ;
#28 = CIRCLE ( 'NONE', #256, 0.2500000000000000000 ) ;
#29 =( NAMED_UNIT ( * ) PLANE_ANGLE_UNIT ( ) SI_UNIT ( $, .RADIAN. ) );
#30 = CARTESIAN_POINT ( 'NONE',  ( -0.2350000000000011524, 0.0000000000000000000, 3.000000000000000444 ) ) ;
#31 = DIRECTION ( 'NONE',  ( -0.0000000000000000000, -0.0000000000000000000, -1.000000000000000000 ) ) ;
#32 = VECTOR ( 'NONE', #281, 39.37007874015747433 ) ;
#33 = FACE_OUTER_BOUND ( 'NONE', #75, .T. ) ;
#34 = ADVANCED_FACE ( 'NONE', ( #275 ), #66, .T. ) ;
#35 = CARTESIAN_POINT ( 'NONE',  ( 0.0000000000000000000, 0.0000000000000000000, 3.000000000000000444 ) ) ;
#36 = CARTESIAN_POINT ( 'NONE',  ( 0.0000000000000000000, 0.0000000000000000000, 2.985000000000001208 ) ) ;
#37 = SHAPE_DEFINITION_REPRESENTATION ( #182, #57 ) ;
#38 = EDGE_LOOP ( 'NONE', ( #22, #277, #138, #229 ) ) ;
#39 = VECTOR ( 'NONE', #237, 39.37007874015748143 ) ;
#40 = LENGTH_MEASURE_WITH_UNIT ( LENGTH_MEASURE( 0.02539999999999999897 ), #85 );
#41 = ORIENTED_EDGE ( 'NONE', *, *, #130, .T. ) ;
#42 = VERTEX_POINT ( 'NONE', #47 ) ;
#43 = EDGE_CURVE ( 'NONE', #42, #181, #293, .T. ) ;
#44 = ORIENTED_EDGE ( 'NONE', *, *, #240, .T. ) ;
#45 = LINE ( 'NONE', #243, #213 ) ;
#46 = EDGE_CURVE ( 'NONE', #260, #203, #53, .T. ) ;
#47 = CARTESIAN_POINT ( 'NONE',  ( 0.2350000000000011524, 2.969768487932338510E-17, 3.000000000000000444 ) ) ;
#48 = LENGTH_MEASURE_WITH_UNIT ( LENGTH_MEASURE( 0.02539999999999999897 ), #8 );
#49 = EDGE_CURVE ( 'NONE', #90, #180, #45, .T. ) ;
#50 = PRODUCT_DEFINITION_FORMATION_WITH_SPECIFIED_SOURCE ( 'ANY', '', #189, .NOT_KNOWN. ) ;
#51 = APPLICATION_CONTEXT ( 'automotive_design' ) ;
#52 =( GEOMETRIC_REPRESENTATION_CONTEXT ( 3 ) GLOBAL_UNCERTAINTY_ASSIGNED_CONTEXT ( ( #91 ) ) GLOBAL_UNIT_ASSIGNED_CONTEXT ( ( #142, #29, #25 ) ) REPRESENTATION_CONTEXT ( 'NONE', 'WORKASPACE' ) );
#53 = LINE ( 'NONE', #123, #39 ) ;
#54 = ADVANCED_FACE ( 'NONE', ( #143 ), #197, .T. ) ;
#55 = LINE ( 'NONE', #219, #171 ) ;
#56 = CARTESIAN_POINT ( 'NONE',  ( 0.2500000000000000000, 3.061616997868382402E-17, 3.000000000000000444 ) ) ;
#57 = ADVANCED_BREP_SHAPE_REPRESENTATION ( 'Micro_EMS-500-3X', ( #72, #207 ), #177 ) ;
#58 = CIRCLE ( 'NONE', #109, 0.2500000000000000000 ) ;
#59 = PLANE ( 'NONE',  #283 ) ;
#60 = CARTESIAN_POINT ( 'NONE',  ( -0.2350000000000011524, 0.0000000000000000000, 3.000000000000000444 ) ) ;
#61 = DIRECTION ( 'NONE',  ( 1.000000000000000000, 0.0000000000000000000, 0.0000000000000000000 ) ) ;
#62 = AXIS2_PLACEMENT_3D ( 'NONE', #128, #127, #81 ) ;
#63 = APPLICATION_PROTOCOL_DEFINITION ( 'draft international standard', 'automotive_design', 1998, #273 ) ;
#64 =( CONVERSION_BASED_UNIT ( 'INCH', #40 ) LENGTH_UNIT ( ) NAMED_UNIT ( #23 ) );
#65 = ORIENTED_EDGE ( 'NONE', *, *, #122, .F. ) ;
#66 = CYLINDRICAL_SURFACE ( 'NONE', #6, 0.2500000000000000000 ) ;
#67 = MECHANICAL_DESIGN_GEOMETRIC_PRESENTATION_REPRESENTATION (  '', ( #102 ), #52 ) ;
#68 =( CONVERSION_BASED_UNIT ( 'INCH', #298 ) LENGTH_UNIT ( ) NAMED_UNIT ( #4 ) );
#69 = ORIENTED_EDGE ( 'NONE', *, *, #107, .F. ) ;
#70 = EDGE_CURVE ( 'NONE', #90, #260, #241, .T. ) ;
#71 = AXIS2_PLACEMENT_3D ( 'NONE', #174, #111, #226 ) ;
#72 = MANIFOLD_SOLID_BREP ( 'Cut-Revolve1', #103 ) ;
#73 = SURFACE_STYLE_USAGE ( .BOTH. , #2 ) ;
#74 = VERTEX_POINT ( 'NONE', #244 ) ;
#75 = EDGE_LOOP ( 'NONE', ( #185, #44 ) ) ;
#76 = CARTESIAN_POINT ( 'NONE',  ( 0.2497500000000001386, 0.0000000000000000000, 1.000000000000000000 ) ) ;
#77 = FACE_OUTER_BOUND ( 'NONE', #227, .T. ) ;
#78 = DIRECTION ( 'NONE',  ( 0.0000000000000000000, 0.0000000000000000000, 1.000000000000000000 ) ) ;
#79 = VECTOR ( 'NONE', #125, 39.37007874015748854 ) ;
#80 = DIRECTION ( 'NONE',  ( 1.000000000000000000, 0.0000000000000000000, 0.0000000000000000000 ) ) ;
#81 = DIRECTION ( 'NONE',  ( -1.000000000000000000, 0.0000000000000000000, 0.0000000000000000000 ) ) ;
#82 = MECHANICAL_DESIGN_GEOMETRIC_PRESENTATION_REPRESENTATION (  '', ( #12 ), #253 ) ;
#83 = LINE ( 'NONE', #269, #79 ) ;
#84 = AXIS2_PLACEMENT_3D ( 'NONE', #7, #78, #170 ) ;
#85 =( LENGTH_UNIT ( ) NAMED_UNIT ( * ) SI_UNIT ( $, .METRE. ) );
#86 = DIRECTION ( 'NONE',  ( 1.000000000000000000, 0.0000000000000000000, 0.0000000000000000000 ) ) ;
#87 = VECTOR ( 'NONE', #246, 39.37007874015748143 ) ;
#88 = CARTESIAN_POINT ( 'NONE',  ( -0.2500000000000000000, 0.0000000000000000000, 2.985000000000001208 ) ) ;
#89 = APPLICATION_PROTOCOL_DEFINITION ( 'draft international standard', 'automotive_design', 1998, #51 ) ;
#90 = VERTEX_POINT ( 'NONE', #191 ) ;
#91 = UNCERTAINTY_MEASURE_WITH_UNIT (LENGTH_MEASURE( 1.000000000000000082E-05 ), #142, 'distance_accuracy_value', 'NONE');
#92 = DIRECTION ( 'NONE',  ( -1.000000000000000000, 0.0000000000000000000, 0.0000000000000000000 ) ) ;
#93 = COLOUR_RGB ( '',0.7921568627450980005, 0.8196078431372548767, 0.9333333333333333481 ) ;
#94 = EDGE_LOOP ( 'NONE', ( #209, #184, #279, #228 ) ) ;
#95 = FILL_AREA_STYLE ('',( #259 ) ) ;
#96 = ORIENTED_EDGE ( 'NONE', *, *, #230, .F. ) ;
#97 = ORIENTED_EDGE ( 'NONE', *, *, #112, .T. ) ;
#98 = AXIS2_PLACEMENT_3D ( 'NONE', #114, #295, #92 ) ;
#99 = DIRECTION ( 'NONE',  ( -1.000000000000000000, 0.0000000000000000000, 0.0000000000000000000 ) ) ;
#100 = CIRCLE ( 'NONE', #62, 0.2497499999999999998 ) ;
#101 = LINE ( 'NONE', #190, #32 ) ;
#102 = STYLED_ITEM ( 'NONE', ( #104 ), #72 ) ;
#103 = CLOSED_SHELL ( 'NONE', ( #288, #150, #286, #34, #14, #198, #220, #54, #116, #252 ) ) ;
#104 = PRESENTATION_STYLE_ASSIGNMENT (( #264 ) ) ;
#105 = DIRECTION ( 'NONE',  ( -1.224646799147353454E-16, -0.0000000000000000000, -1.000000000000000000 ) ) ;
#106 = DIRECTION ( 'NONE',  ( 1.000000000000000000, 0.0000000000000000000, -0.0000000000000000000 ) ) ;
#107 = EDGE_CURVE ( 'NONE', #181, #254, #172, .T. ) ;
#108 = FACE_OUTER_BOUND ( 'NONE', #234, .T. ) ;
#109 = AXIS2_PLACEMENT_3D ( 'NONE', #13, #149, #291 ) ;
#110 = FACE_OUTER_BOUND ( 'NONE', #261, .T. ) ;
#111 = DIRECTION ( 'NONE',  ( -1.224646799147353454E-16, -0.0000000000000000000, -1.000000000000000000 ) ) ;
#112 = EDGE_CURVE ( 'NONE', #90, #115, #27, .T. ) ;
#113 = ORIENTED_EDGE ( 'NONE', *, *, #43, .T. ) ;
#114 = CARTESIAN_POINT ( 'NONE',  ( 0.0000000000000000000, 0.0000000000000000000, 3.000000000000000444 ) ) ;
#115 = VERTEX_POINT ( 'NONE', #215 ) ;
#116 = ADVANCED_FACE ( 'NONE', ( #120 ), #211, .T. ) ;
#117 = ORIENTED_EDGE ( 'NONE', *, *, #272, .F. ) ;
#118 = DIRECTION ( 'NONE',  ( 1.000000000000000000, 0.0000000000000000000, 0.0000000000000000000 ) ) ;
#119 = ORIENTED_EDGE ( 'NONE', *, *, #122, .T. ) ;
#120 = FACE_OUTER_BOUND ( 'NONE', #38, .T. ) ;
#121 = AXIS2_PLACEMENT_3D ( 'NONE', #36, #223, #247 ) ;
#122 = EDGE_CURVE ( 'NONE', #181, #42, #166, .T. ) ;
#123 = CARTESIAN_POINT ( 'NONE',  ( -0.2497499999999999998, 0.0000000000000000000, 3.058555380870515566E-17 ) ) ;
#124 = DIRECTION ( 'NONE',  ( 1.224646799147353454E-16, 0.0000000000000000000, 1.000000000000000000 ) ) ;
#125 = DIRECTION ( 'NONE',  ( 0.7071067811865402453, 8.659560562354845344E-17, -0.7071067811865546782 ) ) ;
#126 = CARTESIAN_POINT ( 'NONE',  ( 0.0000000000000000000, 0.0000000000000000000, 0.0000000000000000000 ) ) ;
#127 = DIRECTION ( 'NONE',  ( -1.224646799147353454E-16, -0.0000000000000000000, -1.000000000000000000 ) ) ;
#128 = CARTESIAN_POINT ( 'NONE',  ( 1.224646799147353454E-16, 0.0000000000000000000, 1.000000000000000000 ) ) ;
#129 = AXIS2_PLACEMENT_3D ( 'NONE', #292, #245, #106 ) ;
#130 = EDGE_CURVE ( 'NONE', #260, #231, #101, .T. ) ;
#131 = DIRECTION ( 'NONE',  ( 0.0000000000000000000, 0.0000000000000000000, -1.000000000000000000 ) ) ;
#132 = ORIENTED_EDGE ( 'NONE', *, *, #70, .F. ) ;
#133 = ORIENTED_EDGE ( 'NONE', *, *, #49, .T. ) ;
#134 = CIRCLE ( 'NONE', #224, 0.2497499999999999998 ) ;
#135 = ORIENTED_EDGE ( 'NONE', *, *, #236, .T. ) ;
#136 = ORIENTED_EDGE ( 'NONE', *, *, #250, .F. ) ;
#137 = PRODUCT_CONTEXT ( 'NONE', #273, 'mechanical' ) ;
#138 = ORIENTED_EDGE ( 'NONE', *, *, #46, .T. ) ;
#139 = SURFACE_SIDE_STYLE ('',( #214 ) ) ;
#140 = DIRECTION ( 'NONE',  ( 1.224646799147353454E-16, 0.0000000000000000000, 1.000000000000000000 ) ) ;
#141 = PRODUCT_DEFINITION_CONTEXT ( 'detailed design', #51, 'design' ) ;
#142 =( CONVERSION_BASED_UNIT ( 'INCH', #48 ) LENGTH_UNIT ( ) NAMED_UNIT ( #297 ) );
#143 = FACE_OUTER_BOUND ( 'NONE', #206, .T. ) ;
#144 = AXIS2_PLACEMENT_3D ( 'NONE', #176, #131, #249 ) ;
#145 = DIRECTION ( 'NONE',  ( 1.000000000000000000, 0.0000000000000000000, 0.0000000000000000000 ) ) ;
#146 = CARTESIAN_POINT ( 'NONE',  ( -0.2499999999999998612, 0.0000000000000000000, 1.001417820454904462 ) ) ;
#147 = CARTESIAN_POINT ( 'NONE',  ( 0.2497499999999999998, 3.058555380870514950E-17, 0.0000000000000000000 ) ) ;
#148 = CARTESIAN_POINT ( 'NONE',  ( -0.2497499999999999998, 0.0000000000000000000, 6.117110761741031132E-17 ) ) ;
#149 = DIRECTION ( 'NONE',  ( 0.0000000000000000000, 0.0000000000000000000, -1.000000000000000000 ) ) ;
#150 = ADVANCED_FACE ( 'NONE', ( #77 ), #19, .T. ) ;
#151 = AXIS2_PLACEMENT_3D ( 'NONE', #218, #194, #175 ) ;
#152 = DIRECTION ( 'NONE',  ( -1.224646799147353454E-16, -0.0000000000000000000, -1.000000000000000000 ) ) ;
#153 =( NAMED_UNIT ( * ) PLANE_ANGLE_UNIT ( ) SI_UNIT ( $, .RADIAN. ) );
#154 = ORIENTED_EDGE ( 'NONE', *, *, #296, .F. ) ;
#155 = PRESENTATION_STYLE_ASSIGNMENT (( #73 ) ) ;
#156 = PRESENTATION_LAYER_ASSIGNMENT (  '', '', ( #102 ) ) ;
#157 = ORIENTED_EDGE ( 'NONE', *, *, #43, .F. ) ;
#158 = CARTESIAN_POINT ( 'NONE',  ( 0.0000000000000000000, 0.0000000000000000000, 0.0000000000000000000 ) ) ;
#159 = ORIENTED_EDGE ( 'NONE', *, *, #236, .F. ) ;
#160 =( NAMED_UNIT ( * ) PLANE_ANGLE_UNIT ( ) SI_UNIT ( $, .RADIAN. ) );
#161 = ORIENTED_EDGE ( 'NONE', *, *, #46, .F. ) ;
#162 = PRESENTATION_LAYER_ASSIGNMENT (  '', '', ( #12 ) ) ;
#163 = ORIENTED_EDGE ( 'NONE', *, *, #112, .F. ) ;
#164 = AXIS2_PLACEMENT_3D ( 'NONE', #165, #217, #145 ) ;
#165 = CARTESIAN_POINT ( 'NONE',  ( 0.0000000000000000000, 0.0000000000000000000, 3.000000000000000444 ) ) ;
#166 = CIRCLE ( 'NONE', #84, 0.2350000000000011524 ) ;
#167 = EDGE_CURVE ( 'NONE', #115, #231, #28, .T. ) ;
#168 = DIRECTION ( 'NONE',  ( -1.224646799147353454E-16, -0.0000000000000000000, -1.000000000000000000 ) ) ;
#169 = CARTESIAN_POINT ( 'NONE',  ( 1.224646799147353454E-16, 0.0000000000000000000, 1.000000000000000000 ) ) ;
#170 = DIRECTION ( 'NONE',  ( 1.000000000000000000, 0.0000000000000000000, 0.0000000000000000000 ) ) ;
#171 = VECTOR ( 'NONE', #31, 39.37007874015748143 ) ;
#172 = LINE ( 'NONE', #30, #222 ) ;
#173 = DIRECTION ( 'NONE',  ( -1.000000000000000000, 0.0000000000000000000, 1.224646799147353700E-16 ) ) ;
#174 = CARTESIAN_POINT ( 'NONE',  ( 3.745650057197990990E-33, 0.0000000000000000000, 3.058555380870515566E-17 ) ) ;
#175 = DIRECTION ( 'NONE',  ( -1.000000000000000000, 0.0000000000000000000, 0.0000000000000000000 ) ) ;
#176 = CARTESIAN_POINT ( 'NONE',  ( 0.0000000000000000000, 0.0000000000000000000, 3.000000000000000444 ) ) ;
#177 =( GEOMETRIC_REPRESENTATION_CONTEXT ( 3 ) GLOBAL_UNCERTAINTY_ASSIGNED_CONTEXT ( ( #238 ) ) GLOBAL_UNIT_ASSIGNED_CONTEXT ( ( #64, #153, #20 ) ) REPRESENTATION_CONTEXT ( 'NONE', 'WORKASPACE' ) );
#178 = CONICAL_SURFACE ( 'NONE', #151, 0.2350000000000011524, 0.7853981633974380649 ) ;
#179 = EDGE_LOOP ( 'NONE', ( #154, #135, #274, #299 ) ) ;
#180 = VERTEX_POINT ( 'NONE', #147 ) ;
#181 = VERTEX_POINT ( 'NONE', #60 ) ;
#182 = PRODUCT_DEFINITION_SHAPE ( 'NONE', 'NONE',  #248 ) ;
#183 = CIRCLE ( 'NONE', #121, 0.2500000000000000000 ) ;
#184 = ORIENTED_EDGE ( 'NONE', *, *, #296, .T. ) ;
#185 = ORIENTED_EDGE ( 'NONE', *, *, #250, .T. ) ;
#186 = CARTESIAN_POINT ( 'NONE',  ( 1.224646799147353454E-16, 0.0000000000000000000, 1.000000000000000000 ) ) ;
#187 = AXIS2_PLACEMENT_3D ( 'NONE', #169, #124, #61 ) ;
#188 = CARTESIAN_POINT ( 'NONE',  ( 0.0000000000000000000, 0.0000000000000000000, 0.0000000000000000000 ) ) ;
#189 = PRODUCT ( 'Micro_EMS-500-3X', 'Micro_EMS-500-3X', '', ( #137 ) ) ;
#190 = CARTESIAN_POINT ( 'NONE',  ( -0.2497499999999998888, 3.058555380870514950E-17, 1.000000000000000000 ) ) ;
#191 = CARTESIAN_POINT ( 'NONE',  ( 0.2497500000000001386, 0.0000000000000000000, 1.000000000000000000 ) ) ;
#192 = DIRECTION ( 'NONE',  ( -0.0000000000000000000, -0.0000000000000000000, -1.000000000000000000 ) ) ;
#193 = AXIS2_PLACEMENT_3D ( 'NONE', #188, #168, #5 ) ;
#194 = DIRECTION ( 'NONE',  ( 0.0000000000000000000, 0.0000000000000000000, -1.000000000000000000 ) ) ;
#195 = DIRECTION ( 'NONE',  ( -1.000000000000000000, 0.0000000000000000000, 1.224646799147353700E-16 ) ) ;
#196 = COLOUR_RGB ( '',0.7921568627450980005, 0.8196078431372548767, 0.9333333333333333481 ) ;
#197 = CONICAL_SURFACE ( 'NONE', #26, 0.2497499999999999998, 0.1745329251994339192 ) ;
#198 = ADVANCED_FACE ( 'NONE', ( #110 ), #59, .T. ) ;
#199 = PLANE ( 'NONE',  #129 ) ;
#200 = CIRCLE ( 'NONE', #71, 0.2497499999999999998 ) ;
#201 = DIRECTION ( 'NONE',  ( 0.0000000000000000000, 0.0000000000000000000, 1.000000000000000000 ) ) ;
#202 = DIRECTION ( 'NONE',  ( -1.224646799147353454E-16, -0.0000000000000000000, -1.000000000000000000 ) ) ;
#203 = VERTEX_POINT ( 'NONE', #148 ) ;
#204 = ORIENTED_EDGE ( 'NONE', *, *, #225, .T. ) ;
#205 =( LENGTH_UNIT ( ) NAMED_UNIT ( * ) SI_UNIT ( $, .METRE. ) );
#206 = EDGE_LOOP ( 'NONE', ( #294, #132, #97, #21 ) ) ;
#207 = AXIS2_PLACEMENT_3D ( 'NONE', #158, #257, #118 ) ;
#208 = PRODUCT_RELATED_PRODUCT_CATEGORY ( 'part', '', ( #189 ) ) ;
#209 = ORIENTED_EDGE ( 'NONE', *, *, #216, .T. ) ;
#210 = EDGE_LOOP ( 'NONE', ( #24, #133, #136, #161 ) ) ;
#211 = CYLINDRICAL_SURFACE ( 'NONE', #193, 0.2497499999999999998 ) ;
#212 = FILL_AREA_STYLE ('',( #10 ) ) ;
#213 = VECTOR ( 'NONE', #263, 39.37007874015748143 ) ;
#214 = SURFACE_STYLE_FILL_AREA ( #212 ) ;
#215 = CARTESIAN_POINT ( 'NONE',  ( 0.2500000000000001110, 3.061616997868383634E-17, 1.001417820454904462 ) ) ;
#216 = EDGE_CURVE ( 'NONE', #254, #74, #58, .T. ) ;
#217 = DIRECTION ( 'NONE',  ( 0.0000000000000000000, 0.0000000000000000000, 1.000000000000000000 ) ) ;
#218 = CARTESIAN_POINT ( 'NONE',  ( 0.0000000000000000000, 0.0000000000000000000, 3.000000000000000444 ) ) ;
#219 = CARTESIAN_POINT ( 'NONE',  ( -0.2500000000000000000, 0.0000000000000000000, 3.000000000000000444 ) ) ;
#220 = ADVANCED_FACE ( 'NONE', ( #108 ), #270, .T. ) ;
#221 = FACE_OUTER_BOUND ( 'NONE', #1, .T. ) ;
#222 = VECTOR ( 'NONE', #262, 39.37007874015748854 ) ;
#223 = DIRECTION ( 'NONE',  ( 0.0000000000000000000, 0.0000000000000000000, -1.000000000000000000 ) ) ;
#224 = AXIS2_PLACEMENT_3D ( 'NONE', #15, #202, #195 ) ;
#225 = EDGE_CURVE ( 'NONE', #231, #115, #235, .T. ) ;
#226 = DIRECTION ( 'NONE',  ( -1.000000000000000000, 0.0000000000000000000, 1.224646799147353700E-16 ) ) ;
#227 = EDGE_LOOP ( 'NONE', ( #96, #41, #204, #163 ) ) ;
#228 = ORIENTED_EDGE ( 'NONE', *, *, #266, .F. ) ;
#229 = ORIENTED_EDGE ( 'NONE', *, *, #240, .F. ) ;
#230 = EDGE_CURVE ( 'NONE', #260, #90, #100, .T. ) ;
#231 = VERTEX_POINT ( 'NONE', #146 ) ;
#232 = SURFACE_STYLE_FILL_AREA ( #95 ) ;
#233 = AXIS2_PLACEMENT_3D ( 'NONE', #186, #239, #284 ) ;
#234 = EDGE_LOOP ( 'NONE', ( #117, #65, #17, #159 ) ) ;
#235 = CIRCLE ( 'NONE', #290, 0.2500000000000000000 ) ;
#236 = EDGE_CURVE ( 'NONE', #74, #254, #183, .T. ) ;
#237 = DIRECTION ( 'NONE',  ( -1.224646799147353454E-16, -0.0000000000000000000, -1.000000000000000000 ) ) ;
#238 = UNCERTAINTY_MEASURE_WITH_UNIT (LENGTH_MEASURE( 1.000000000000000082E-05 ), #64, 'distance_accuracy_value', 'NONE');
#239 = DIRECTION ( 'NONE',  ( -1.224646799147353454E-16, -0.0000000000000000000, -1.000000000000000000 ) ) ;
#240 = EDGE_CURVE ( 'NONE', #180, #203, #200, .T. ) ;
#241 = CIRCLE ( 'NONE', #233, 0.2497499999999999998 ) ;
#242 = UNCERTAINTY_MEASURE_WITH_UNIT (LENGTH_MEASURE( 1.000000000000000082E-05 ), #68, 'distance_accuracy_value', 'NONE');
#243 = CARTESIAN_POINT ( 'NONE',  ( 0.2497499999999999998, 3.058555380870514950E-17, -3.058555380870515566E-17 ) ) ;
#244 = CARTESIAN_POINT ( 'NONE',  ( 0.2500000000000000000, 3.061616997868382402E-17, 2.985000000000001208 ) ) ;
#245 = DIRECTION ( 'NONE',  ( 0.0000000000000000000, 0.0000000000000000000, 1.000000000000000000 ) ) ;
#246 = DIRECTION ( 'NONE',  ( -0.0000000000000000000, -0.0000000000000000000, -1.000000000000000000 ) ) ;
#247 = DIRECTION ( 'NONE',  ( 1.000000000000000000, 0.0000000000000000000, 0.0000000000000000000 ) ) ;
#248 = PRODUCT_DEFINITION ( 'UNKNOWN', '', #50, #141 ) ;
#249 = DIRECTION ( 'NONE',  ( -1.000000000000000000, 0.0000000000000000000, 0.0000000000000000000 ) ) ;
#250 = EDGE_CURVE ( 'NONE', #203, #180, #134, .T. ) ;
#251 = DIRECTION ( 'NONE',  ( 1.000000000000000000, 0.0000000000000000000, 0.0000000000000000000 ) ) ;
#252 = ADVANCED_FACE ( 'NONE', ( #33 ), #199, .F. ) ;
#253 =( GEOMETRIC_REPRESENTATION_CONTEXT ( 3 ) GLOBAL_UNCERTAINTY_ASSIGNED_CONTEXT ( ( #242 ) ) GLOBAL_UNIT_ASSIGNED_CONTEXT ( ( #68, #160, #276 ) ) REPRESENTATION_CONTEXT ( 'NONE', 'WORKASPACE' ) );
#254 = VERTEX_POINT ( 'NONE', #88 ) ;
#255 = CARTESIAN_POINT ( 'NONE',  ( 0.0000000000000000000, 0.0000000000000000000, 3.000000000000000444 ) ) ;
#256 = AXIS2_PLACEMENT_3D ( 'NONE', #16, #152, #86 ) ;
#257 = DIRECTION ( 'NONE',  ( 0.0000000000000000000, 0.0000000000000000000, 1.000000000000000000 ) ) ;
#258 = ORIENTED_EDGE ( 'NONE', *, *, #216, .F. ) ;
#259 = FILL_AREA_STYLE_COLOUR ( '', #93 ) ;
#260 = VERTEX_POINT ( 'NONE', #287 ) ;
#261 = EDGE_LOOP ( 'NONE', ( #119, #113 ) ) ;
#262 = DIRECTION ( 'NONE',  ( -0.7071067811865402453, 0.0000000000000000000, -0.7071067811865546782 ) ) ;
#263 = DIRECTION ( 'NONE',  ( -1.224646799147353454E-16, -0.0000000000000000000, -1.000000000000000000 ) ) ;
#264 = SURFACE_STYLE_USAGE ( .BOTH. , #139 ) ;
#265 = VECTOR ( 'NONE', #282, 39.37007874015748143 ) ;
#266 = EDGE_CURVE ( 'NONE', #254, #231, #55, .T. ) ;
#267 = DIRECTION ( 'NONE',  ( 1.000000000000000000, 0.0000000000000000000, -0.0000000000000000000 ) ) ;
#268 = LINE ( 'NONE', #56, #87 ) ;
#269 = CARTESIAN_POINT ( 'NONE',  ( 0.2350000000000011524, 2.877919977996294002E-17, 3.000000000000000444 ) ) ;
#270 = CONICAL_SURFACE ( 'NONE', #144, 0.2350000000000011524, 0.7853981633974380649 ) ;
#271 = CARTESIAN_POINT ( 'NONE',  ( 1.226383128429217700E-16, 0.0000000000000000000, 1.001417820454904462 ) ) ;
#272 = EDGE_CURVE ( 'NONE', #42, #74, #83, .T. ) ;
#273 = APPLICATION_CONTEXT ( 'automotive_design' ) ;
#274 = ORIENTED_EDGE ( 'NONE', *, *, #266, .T. ) ;
#275 = FACE_OUTER_BOUND ( 'NONE', #94, .T. ) ;
#276 =( NAMED_UNIT ( * ) SI_UNIT ( $, .STERADIAN. ) SOLID_ANGLE_UNIT ( ) );
#277 = ORIENTED_EDGE ( 'NONE', *, *, #70, .T. ) ;
#278 = ORIENTED_EDGE ( 'NONE', *, *, #272, .T. ) ;
#279 = ORIENTED_EDGE ( 'NONE', *, *, #225, .F. ) ;
#280 = CARTESIAN_POINT ( 'NONE',  ( 1.224646799147353454E-16, 0.0000000000000000000, 1.000000000000000000 ) ) ;
#281 = DIRECTION ( 'NONE',  ( -0.1736481776669312194, 2.126576849575783625E-17, 0.9848077530122080203 ) ) ;
#282 = DIRECTION ( 'NONE',  ( 0.1736481776669314137, 0.0000000000000000000, 0.9848077530122077983 ) ) ;
#283 = AXIS2_PLACEMENT_3D ( 'NONE', #35, #201, #267 ) ;
#284 = DIRECTION ( 'NONE',  ( -1.000000000000000000, 0.0000000000000000000, 0.0000000000000000000 ) ) ;
#285 = DIRECTION ( 'NONE',  ( -1.224646799147353454E-16, -0.0000000000000000000, -1.000000000000000000 ) ) ;
#286 = ADVANCED_FACE ( 'NONE', ( #221 ), #178, .T. ) ;
#287 = CARTESIAN_POINT ( 'NONE',  ( -0.2497499999999998888, 3.060086189369449292E-17, 1.000000000000000000 ) ) ;
#288 = ADVANCED_FACE ( 'NONE', ( #289 ), #11, .T. ) ;
#289 = FACE_OUTER_BOUND ( 'NONE', #210, .T. ) ;
#290 = AXIS2_PLACEMENT_3D ( 'NONE', #271, #285, #251 ) ;
#291 = DIRECTION ( 'NONE',  ( 1.000000000000000000, 0.0000000000000000000, 0.0000000000000000000 ) ) ;
#292 = CARTESIAN_POINT ( 'NONE',  ( 0.0000000000000000000, 0.0000000000000000000, 0.0000000000000000000 ) ) ;
#293 = CIRCLE ( 'NONE', #164, 0.2350000000000011524 ) ;
#294 = ORIENTED_EDGE ( 'NONE', *, *, #130, .F. ) ;
#295 = DIRECTION ( 'NONE',  ( -0.0000000000000000000, -0.0000000000000000000, -1.000000000000000000 ) ) ;
#296 = EDGE_CURVE ( 'NONE', #74, #115, #268, .T. ) ;
#297 = DIMENSIONAL_EXPONENTS ( 1.000000000000000000, 0.0000000000000000000, 0.0000000000000000000, 0.0000000000000000000, 0.0000000000000000000, 0.0000000000000000000, 0.0000000000000000000 ) ;
#298 = LENGTH_MEASURE_WITH_UNIT ( LENGTH_MEASURE( 0.02539999999999999897 ), #205 );
#299 = ORIENTED_EDGE ( 'NONE', *, *, #167, .F. ) ;
ENDSEC;
END-ISO-10303-21;
