ISO-10303-21;
HEADER;
FILE_DESCRIPTION (( 'STEP AP214' ),
    '1' );
FILE_NAME ('84986.STEP',
    '2023-06-23T15:07:13',
    ( '' ),
    ( '' ),
    'SwSTEP 2.0',
    'SolidWorks 2023',
    '' );
FILE_SCHEMA (( 'AUTOMOTIVE_DESIGN' ));
ENDSEC;

DATA;
#1 = ORIENTED_EDGE ( 'NONE', *, *, #117, .F. ) ;
#2 = PRESENTATION_STYLE_ASSIGNMENT (( #152 ) ) ;
#3 = VERTEX_POINT ( 'NONE', #85 ) ;
#4 = CARTESIAN_POINT ( 'NONE',  ( 0.000000000000000000, 0.000000000000000000, -0.2500000000000000000 ) ) ;
#5 = EDGE_CURVE ( 'NONE', #261, #3, #184, .T. ) ;
#6 = ORIENTED_EDGE ( 'NONE', *, *, #14, .T. ) ;
#7 = STYLED_ITEM ( 'NONE', ( #177 ), #91 ) ;
#8 = ORIENTED_EDGE ( 'NONE', *, *, #52, .T. ) ;
#9 = FILL_AREA_STYLE ('',( #221 ) ) ;
#10 = PRESENTATION_STYLE_ASSIGNMENT (( #136 ) ) ;
#11 = MECHANICAL_DESIGN_GEOMETRIC_PRESENTATION_REPRESENTATION (  '', ( #139 ), #304 ) ;
#12 = ORIENTED_EDGE ( 'NONE', *, *, #62, .F. ) ;
#13 = COLOUR_RGB ( '',1.000000000000000000, 0.000000000000000000, 0.000000000000000000 ) ;
#14 = EDGE_CURVE ( 'NONE', #269, #80, #77, .T. ) ;
#15 =( NAMED_UNIT ( * ) PLANE_ANGLE_UNIT ( ) SI_UNIT ( $, .RADIAN. ) );
#16 = DIRECTION ( 'NONE',  ( -0.000000000000000000, -1.000000000000000000, -0.000000000000000000 ) ) ;
#17 = FILL_AREA_STYLE_COLOUR ( '', #280 ) ;
#18 = MANIFOLD_SOLID_BREP ( 'Revolve - Cutting Edge', #29 ) ;
#19 = MECHANICAL_DESIGN_GEOMETRIC_PRESENTATION_REPRESENTATION (  '', ( #30 ), #86 ) ;
#20 = SURFACE_STYLE_FILL_AREA ( #170 ) ;
#21 = DIRECTION ( 'NONE',  ( -1.490874364179386910E-16, 1.000000000000000000, -0.000000000000000000 ) ) ;
#22 = DIRECTION ( 'NONE',  ( 1.000000000000000000, 0.000000000000000000, 0.000000000000000000 ) ) ;
#23 = ORIENTED_EDGE ( 'NONE', *, *, #200, .T. ) ;
#24 = ADVANCED_FACE ( 'NONE', ( #87 ), #248, .T. ) ;
#25 = LINE ( 'NONE', #142, #110 ) ;
#26 = ORIENTED_EDGE ( 'NONE', *, *, #154, .F. ) ;
#27 = AXIS2_PLACEMENT_3D ( 'NONE', #277, #16, #167 ) ;
#28 = CARTESIAN_POINT ( 'NONE',  ( -4.286263797015738074E-16, 6.000000000000000888, 0.000000000000000000 ) ) ;
#29 = CLOSED_SHELL ( 'NONE', ( #181, #302, #24, #91 ) ) ;
#30 = STYLED_ITEM ( 'NONE', ( #2 ), #181 ) ;
#31 = SURFACE_STYLE_USAGE ( .BOTH. , #249 ) ;
#32 = DIRECTION ( 'NONE',  ( -1.490874364179386910E-16, 1.000000000000000000, -0.000000000000000000 ) ) ;
#33 = EDGE_LOOP ( 'NONE', ( #171, #188 ) ) ;
#34 = CARTESIAN_POINT ( 'NONE',  ( 0.2500000000000000000, 6.000000000000000888, 0.000000000000000000 ) ) ;
#35 = PRODUCT_DEFINITION ( 'UNKNOWN', '', #251, #126 ) ;
#36 = CARTESIAN_POINT ( 'NONE',  ( 0.2499999999999999722, 3.125000000000000000, 3.061616997868387332E-17 ) ) ;
#37 = STYLED_ITEM ( 'NONE', ( #245 ), #18 ) ;
#38 = DIMENSIONAL_EXPONENTS ( 1.000000000000000000, 0.000000000000000000, 0.000000000000000000, 0.000000000000000000, 0.000000000000000000, 0.000000000000000000, 0.000000000000000000 ) ;
#39 =( NAMED_UNIT ( * ) SI_UNIT ( $, .STERADIAN. ) SOLID_ANGLE_UNIT ( ) );
#40 = ORIENTED_EDGE ( 'NONE', *, *, #160, .T. ) ;
#41 = DIRECTION ( 'NONE',  ( -0.000000000000000000, -1.000000000000000000, -0.000000000000000000 ) ) ;
#42 = CYLINDRICAL_SURFACE ( 'NONE', #202, 0.2500000000000002220 ) ;
#43 = DIRECTION ( 'NONE',  ( 0.000000000000000000, 0.000000000000000000, 1.000000000000000000 ) ) ;
#44 = CIRCLE ( 'NONE', #300, 0.2500000000000000000 ) ;
#45 = APPLICATION_CONTEXT ( 'automotive_design' ) ;
#46 = DIRECTION ( 'NONE',  ( -0.000000000000000000, -1.000000000000000000, -0.000000000000000000 ) ) ;
#47 = VERTEX_POINT ( 'NONE', #141 ) ;
#48 = PLANE ( 'NONE',  #66 ) ;
#49 = FILL_AREA_STYLE ('',( #130 ) ) ;
#50 =( CONVERSION_BASED_UNIT ( 'INCH', #147 ) LENGTH_UNIT ( ) NAMED_UNIT ( #307 ) );
#51 = ORIENTED_EDGE ( 'NONE', *, *, #5, .F. ) ;
#52 = EDGE_CURVE ( 'NONE', #269, #47, #273, .T. ) ;
#53 = PLANE ( 'NONE',  #81 ) ;
#54 = SHAPE_DEFINITION_REPRESENTATION ( #166, #123 ) ;
#55 = ORIENTED_EDGE ( 'NONE', *, *, #52, .F. ) ;
#56 = PRODUCT ( '84986', '84986', '', ( #106 ) ) ;
#57 = SURFACE_STYLE_USAGE ( .BOTH. , #268 ) ;
#58 = ADVANCED_FACE ( 'NONE', ( #163 ), #250, .F. ) ;
#59 = PRESENTATION_LAYER_ASSIGNMENT (  '', '', ( #139 ) ) ;
#60 = CIRCLE ( 'NONE', #82, 0.2500000000000004441 ) ;
#61 = PLANE ( 'NONE',  #196 ) ;
#62 = EDGE_CURVE ( 'NONE', #3, #261, #138, .T. ) ;
#63 = DIRECTION ( 'NONE',  ( -1.490874364179386910E-16, 1.000000000000000000, -0.000000000000000000 ) ) ;
#64 = COLOUR_RGB ( '',1.000000000000000000, 0.000000000000000000, 0.000000000000000000 ) ;
#65 = FILL_AREA_STYLE ('',( #17 ) ) ;
#66 = AXIS2_PLACEMENT_3D ( 'NONE', #151, #129, #267 ) ;
#67 = PRESENTATION_LAYER_ASSIGNMENT (  '', '', ( #37 ) ) ;
#68 = EDGE_CURVE ( 'NONE', #80, #203, #238, .T. ) ;
#69 = UNCERTAINTY_MEASURE_WITH_UNIT (LENGTH_MEASURE( 1.000000000000000082E-05 ), #285, 'distance_accuracy_value', 'NONE');
#70 =( GEOMETRIC_REPRESENTATION_CONTEXT ( 3 ) GLOBAL_UNCERTAINTY_ASSIGNED_CONTEXT ( ( #75 ) ) GLOBAL_UNIT_ASSIGNED_CONTEXT ( ( #190, #252, #39 ) ) REPRESENTATION_CONTEXT ( 'NONE', 'WORKASPACE' ) );
#71 = AXIS2_PLACEMENT_3D ( 'NONE', #112, #199, #84 ) ;
#72 = FACE_OUTER_BOUND ( 'NONE', #33, .T. ) ;
#73 = EDGE_LOOP ( 'NONE', ( #23, #8, #1, #156 ) ) ;
#74 = DIMENSIONAL_EXPONENTS ( 1.000000000000000000, 0.000000000000000000, 0.000000000000000000, 0.000000000000000000, 0.000000000000000000, 0.000000000000000000, 0.000000000000000000 ) ;
#75 = UNCERTAINTY_MEASURE_WITH_UNIT (LENGTH_MEASURE( 1.000000000000000082E-05 ), #190, 'distance_accuracy_value', 'NONE');
#76 = FACE_OUTER_BOUND ( 'NONE', #217, .T. ) ;
#77 = CIRCLE ( 'NONE', #294, 0.2500000000000000000 ) ;
#78 = LINE ( 'NONE', #4, #247 ) ;
#79 = UNCERTAINTY_MEASURE_WITH_UNIT (LENGTH_MEASURE( 1.000000000000000082E-05 ), #281, 'distance_accuracy_value', 'NONE');
#80 = VERTEX_POINT ( 'NONE', #241 ) ;
#81 = AXIS2_PLACEMENT_3D ( 'NONE', #303, #263, #100 ) ;
#82 = AXIS2_PLACEMENT_3D ( 'NONE', #133, #92, #226 ) ;
#83 = DIRECTION ( 'NONE',  ( -1.490874364179386910E-16, 1.000000000000000000, -0.000000000000000000 ) ) ;
#84 = DIRECTION ( 'NONE',  ( -1.000000000000000000, 0.000000000000000000, 0.000000000000000000 ) ) ;
#85 = CARTESIAN_POINT ( 'NONE',  ( 3.061616997868383018E-17, 3.125000000000000000, 0.2500000000000000000 ) ) ;
#86 =( GEOMETRIC_REPRESENTATION_CONTEXT ( 3 ) GLOBAL_UNCERTAINTY_ASSIGNED_CONTEXT ( ( #69 ) ) GLOBAL_UNIT_ASSIGNED_CONTEXT ( ( #285, #292, #257 ) ) REPRESENTATION_CONTEXT ( 'NONE', 'WORKASPACE' ) );
#87 = FACE_OUTER_BOUND ( 'NONE', #291, .T. ) ;
#88 = FILL_AREA_STYLE_COLOUR ( '', #107 ) ;
#89 = AXIS2_PLACEMENT_3D ( 'NONE', #176, #43, #22 ) ;
#90 = ORIENTED_EDGE ( 'NONE', *, *, #160, .F. ) ;
#91 = ADVANCED_FACE ( 'NONE', ( #284 ), #53, .T. ) ;
#92 = DIRECTION ( 'NONE',  ( -1.490874364179386910E-16, 1.000000000000000000, -0.000000000000000000 ) ) ;
#93 = DIRECTION ( 'NONE',  ( -0.000000000000000000, -1.000000000000000000, -0.000000000000000000 ) ) ;
#94 = LENGTH_MEASURE_WITH_UNIT ( LENGTH_MEASURE( 0.02539999999999999897 ), #225 );
#95 = PRESENTATION_STYLE_ASSIGNMENT (( #189 ) ) ;
#96 = LENGTH_MEASURE_WITH_UNIT ( LENGTH_MEASURE( 0.02539999999999999897 ), #227 );
#97 = MECHANICAL_DESIGN_GEOMETRIC_PRESENTATION_REPRESENTATION (  '', ( #7 ), #134 ) ;
#98 = PRODUCT_RELATED_PRODUCT_CATEGORY ( 'part', '', ( #56 ) ) ;
#99 =( NAMED_UNIT ( * ) PLANE_ANGLE_UNIT ( ) SI_UNIT ( $, .RADIAN. ) );
#100 = DIRECTION ( 'NONE',  ( 0.000000000000000000, 0.000000000000000000, -1.000000000000000000 ) ) ;
#101 = STYLED_ITEM ( 'NONE', ( #95 ), #229 ) ;
#102 = ADVANCED_FACE ( 'NONE', ( #72 ), #48, .F. ) ;
#103 = DIRECTION ( 'NONE',  ( 0.000000000000000000, 1.000000000000000000, 0.000000000000000000 ) ) ;
#104 = UNCERTAINTY_MEASURE_WITH_UNIT (LENGTH_MEASURE( 1.000000000000000082E-05 ), #207, 'distance_accuracy_value', 'NONE');
#105 =( NAMED_UNIT ( * ) PLANE_ANGLE_UNIT ( ) SI_UNIT ( $, .RADIAN. ) );
#106 = PRODUCT_CONTEXT ( 'NONE', #45, 'mechanical' ) ;
#107 = COLOUR_RGB ( '',0.7921568627450980005, 0.8196078431372548767, 0.9333333333333333481 ) ;
#108 =( NAMED_UNIT ( * ) SI_UNIT ( $, .STERADIAN. ) SOLID_ANGLE_UNIT ( ) );
#109 = EDGE_LOOP ( 'NONE', ( #298, #144, #128, #26 ) ) ;
#110 = VECTOR ( 'NONE', #175, 39.37007874015748143 ) ;
#111 = FILL_AREA_STYLE_COLOUR ( '', #13 ) ;
#112 = CARTESIAN_POINT ( 'NONE',  ( 0.000000000000000000, 3.125000000000000000, 0.000000000000000000 ) ) ;
#113 = CARTESIAN_POINT ( 'NONE',  ( 0.000000000000000000, 3.125000000000000000, 0.000000000000000000 ) ) ;
#114 = CARTESIAN_POINT ( 'NONE',  ( -4.286263797015738074E-16, 6.000000000000000888, 0.000000000000000000 ) ) ;
#115 = MECHANICAL_DESIGN_GEOMETRIC_PRESENTATION_REPRESENTATION (  '', ( #37 ), #180 ) ;
#116 = CARTESIAN_POINT ( 'NONE',  ( 0.000000000000000000, 3.125000000000000000, 0.000000000000000000 ) ) ;
#117 = EDGE_CURVE ( 'NONE', #203, #47, #60, .T. ) ;
#118 = AXIS2_PLACEMENT_3D ( 'NONE', #174, #41, #124 ) ;
#119 =( NAMED_UNIT ( * ) SI_UNIT ( $, .STERADIAN. ) SOLID_ANGLE_UNIT ( ) );
#120 = DIRECTION ( 'NONE',  ( 1.490874364179386910E-16, -1.000000000000000000, 0.000000000000000000 ) ) ;
#121 =( NAMED_UNIT ( * ) SI_UNIT ( $, .STERADIAN. ) SOLID_ANGLE_UNIT ( ) );
#122 = AXIS2_PLACEMENT_3D ( 'NONE', #168, #93, #253 ) ;
#123 = ADVANCED_BREP_SHAPE_REPRESENTATION ( '84986', ( #18, #229, #89 ), #297 ) ;
#124 = DIRECTION ( 'NONE',  ( 0.000000000000000000, 0.000000000000000000, -1.000000000000000000 ) ) ;
#125 = APPLICATION_PROTOCOL_DEFINITION ( 'draft international standard', 'automotive_design', 1998, #45 ) ;
#126 = PRODUCT_DEFINITION_CONTEXT ( 'detailed design', #275, 'design' ) ;
#127 = FACE_OUTER_BOUND ( 'NONE', #109, .T. ) ;
#128 = ORIENTED_EDGE ( 'NONE', *, *, #255, .F. ) ;
#129 = DIRECTION ( 'NONE',  ( -1.490874364179386910E-16, 1.000000000000000000, 0.000000000000000000 ) ) ;
#130 = FILL_AREA_STYLE_COLOUR ( '', #64 ) ;
#131 = ORIENTED_EDGE ( 'NONE', *, *, #213, .F. ) ;
#132 =( NAMED_UNIT ( * ) SI_UNIT ( $, .STERADIAN. ) SOLID_ANGLE_UNIT ( ) );
#133 = CARTESIAN_POINT ( 'NONE',  ( -4.286263797015738074E-16, 6.000000000000000888, 0.000000000000000000 ) ) ;
#134 =( GEOMETRIC_REPRESENTATION_CONTEXT ( 3 ) GLOBAL_UNCERTAINTY_ASSIGNED_CONTEXT ( ( #79 ) ) GLOBAL_UNIT_ASSIGNED_CONTEXT ( ( #281, #105, #108 ) ) REPRESENTATION_CONTEXT ( 'NONE', 'WORKASPACE' ) );
#135 = CARTESIAN_POINT ( 'NONE',  ( 0.000000000000000000, 3.125000000000000000, 0.000000000000000000 ) ) ;
#136 = SURFACE_STYLE_USAGE ( .BOTH. , #192 ) ;
#137 = PRESENTATION_LAYER_ASSIGNMENT (  '', '', ( #278 ) ) ;
#138 = CIRCLE ( 'NONE', #118, 0.2500000000000000000 ) ;
#139 = STYLED_ITEM ( 'NONE', ( #10 ), #302 ) ;
#140 = CARTESIAN_POINT ( 'NONE',  ( 0.000000000000000000, 3.125000000000000000, -0.2500000000000000000 ) ) ;
#141 = CARTESIAN_POINT ( 'NONE',  ( 0.2499999999999999722, 6.000000000000000888, 3.061616997868387332E-17 ) ) ;
#142 = CARTESIAN_POINT ( 'NONE',  ( 3.061616997868383018E-17, 0.000000000000000000, 0.2500000000000000000 ) ) ;
#143 = AXIS2_PLACEMENT_3D ( 'NONE', #116, #272, #155 ) ;
#144 = ORIENTED_EDGE ( 'NONE', *, *, #187, .T. ) ;
#145 = UNCERTAINTY_MEASURE_WITH_UNIT (LENGTH_MEASURE( 1.000000000000000082E-05 ), #50, 'distance_accuracy_value', 'NONE');
#146 = CARTESIAN_POINT ( 'NONE',  ( -4.286263797015738074E-16, 6.000000000000000888, 0.000000000000000000 ) ) ;
#147 = LENGTH_MEASURE_WITH_UNIT ( LENGTH_MEASURE( 0.02539999999999999897 ), #290 );
#148 = CARTESIAN_POINT ( 'NONE',  ( -0.2500000000000008882, 6.000000000000000888, 0.000000000000000000 ) ) ;
#149 = ORIENTED_EDGE ( 'NONE', *, *, #187, .F. ) ;
#150 = ADVANCED_FACE ( 'NONE', ( #234 ), #242, .T. ) ;
#151 = CARTESIAN_POINT ( 'NONE',  ( 2.778382962209113810E-33, 3.125000000000000000, 0.000000000000000000 ) ) ;
#152 = SURFACE_STYLE_USAGE ( .BOTH. , #308 ) ;
#153 = COLOUR_RGB ( '',0.7921568627450980005, 0.8196078431372548767, 0.9333333333333333481 ) ;
#154 = EDGE_CURVE ( 'NONE', #261, #195, #78, .T. ) ;
#155 = DIRECTION ( 'NONE',  ( 0.000000000000000000, 0.000000000000000000, -1.000000000000000000 ) ) ;
#156 = ORIENTED_EDGE ( 'NONE', *, *, #68, .F. ) ;
#157 = VECTOR ( 'NONE', #83, 39.37007874015748143 ) ;
#158 = DIRECTION ( 'NONE',  ( -1.490874364179386910E-16, 1.000000000000000000, -0.000000000000000000 ) ) ;
#159 = VERTEX_POINT ( 'NONE', #178 ) ;
#160 = EDGE_CURVE ( 'NONE', #47, #203, #186, .T. ) ;
#161 = FILL_AREA_STYLE ('',( #88 ) ) ;
#162 = CLOSED_SHELL ( 'NONE', ( #150, #102, #223, #58 ) ) ;
#163 = FACE_OUTER_BOUND ( 'NONE', #293, .T. ) ;
#164 = AXIS2_PLACEMENT_3D ( 'NONE', #114, #21, #306 ) ;
#165 = SURFACE_STYLE_FILL_AREA ( #65 ) ;
#166 = PRODUCT_DEFINITION_SHAPE ( 'NONE', 'NONE',  #35 ) ;
#167 = DIRECTION ( 'NONE',  ( 0.000000000000000000, 0.000000000000000000, -1.000000000000000000 ) ) ;
#168 = CARTESIAN_POINT ( 'NONE',  ( 0.000000000000000000, 0.000000000000000000, 0.000000000000000000 ) ) ;
#169 = UNCERTAINTY_MEASURE_WITH_UNIT (LENGTH_MEASURE( 1.000000000000000082E-05 ), #271, 'distance_accuracy_value', 'NONE');
#170 = FILL_AREA_STYLE ('',( #111 ) ) ;
#171 = ORIENTED_EDGE ( 'NONE', *, *, #200, .F. ) ;
#172 =( LENGTH_UNIT ( ) NAMED_UNIT ( * ) SI_UNIT ( $, .METRE. ) );
#173 = CYLINDRICAL_SURFACE ( 'NONE', #232, 0.2500000000000000000 ) ;
#174 = CARTESIAN_POINT ( 'NONE',  ( 0.000000000000000000, 3.125000000000000000, 0.000000000000000000 ) ) ;
#175 = DIRECTION ( 'NONE',  ( -0.000000000000000000, -1.000000000000000000, -0.000000000000000000 ) ) ;
#176 = CARTESIAN_POINT ( 'NONE',  ( 0.000000000000000000, 0.000000000000000000, 0.000000000000000000 ) ) ;
#177 = PRESENTATION_STYLE_ASSIGNMENT (( #305 ) ) ;
#178 = CARTESIAN_POINT ( 'NONE',  ( 3.061616997868383018E-17, 0.000000000000000000, 0.2500000000000000000 ) ) ;
#179 = ORIENTED_EDGE ( 'NONE', *, *, #117, .T. ) ;
#180 =( GEOMETRIC_REPRESENTATION_CONTEXT ( 3 ) GLOBAL_UNCERTAINTY_ASSIGNED_CONTEXT ( ( #169 ) ) GLOBAL_UNIT_ASSIGNED_CONTEXT ( ( #271, #222, #132 ) ) REPRESENTATION_CONTEXT ( 'NONE', 'WORKASPACE' ) );
#181 = ADVANCED_FACE ( 'NONE', ( #127 ), #173, .T. ) ;
#182 = SURFACE_STYLE_FILL_AREA ( #161 ) ;
#183 = SURFACE_STYLE_FILL_AREA ( #9 ) ;
#184 = CIRCLE ( 'NONE', #143, 0.2500000000000000000 ) ;
#185 = ORIENTED_EDGE ( 'NONE', *, *, #255, .T. ) ;
#186 = CIRCLE ( 'NONE', #288, 0.2500000000000004441 ) ;
#187 = EDGE_CURVE ( 'NONE', #3, #159, #25, .T. ) ;
#188 = ORIENTED_EDGE ( 'NONE', *, *, #14, .F. ) ;
#189 = SURFACE_STYLE_USAGE ( .BOTH. , #279 ) ;
#190 =( CONVERSION_BASED_UNIT ( 'INCH', #276 ) LENGTH_UNIT ( ) NAMED_UNIT ( #38 ) );
#191 = FILL_AREA_STYLE_COLOUR ( '', #153 ) ;
#192 = SURFACE_SIDE_STYLE ('',( #165 ) ) ;
#193 = UNCERTAINTY_MEASURE_WITH_UNIT (LENGTH_MEASURE( 1.000000000000000082E-05 ), #236, 'distance_accuracy_value', 'NONE');
#194 = DIRECTION ( 'NONE',  ( -1.000000000000000000, 0.000000000000000000, 0.000000000000000000 ) ) ;
#195 = VERTEX_POINT ( 'NONE', #259 ) ;
#196 = AXIS2_PLACEMENT_3D ( 'NONE', #113, #103, #212 ) ;
#197 = DIRECTION ( 'NONE',  ( 0.000000000000000000, 0.000000000000000000, -1.000000000000000000 ) ) ;
#198 = ORIENTED_EDGE ( 'NONE', *, *, #62, .T. ) ;
#199 = DIRECTION ( 'NONE',  ( -1.490874364179386910E-16, 1.000000000000000000, -0.000000000000000000 ) ) ;
#200 = EDGE_CURVE ( 'NONE', #80, #269, #270, .T. ) ;
#201 = DIRECTION ( 'NONE',  ( -0.000000000000000000, -1.000000000000000000, -0.000000000000000000 ) ) ;
#202 = AXIS2_PLACEMENT_3D ( 'NONE', #146, #158, #220 ) ;
#203 = VERTEX_POINT ( 'NONE', #148 ) ;
#204 = LENGTH_MEASURE_WITH_UNIT ( LENGTH_MEASURE( 0.02539999999999999897 ), #295 );
#205 = PRESENTATION_LAYER_ASSIGNMENT (  '', '', ( #7 ) ) ;
#206 = FACE_OUTER_BOUND ( 'NONE', #244, .T. ) ;
#207 =( CONVERSION_BASED_UNIT ( 'INCH', #96 ) LENGTH_UNIT ( ) NAMED_UNIT ( #74 ) );
#208 = FILL_AREA_STYLE ('',( #191 ) ) ;
#209 = MECHANICAL_DESIGN_GEOMETRIC_PRESENTATION_REPRESENTATION (  '', ( #278 ), #70 ) ;
#210 = SURFACE_SIDE_STYLE ('',( #20 ) ) ;
#211 = CARTESIAN_POINT ( 'NONE',  ( 0.000000000000000000, 0.000000000000000000, 0.000000000000000000 ) ) ;
#212 = DIRECTION ( 'NONE',  ( 0.000000000000000000, -0.000000000000000000, 1.000000000000000000 ) ) ;
#213 = EDGE_CURVE ( 'NONE', #159, #195, #44, .T. ) ;
#214 = DIRECTION ( 'NONE',  ( -1.490874364179386910E-16, 1.000000000000000000, -0.000000000000000000 ) ) ;
#215 = LENGTH_MEASURE_WITH_UNIT ( LENGTH_MEASURE( 0.02539999999999999897 ), #172 );
#216 = SURFACE_STYLE_FILL_AREA ( #49 ) ;
#217 = EDGE_LOOP ( 'NONE', ( #55, #6, #235, #90 ) ) ;
#218 = CIRCLE ( 'NONE', #27, 0.2500000000000000000 ) ;
#219 = DIRECTION ( 'NONE',  ( 0.000000000000000000, 0.000000000000000000, -1.000000000000000000 ) ) ;
#220 = DIRECTION ( 'NONE',  ( -1.000000000000000000, 0.000000000000000000, 0.000000000000000000 ) ) ;
#221 = FILL_AREA_STYLE_COLOUR ( '', #237 ) ;
#222 =( NAMED_UNIT ( * ) PLANE_ANGLE_UNIT ( ) SI_UNIT ( $, .RADIAN. ) );
#223 = ADVANCED_FACE ( 'NONE', ( #76 ), #42, .T. ) ;
#224 = PRESENTATION_LAYER_ASSIGNMENT (  '', '', ( #30 ) ) ;
#225 =( LENGTH_UNIT ( ) NAMED_UNIT ( * ) SI_UNIT ( $, .METRE. ) );
#226 = DIRECTION ( 'NONE',  ( -1.000000000000000000, 0.000000000000000000, 0.000000000000000000 ) ) ;
#227 =( LENGTH_UNIT ( ) NAMED_UNIT ( * ) SI_UNIT ( $, .METRE. ) );
#228 = PRESENTATION_STYLE_ASSIGNMENT (( #57 ) ) ;
#229 = MANIFOLD_SOLID_BREP ( 'Revolve - Tool Body (Straight Shanked)', #162 ) ;
#230 = CARTESIAN_POINT ( 'NONE',  ( 0.2499999999999997502, 6.000000000000000888, 3.061616997868385483E-17 ) ) ;
#231 =( NAMED_UNIT ( * ) SI_UNIT ( $, .STERADIAN. ) SOLID_ANGLE_UNIT ( ) );
#232 = AXIS2_PLACEMENT_3D ( 'NONE', #211, #46, #197 ) ;
#233 = CARTESIAN_POINT ( 'NONE',  ( -0.2500000000000006661, 6.000000000000000888, 0.000000000000000000 ) ) ;
#234 = FACE_OUTER_BOUND ( 'NONE', #73, .T. ) ;
#235 = ORIENTED_EDGE ( 'NONE', *, *, #68, .T. ) ;
#236 =( CONVERSION_BASED_UNIT ( 'INCH', #94 ) LENGTH_UNIT ( ) NAMED_UNIT ( #260 ) );
#237 = COLOUR_RGB ( '',1.000000000000000000, 0.000000000000000000, 0.000000000000000000 ) ;
#238 = LINE ( 'NONE', #233, #157 ) ;
#239 = AXIS2_PLACEMENT_3D ( 'NONE', #34, #120, #256 ) ;
#240 =( GEOMETRIC_REPRESENTATION_CONTEXT ( 3 ) GLOBAL_UNCERTAINTY_ASSIGNED_CONTEXT ( ( #104 ) ) GLOBAL_UNIT_ASSIGNED_CONTEXT ( ( #207, #15, #121 ) ) REPRESENTATION_CONTEXT ( 'NONE', 'WORKASPACE' ) );
#241 = CARTESIAN_POINT ( 'NONE',  ( -0.2500000000000000000, 3.125000000000000000, 0.000000000000000000 ) ) ;
#242 = CYLINDRICAL_SURFACE ( 'NONE', #164, 0.2500000000000002220 ) ;
#243 = ORIENTED_EDGE ( 'NONE', *, *, #154, .T. ) ;
#244 = EDGE_LOOP ( 'NONE', ( #51, #12 ) ) ;
#245 = PRESENTATION_STYLE_ASSIGNMENT (( #31 ) ) ;
#246 = DIRECTION ( 'NONE',  ( -1.000000000000000000, 0.000000000000000000, 0.000000000000000000 ) ) ;
#247 = VECTOR ( 'NONE', #201, 39.37007874015748143 ) ;
#248 = CYLINDRICAL_SURFACE ( 'NONE', #122, 0.2500000000000000000 ) ;
#249 = SURFACE_SIDE_STYLE ('',( #182 ) ) ;
#250 = PLANE ( 'NONE',  #239 ) ;
#251 = PRODUCT_DEFINITION_FORMATION_WITH_SPECIFIED_SOURCE ( 'ANY', '', #56, .NOT_KNOWN. ) ;
#252 =( NAMED_UNIT ( * ) PLANE_ANGLE_UNIT ( ) SI_UNIT ( $, .RADIAN. ) );
#253 = DIRECTION ( 'NONE',  ( 0.000000000000000000, 0.000000000000000000, -1.000000000000000000 ) ) ;
#254 = DIMENSIONAL_EXPONENTS ( 1.000000000000000000, 0.000000000000000000, 0.000000000000000000, 0.000000000000000000, 0.000000000000000000, 0.000000000000000000, 0.000000000000000000 ) ;
#255 = EDGE_CURVE ( 'NONE', #195, #159, #218, .T. ) ;
#256 = DIRECTION ( 'NONE',  ( 1.000000000000000000, 1.490874364179386910E-16, 0.000000000000000000 ) ) ;
#257 =( NAMED_UNIT ( * ) SI_UNIT ( $, .STERADIAN. ) SOLID_ANGLE_UNIT ( ) );
#258 = ORIENTED_EDGE ( 'NONE', *, *, #213, .T. ) ;
#259 = CARTESIAN_POINT ( 'NONE',  ( 0.000000000000000000, 0.000000000000000000, -0.2500000000000000000 ) ) ;
#260 = DIMENSIONAL_EXPONENTS ( 1.000000000000000000, 0.000000000000000000, 0.000000000000000000, 0.000000000000000000, 0.000000000000000000, 0.000000000000000000, 0.000000000000000000 ) ;
#261 = VERTEX_POINT ( 'NONE', #140 ) ;
#262 = DIMENSIONAL_EXPONENTS ( 1.000000000000000000, 0.000000000000000000, 0.000000000000000000, 0.000000000000000000, 0.000000000000000000, 0.000000000000000000, 0.000000000000000000 ) ;
#263 = DIRECTION ( 'NONE',  ( 0.000000000000000000, -1.000000000000000000, -0.000000000000000000 ) ) ;
#264 = DIRECTION ( 'NONE',  ( -0.000000000000000000, -1.000000000000000000, -0.000000000000000000 ) ) ;
#265 = CARTESIAN_POINT ( 'NONE',  ( 0.000000000000000000, 0.000000000000000000, 0.000000000000000000 ) ) ;
#266 = PRESENTATION_LAYER_ASSIGNMENT (  '', '', ( #101 ) ) ;
#267 = DIRECTION ( 'NONE',  ( -1.000000000000000000, -1.490874364179386910E-16, 0.000000000000000000 ) ) ;
#268 = SURFACE_SIDE_STYLE ('',( #183 ) ) ;
#269 = VERTEX_POINT ( 'NONE', #36 ) ;
#270 = CIRCLE ( 'NONE', #71, 0.2500000000000000000 ) ;
#271 =( CONVERSION_BASED_UNIT ( 'INCH', #204 ) LENGTH_UNIT ( ) NAMED_UNIT ( #262 ) );
#272 = DIRECTION ( 'NONE',  ( -0.000000000000000000, -1.000000000000000000, -0.000000000000000000 ) ) ;
#273 = LINE ( 'NONE', #230, #296 ) ;
#274 = MECHANICAL_DESIGN_GEOMETRIC_PRESENTATION_REPRESENTATION (  '', ( #101 ), #240 ) ;
#275 = APPLICATION_CONTEXT ( 'automotive_design' ) ;
#276 = LENGTH_MEASURE_WITH_UNIT ( LENGTH_MEASURE( 0.02539999999999999897 ), #299 );
#277 = CARTESIAN_POINT ( 'NONE',  ( 0.000000000000000000, 0.000000000000000000, 0.000000000000000000 ) ) ;
#278 = STYLED_ITEM ( 'NONE', ( #228 ), #24 ) ;
#279 = SURFACE_SIDE_STYLE ('',( #301 ) ) ;
#280 = COLOUR_RGB ( '',1.000000000000000000, 0.000000000000000000, 0.000000000000000000 ) ;
#281 =( CONVERSION_BASED_UNIT ( 'INCH', #215 ) LENGTH_UNIT ( ) NAMED_UNIT ( #254 ) );
#282 = DIMENSIONAL_EXPONENTS ( 1.000000000000000000, 0.000000000000000000, 0.000000000000000000, 0.000000000000000000, 0.000000000000000000, 0.000000000000000000, 0.000000000000000000 ) ;
#283 =( LENGTH_UNIT ( ) NAMED_UNIT ( * ) SI_UNIT ( $, .METRE. ) );
#284 = FACE_OUTER_BOUND ( 'NONE', #287, .T. ) ;
#285 =( CONVERSION_BASED_UNIT ( 'INCH', #289 ) LENGTH_UNIT ( ) NAMED_UNIT ( #282 ) );
#286 = APPLICATION_PROTOCOL_DEFINITION ( 'draft international standard', 'automotive_design', 1998, #275 ) ;
#287 = EDGE_LOOP ( 'NONE', ( #185, #258 ) ) ;
#288 = AXIS2_PLACEMENT_3D ( 'NONE', #28, #214, #194 ) ;
#289 = LENGTH_MEASURE_WITH_UNIT ( LENGTH_MEASURE( 0.02539999999999999897 ), #283 );
#290 =( LENGTH_UNIT ( ) NAMED_UNIT ( * ) SI_UNIT ( $, .METRE. ) );
#291 = EDGE_LOOP ( 'NONE', ( #149, #198, #243, #131 ) ) ;
#292 =( NAMED_UNIT ( * ) PLANE_ANGLE_UNIT ( ) SI_UNIT ( $, .RADIAN. ) );
#293 = EDGE_LOOP ( 'NONE', ( #179, #40 ) ) ;
#294 = AXIS2_PLACEMENT_3D ( 'NONE', #135, #32, #246 ) ;
#295 =( LENGTH_UNIT ( ) NAMED_UNIT ( * ) SI_UNIT ( $, .METRE. ) );
#296 = VECTOR ( 'NONE', #63, 39.37007874015748143 ) ;
#297 =( GEOMETRIC_REPRESENTATION_CONTEXT ( 3 ) GLOBAL_UNCERTAINTY_ASSIGNED_CONTEXT ( ( #145 ) ) GLOBAL_UNIT_ASSIGNED_CONTEXT ( ( #50, #309, #231 ) ) REPRESENTATION_CONTEXT ( 'NONE', 'WORKASPACE' ) );
#298 = ORIENTED_EDGE ( 'NONE', *, *, #5, .T. ) ;
#299 =( LENGTH_UNIT ( ) NAMED_UNIT ( * ) SI_UNIT ( $, .METRE. ) );
#300 = AXIS2_PLACEMENT_3D ( 'NONE', #265, #264, #219 ) ;
#301 = SURFACE_STYLE_FILL_AREA ( #208 ) ;
#302 = ADVANCED_FACE ( 'NONE', ( #206 ), #61, .T. ) ;
#303 = CARTESIAN_POINT ( 'NONE',  ( 0.000000000000000000, 0.000000000000000000, 0.000000000000000000 ) ) ;
#304 =( GEOMETRIC_REPRESENTATION_CONTEXT ( 3 ) GLOBAL_UNCERTAINTY_ASSIGNED_CONTEXT ( ( #193 ) ) GLOBAL_UNIT_ASSIGNED_CONTEXT ( ( #236, #99, #119 ) ) REPRESENTATION_CONTEXT ( 'NONE', 'WORKASPACE' ) );
#305 = SURFACE_STYLE_USAGE ( .BOTH. , #210 ) ;
#306 = DIRECTION ( 'NONE',  ( -1.000000000000000000, 0.000000000000000000, 0.000000000000000000 ) ) ;
#307 = DIMENSIONAL_EXPONENTS ( 1.000000000000000000, 0.000000000000000000, 0.000000000000000000, 0.000000000000000000, 0.000000000000000000, 0.000000000000000000, 0.000000000000000000 ) ;
#308 = SURFACE_SIDE_STYLE ('',( #216 ) ) ;
#309 =( NAMED_UNIT ( * ) PLANE_ANGLE_UNIT ( ) SI_UNIT ( $, .RADIAN. ) );
ENDSEC;
END-ISO-10303-21;
