ISO-10303-21;
HEADER;
FILE_DESCRIPTION (( 'STEP AP214' ),
    '1' );
FILE_NAME ('Micro_SEM-312-04.STEP',
    '2021-09-02T02:49:42',
    ( '' ),
    ( '' ),
    'SwSTEP 2.0',
    'SolidWorks 2020',
    '' );
FILE_SCHEMA (( 'AUTOMOTIVE_DESIGN' ));
ENDSEC;

DATA;
#1 = VECTOR ( 'NONE', #132, 39.37007874015748143 ) ;
#2 = PRODUCT_DEFINITION_CONTEXT ( 'detailed design', #125, 'design' ) ;
#3 = CARTESIAN_POINT ( 'NONE',  ( -0.1560937499999998923, 1.912553868355905422E-17, 0.5000000000000000000 ) ) ;
#4 = CARTESIAN_POINT ( 'NONE',  ( 0.1560937499999999756, 1.911597113044071690E-17, 3.791200677927629740E-33 ) ) ;
#5 = DIRECTION ( 'NONE',  ( 1.000000000000000000, 0.0000000000000000000, 0.0000000000000000000 ) ) ;
#6 = AXIS2_PLACEMENT_3D ( 'NONE', #22, #97, #27 ) ;
#7 = FACE_OUTER_BOUND ( 'NONE', #63, .T. ) ;
#8 = UNCERTAINTY_MEASURE_WITH_UNIT (LENGTH_MEASURE( 1.000000000000000082E-05 ), #180, 'distance_accuracy_value', 'NONE');
#9 = FACE_OUTER_BOUND ( 'NONE', #96, .T. ) ;
#10 = CARTESIAN_POINT ( 'NONE',  ( -0.1562499999999999445, 0.0000000000000000000, 0.5008861377843155660 ) ) ;
#11 = AXIS2_PLACEMENT_3D ( 'NONE', #128, #127, #54 ) ;
#12 = FACE_OUTER_BOUND ( 'NONE', #199, .T. ) ;
#13 = AXIS2_PLACEMENT_3D ( 'NONE', #173, #168, #5 ) ;
#14 = DIRECTION ( 'NONE',  ( -0.7071067811865475727, 0.0000000000000000000, -0.7071067811865474617 ) ) ;
#15 = AXIS2_PLACEMENT_3D ( 'NONE', #126, #99, #122 ) ;
#16 = PRESENTATION_LAYER_ASSIGNMENT (  '', '', ( #166 ) ) ;
#17 = EDGE_CURVE ( 'NONE', #243, #241, #158, .T. ) ;
#18 = ORIENTED_EDGE ( 'NONE', *, *, #163, .F. ) ;
#19 = ORIENTED_EDGE ( 'NONE', *, *, #73, .T. ) ;
#20 = ORIENTED_EDGE ( 'NONE', *, *, #73, .F. ) ;
#21 = ORIENTED_EDGE ( 'NONE', *, *, #117, .T. ) ;
#22 = CARTESIAN_POINT ( 'NONE',  ( 6.123233995736766036E-17, 0.0000000000000000000, 0.5000000000000000000 ) ) ;
#23 = ADVANCED_FACE ( 'NONE', ( #111 ), #213, .T. ) ;
#24 = AXIS2_PLACEMENT_3D ( 'NONE', #72, #279, #25 ) ;
#25 = DIRECTION ( 'NONE',  ( 1.000000000000000000, 0.0000000000000000000, 0.0000000000000000000 ) ) ;
#26 = DIRECTION ( 'NONE',  ( 0.0000000000000000000, 0.0000000000000000000, 1.000000000000000000 ) ) ;
#27 = DIRECTION ( 'NONE',  ( -1.000000000000000000, 0.0000000000000000000, 0.0000000000000000000 ) ) ;
#28 = DIMENSIONAL_EXPONENTS ( 1.000000000000000000, 0.0000000000000000000, 0.0000000000000000000, 0.0000000000000000000, 0.0000000000000000000, 0.0000000000000000000, 0.0000000000000000000 ) ;
#29 = FILL_AREA_STYLE_COLOUR ( '', #274 ) ;
#30 = EDGE_CURVE ( 'NONE', #200, #260, #175, .T. ) ;
#31 = CARTESIAN_POINT ( 'NONE',  ( 0.0000000000000000000, 0.0000000000000000000, 0.0000000000000000000 ) ) ;
#32 = PRODUCT_DEFINITION_FORMATION_WITH_SPECIFIED_SOURCE ( 'ANY', '', #276, .NOT_KNOWN. ) ;
#33 = CARTESIAN_POINT ( 'NONE',  ( 0.1562500000000000000, 1.913510623667739463E-17, 1.984999999999999654 ) ) ;
#34 = UNCERTAINTY_MEASURE_WITH_UNIT (LENGTH_MEASURE( 1.000000000000000082E-05 ), #36, 'distance_accuracy_value', 'NONE');
#35 = CYLINDRICAL_SURFACE ( 'NONE', #263, 0.1562500000000000000 ) ;
#36 =( CONVERSION_BASED_UNIT ( 'INCH', #247 ) LENGTH_UNIT ( ) NAMED_UNIT ( #280 ) );
#37 = ORIENTED_EDGE ( 'NONE', *, *, #94, .T. ) ;
#38 = PRODUCT_DEFINITION_SHAPE ( 'NONE', 'NONE',  #219 ) ;
#39 = ORIENTED_EDGE ( 'NONE', *, *, #133, .T. ) ;
#40 =( NAMED_UNIT ( * ) SI_UNIT ( $, .STERADIAN. ) SOLID_ANGLE_UNIT ( ) );
#41 = AXIS2_PLACEMENT_3D ( 'NONE', #256, #60, #196 ) ;
#42 = ORIENTED_EDGE ( 'NONE', *, *, #104, .T. ) ;
#43 = ORIENTED_EDGE ( 'NONE', *, *, #163, .T. ) ;
#44 = VERTEX_POINT ( 'NONE', #248 ) ;
#45 = SHAPE_DEFINITION_REPRESENTATION ( #38, #51 ) ;
#46 = CARTESIAN_POINT ( 'NONE',  ( -0.1560937499999999756, 0.0000000000000000000, 3.823194226088143379E-17 ) ) ;
#47 =( NAMED_UNIT ( * ) PLANE_ANGLE_UNIT ( ) SI_UNIT ( $, .RADIAN. ) );
#48 = DIRECTION ( 'NONE',  ( -0.0000000000000000000, -0.0000000000000000000, -1.000000000000000000 ) ) ;
#49 = DIRECTION ( 'NONE',  ( 0.1736481776669314414, 0.0000000000000000000, 0.9848077530122077983 ) ) ;
#50 = DIRECTION ( 'NONE',  ( 1.000000000000000000, 0.0000000000000000000, 0.0000000000000000000 ) ) ;
#51 = ADVANCED_BREP_SHAPE_REPRESENTATION ( 'Micro_SEM-312-04', ( #270, #239 ), #146 ) ;
#52 = CARTESIAN_POINT ( 'NONE',  ( -0.1560937499999998923, 1.911597113044071073E-17, 0.5000000000000000000 ) ) ;
#53 = VECTOR ( 'NONE', #61, 39.37007874015748143 ) ;
#54 = DIRECTION ( 'NONE',  ( -1.000000000000000000, 0.0000000000000000000, 0.0000000000000000000 ) ) ;
#55 = CARTESIAN_POINT ( 'NONE',  ( 0.0000000000000000000, 0.0000000000000000000, 1.984999999999999654 ) ) ;
#56 = ORIENTED_EDGE ( 'NONE', *, *, #67, .T. ) ;
#57 = FACE_OUTER_BOUND ( 'NONE', #220, .T. ) ;
#58 = CIRCLE ( 'NONE', #100, 0.1412499999999997646 ) ;
#59 = FACE_OUTER_BOUND ( 'NONE', #259, .T. ) ;
#60 = DIRECTION ( 'NONE',  ( 0.0000000000000000000, 0.0000000000000000000, -1.000000000000000000 ) ) ;
#61 = DIRECTION ( 'NONE',  ( -1.224646799147353207E-16, -0.0000000000000000000, -1.000000000000000000 ) ) ;
#62 = AXIS2_PLACEMENT_3D ( 'NONE', #110, #198, #288 ) ;
#63 = EDGE_LOOP ( 'NONE', ( #39, #115, #20, #136 ) ) ;
#64 = ORIENTED_EDGE ( 'NONE', *, *, #195, .F. ) ;
#65 =( CONVERSION_BASED_UNIT ( 'INCH', #154 ) LENGTH_UNIT ( ) NAMED_UNIT ( #28 ) );
#66 = VERTEX_POINT ( 'NONE', #3 ) ;
#67 = EDGE_CURVE ( 'NONE', #241, #260, #253, .T. ) ;
#68 = CARTESIAN_POINT ( 'NONE',  ( -0.1560937499999999478, 0.0000000000000000000, 1.911597113044071073E-17 ) ) ;
#69 = AXIS2_PLACEMENT_3D ( 'NONE', #299, #150, #225 ) ;
#70 = ORIENTED_EDGE ( 'NONE', *, *, #67, .F. ) ;
#71 = ORIENTED_EDGE ( 'NONE', *, *, #212, .T. ) ;
#72 = CARTESIAN_POINT ( 'NONE',  ( 6.134086053748422198E-17, 0.0000000000000000000, 0.5008861377843155660 ) ) ;
#73 = EDGE_CURVE ( 'NONE', #92, #147, #159, .T. ) ;
#74 = DIRECTION ( 'NONE',  ( 0.7071067811865475727, 8.659560562354932858E-17, -0.7071067811865474617 ) ) ;
#75 = VECTOR ( 'NONE', #74, 39.37007874015748143 ) ;
#76 = DIRECTION ( 'NONE',  ( -1.000000000000000000, 0.0000000000000000000, 1.224646799147353207E-16 ) ) ;
#77 = FACE_OUTER_BOUND ( 'NONE', #267, .T. ) ;
#78 = DIRECTION ( 'NONE',  ( 1.000000000000000000, 0.0000000000000000000, 0.0000000000000000000 ) ) ;
#79 = DIRECTION ( 'NONE',  ( 0.0000000000000000000, 0.0000000000000000000, 1.000000000000000000 ) ) ;
#80 = EDGE_CURVE ( 'NONE', #260, #200, #137, .T. ) ;
#81 = CIRCLE ( 'NONE', #69, 0.1560937499999999756 ) ;
#82 = COLOUR_RGB ( '',0.7921568627450980005, 0.8196078431372548767, 0.9333333333333333481 ) ;
#83 = CARTESIAN_POINT ( 'NONE',  ( 0.0000000000000000000, 0.0000000000000000000, 0.0000000000000000000 ) ) ;
#84 = FILL_AREA_STYLE_COLOUR ( '', #82 ) ;
#85 = ORIENTED_EDGE ( 'NONE', *, *, #80, .F. ) ;
#86 = VECTOR ( 'NONE', #285, 39.37007874015748143 ) ;
#87 =( GEOMETRIC_REPRESENTATION_CONTEXT ( 3 ) GLOBAL_UNCERTAINTY_ASSIGNED_CONTEXT ( ( #107 ) ) GLOBAL_UNIT_ASSIGNED_CONTEXT ( ( #65, #47, #189 ) ) REPRESENTATION_CONTEXT ( 'NONE', 'WORKASPACE' ) );
#88 = SURFACE_STYLE_FILL_AREA ( #258 ) ;
#89 = ORIENTED_EDGE ( 'NONE', *, *, #240, .F. ) ;
#90 =( LENGTH_UNIT ( ) NAMED_UNIT ( * ) SI_UNIT ( $, .METRE. ) );
#91 = EDGE_CURVE ( 'NONE', #44, #66, #187, .T. ) ;
#92 = VERTEX_POINT ( 'NONE', #46 ) ;
#93 = DIRECTION ( 'NONE',  ( 1.000000000000000000, 0.0000000000000000000, 0.0000000000000000000 ) ) ;
#94 = EDGE_CURVE ( 'NONE', #246, #243, #58, .T. ) ;
#95 = CONICAL_SURFACE ( 'NONE', #287, 0.1560937499999999478, 0.1745329251994339470 ) ;
#96 = EDGE_LOOP ( 'NONE', ( #64, #155, #56, #135 ) ) ;
#97 = DIRECTION ( 'NONE',  ( -1.224646799147353207E-16, -0.0000000000000000000, -1.000000000000000000 ) ) ;
#98 = CYLINDRICAL_SURFACE ( 'NONE', #11, 0.1562500000000000000 ) ;
#99 = DIRECTION ( 'NONE',  ( -1.224646799147353207E-16, -0.0000000000000000000, -1.000000000000000000 ) ) ;
#100 = AXIS2_PLACEMENT_3D ( 'NONE', #140, #164, #252 ) ;
#101 = MECHANICAL_DESIGN_GEOMETRIC_PRESENTATION_REPRESENTATION (  '', ( #112 ), #222 ) ;
#102 = DIMENSIONAL_EXPONENTS ( 1.000000000000000000, 0.0000000000000000000, 0.0000000000000000000, 0.0000000000000000000, 0.0000000000000000000, 0.0000000000000000000, 0.0000000000000000000 ) ;
#103 = DIRECTION ( 'NONE',  ( -1.224646799147353207E-16, -0.0000000000000000000, -1.000000000000000000 ) ) ;
#104 = EDGE_CURVE ( 'NONE', #246, #176, #257, .T. ) ;
#105 = LINE ( 'NONE', #203, #229 ) ;
#106 = VECTOR ( 'NONE', #228, 39.37007874015748143 ) ;
#107 = UNCERTAINTY_MEASURE_WITH_UNIT (LENGTH_MEASURE( 1.000000000000000082E-05 ), #65, 'distance_accuracy_value', 'NONE');
#108 = CARTESIAN_POINT ( 'NONE',  ( 0.0000000000000000000, 0.0000000000000000000, 2.000000000000000000 ) ) ;
#109 = LINE ( 'NONE', #214, #86 ) ;
#110 = CARTESIAN_POINT ( 'NONE',  ( 0.0000000000000000000, 0.0000000000000000000, 2.000000000000000000 ) ) ;
#111 = FACE_OUTER_BOUND ( 'NONE', #224, .T. ) ;
#112 = STYLED_ITEM ( 'NONE', ( #178 ), #270 ) ;
#113 = SURFACE_STYLE_USAGE ( .BOTH. , #174 ) ;
#114 = PRODUCT_RELATED_PRODUCT_CATEGORY ( 'part', '', ( #276 ) ) ;
#115 = ORIENTED_EDGE ( 'NONE', *, *, #295, .T. ) ;
#116 = APPLICATION_PROTOCOL_DEFINITION ( 'draft international standard', 'automotive_design', 1998, #141 ) ;
#117 = EDGE_CURVE ( 'NONE', #66, #260, #254, .T. ) ;
#118 = CARTESIAN_POINT ( 'NONE',  ( 6.123233995736766036E-17, 0.0000000000000000000, 0.5000000000000000000 ) ) ;
#119 =( NAMED_UNIT ( * ) SI_UNIT ( $, .STERADIAN. ) SOLID_ANGLE_UNIT ( ) );
#120 = ORIENTED_EDGE ( 'NONE', *, *, #17, .T. ) ;
#121 = AXIS2_PLACEMENT_3D ( 'NONE', #31, #144, #232 ) ;
#122 = DIRECTION ( 'NONE',  ( -1.000000000000000000, 0.0000000000000000000, 1.224646799147353454E-16 ) ) ;
#123 = CARTESIAN_POINT ( 'NONE',  ( 0.0000000000000000000, 0.0000000000000000000, 0.0000000000000000000 ) ) ;
#124 = PRODUCT_CONTEXT ( 'NONE', #141, 'mechanical' ) ;
#125 = APPLICATION_CONTEXT ( 'automotive_design' ) ;
#126 = CARTESIAN_POINT ( 'NONE',  ( 2.341031285748743514E-33, 0.0000000000000000000, 1.911597113044071690E-17 ) ) ;
#127 = DIRECTION ( 'NONE',  ( -0.0000000000000000000, -0.0000000000000000000, -1.000000000000000000 ) ) ;
#128 = CARTESIAN_POINT ( 'NONE',  ( 0.0000000000000000000, 0.0000000000000000000, 2.000000000000000000 ) ) ;
#129 = CLOSED_SHELL ( 'NONE', ( #184, #23, #261, #171, #236, #190, #266, #208, #151, #188 ) ) ;
#130 = PLANE ( 'NONE',  #121 ) ;
#131 = CONICAL_SURFACE ( 'NONE', #41, 0.1412499999999997646, 0.7853981633974482790 ) ;
#132 = DIRECTION ( 'NONE',  ( -1.224646799147353207E-16, -0.0000000000000000000, -1.000000000000000000 ) ) ;
#133 = EDGE_CURVE ( 'NONE', #66, #44, #209, .T. ) ;
#134 = SURFACE_STYLE_FILL_AREA ( #297 ) ;
#135 = ORIENTED_EDGE ( 'NONE', *, *, #30, .F. ) ;
#136 = ORIENTED_EDGE ( 'NONE', *, *, #277, .F. ) ;
#137 = CIRCLE ( 'NONE', #24, 0.1562500000000000000 ) ;
#138 = EDGE_LOOP ( 'NONE', ( #177, #42, #226, #161 ) ) ;
#139 = ORIENTED_EDGE ( 'NONE', *, *, #91, .T. ) ;
#140 = CARTESIAN_POINT ( 'NONE',  ( 0.0000000000000000000, 0.0000000000000000000, 2.000000000000000000 ) ) ;
#141 = APPLICATION_CONTEXT ( 'automotive_design' ) ;
#142 = LINE ( 'NONE', #68, #1 ) ;
#143 = DIRECTION ( 'NONE',  ( 0.0000000000000000000, 0.0000000000000000000, -1.000000000000000000 ) ) ;
#144 = DIRECTION ( 'NONE',  ( 0.0000000000000000000, 0.0000000000000000000, 1.000000000000000000 ) ) ;
#145 = AXIS2_PLACEMENT_3D ( 'NONE', #118, #205, #93 ) ;
#146 =( GEOMETRIC_REPRESENTATION_CONTEXT ( 3 ) GLOBAL_UNCERTAINTY_ASSIGNED_CONTEXT ( ( #34 ) ) GLOBAL_UNIT_ASSIGNED_CONTEXT ( ( #36, #268, #40 ) ) REPRESENTATION_CONTEXT ( 'NONE', 'WORKASPACE' ) );
#147 = VERTEX_POINT ( 'NONE', #4 ) ;
#148 = CARTESIAN_POINT ( 'NONE',  ( -0.1562500000000000000, 0.0000000000000000000, 1.984999999999999654 ) ) ;
#149 = DIRECTION ( 'NONE',  ( 1.000000000000000000, 0.0000000000000000000, -0.0000000000000000000 ) ) ;
#150 = DIRECTION ( 'NONE',  ( -1.224646799147353207E-16, -0.0000000000000000000, -1.000000000000000000 ) ) ;
#151 = ADVANCED_FACE ( 'NONE', ( #192 ), #281, .T. ) ;
#152 = AXIS2_PLACEMENT_3D ( 'NONE', #230, #215, #149 ) ;
#153 = ORIENTED_EDGE ( 'NONE', *, *, #156, .F. ) ;
#154 = LENGTH_MEASURE_WITH_UNIT ( LENGTH_MEASURE( 0.02539999999999999897 ), #90 );
#155 = ORIENTED_EDGE ( 'NONE', *, *, #156, .T. ) ;
#156 = EDGE_CURVE ( 'NONE', #176, #241, #250, .T. ) ;
#157 = EDGE_CURVE ( 'NONE', #147, #92, #81, .T. ) ;
#158 = LINE ( 'NONE', #293, #218 ) ;
#159 = CIRCLE ( 'NONE', #15, 0.1560937499999999756 ) ;
#160 = DIRECTION ( 'NONE',  ( 1.000000000000000000, 0.0000000000000000000, 0.0000000000000000000 ) ) ;
#161 = ORIENTED_EDGE ( 'NONE', *, *, #17, .F. ) ;
#162 = CARTESIAN_POINT ( 'NONE',  ( 6.123233995736766036E-17, 0.0000000000000000000, 0.5000000000000000000 ) ) ;
#163 = EDGE_CURVE ( 'NONE', #44, #200, #105, .T. ) ;
#164 = DIRECTION ( 'NONE',  ( 0.0000000000000000000, 0.0000000000000000000, 1.000000000000000000 ) ) ;
#165 = AXIS2_PLACEMENT_3D ( 'NONE', #162, #103, #210 ) ;
#166 = STYLED_ITEM ( 'NONE', ( #201 ), #51 ) ;
#167 = CARTESIAN_POINT ( 'NONE',  ( 0.1412499999999997646, 1.821662113731686019E-17, 2.000000000000000000 ) ) ;
#168 = DIRECTION ( 'NONE',  ( 0.0000000000000000000, 0.0000000000000000000, -1.000000000000000000 ) ) ;
#169 = DIRECTION ( 'NONE',  ( 1.000000000000000000, 0.0000000000000000000, 0.0000000000000000000 ) ) ;
#170 = CIRCLE ( 'NONE', #234, 0.1412499999999997646 ) ;
#171 = ADVANCED_FACE ( 'NONE', ( #172 ), #98, .T. ) ;
#172 = FACE_OUTER_BOUND ( 'NONE', #294, .T. ) ;
#173 = CARTESIAN_POINT ( 'NONE',  ( 0.0000000000000000000, 0.0000000000000000000, 1.984999999999999654 ) ) ;
#174 = SURFACE_SIDE_STYLE ('',( #134 ) ) ;
#175 = CIRCLE ( 'NONE', #255, 0.1562500000000000000 ) ;
#176 = VERTEX_POINT ( 'NONE', #33 ) ;
#177 = ORIENTED_EDGE ( 'NONE', *, *, #94, .F. ) ;
#178 = PRESENTATION_STYLE_ASSIGNMENT (( #204 ) ) ;
#179 = ORIENTED_EDGE ( 'NONE', *, *, #104, .F. ) ;
#180 =( CONVERSION_BASED_UNIT ( 'INCH', #221 ) LENGTH_UNIT ( ) NAMED_UNIT ( #102 ) );
#181 = CARTESIAN_POINT ( 'NONE',  ( 6.134086053748422198E-17, 0.0000000000000000000, 0.5008861377843155660 ) ) ;
#182 = PRESENTATION_LAYER_ASSIGNMENT (  '', '', ( #112 ) ) ;
#183 = CONICAL_SURFACE ( 'NONE', #62, 0.1412499999999997646, 0.7853981633974482790 ) ;
#184 = ADVANCED_FACE ( 'NONE', ( #7 ), #211, .T. ) ;
#185 = ORIENTED_EDGE ( 'NONE', *, *, #240, .T. ) ;
#186 = APPLICATION_PROTOCOL_DEFINITION ( 'draft international standard', 'automotive_design', 1998, #125 ) ;
#187 = CIRCLE ( 'NONE', #165, 0.1560937499999999478 ) ;
#188 = ADVANCED_FACE ( 'NONE', ( #59 ), #130, .F. ) ;
#189 =( NAMED_UNIT ( * ) SI_UNIT ( $, .STERADIAN. ) SOLID_ANGLE_UNIT ( ) );
#190 = ADVANCED_FACE ( 'NONE', ( #77 ), #193, .T. ) ;
#191 = CARTESIAN_POINT ( 'NONE',  ( 0.1412499999999997646, 1.729813603795632883E-17, 2.000000000000000000 ) ) ;
#192 = FACE_OUTER_BOUND ( 'NONE', #296, .T. ) ;
#193 = PLANE ( 'NONE',  #152 ) ;
#194 = CARTESIAN_POINT ( 'NONE',  ( 0.0000000000000000000, 0.0000000000000000000, 2.000000000000000000 ) ) ;
#195 = EDGE_CURVE ( 'NONE', #176, #200, #109, .T. ) ;
#196 = DIRECTION ( 'NONE',  ( -1.000000000000000000, 0.0000000000000000000, 0.0000000000000000000 ) ) ;
#197 = AXIS2_PLACEMENT_3D ( 'NONE', #123, #231, #76 ) ;
#198 = DIRECTION ( 'NONE',  ( 0.0000000000000000000, 0.0000000000000000000, -1.000000000000000000 ) ) ;
#199 = EDGE_LOOP ( 'NONE', ( #179, #89, #120, #153 ) ) ;
#200 = VERTEX_POINT ( 'NONE', #237 ) ;
#201 = PRESENTATION_STYLE_ASSIGNMENT (( #113 ) ) ;
#202 = ORIENTED_EDGE ( 'NONE', *, *, #30, .T. ) ;
#203 = CARTESIAN_POINT ( 'NONE',  ( 0.1560937500000000311, 0.0000000000000000000, 0.5000000000000000000 ) ) ;
#204 = SURFACE_STYLE_USAGE ( .BOTH. , #244 ) ;
#205 = DIRECTION ( 'NONE',  ( 1.224646799147353207E-16, 0.0000000000000000000, 1.000000000000000000 ) ) ;
#206 = ORIENTED_EDGE ( 'NONE', *, *, #277, .T. ) ;
#207 = DIRECTION ( 'NONE',  ( 1.000000000000000000, 0.0000000000000000000, 0.0000000000000000000 ) ) ;
#208 = ADVANCED_FACE ( 'NONE', ( #57 ), #95, .T. ) ;
#209 = CIRCLE ( 'NONE', #6, 0.1560937499999999478 ) ;
#210 = DIRECTION ( 'NONE',  ( -1.000000000000000000, 0.0000000000000000000, 0.0000000000000000000 ) ) ;
#211 = CYLINDRICAL_SURFACE ( 'NONE', #282, 0.1560937499999999478 ) ;
#212 = EDGE_CURVE ( 'NONE', #241, #176, #292, .T. ) ;
#213 = CONICAL_SURFACE ( 'NONE', #145, 0.1560937499999999478, 0.1745329251994339470 ) ;
#214 = CARTESIAN_POINT ( 'NONE',  ( 0.1562500000000000000, 1.913510623667739463E-17, 2.000000000000000000 ) ) ;
#215 = DIRECTION ( 'NONE',  ( 0.0000000000000000000, 0.0000000000000000000, 1.000000000000000000 ) ) ;
#216 = DIRECTION ( 'NONE',  ( -1.000000000000000000, 0.0000000000000000000, 1.224646799147353207E-16 ) ) ;
#217 = DIRECTION ( 'NONE',  ( -0.0000000000000000000, -0.0000000000000000000, -1.000000000000000000 ) ) ;
#218 = VECTOR ( 'NONE', #14, 39.37007874015748143 ) ;
#219 = PRODUCT_DEFINITION ( 'UNKNOWN', '', #32, #2 ) ;
#220 = EDGE_LOOP ( 'NONE', ( #227, #223, #43, #202 ) ) ;
#221 = LENGTH_MEASURE_WITH_UNIT ( LENGTH_MEASURE( 0.02539999999999999897 ), #271 );
#222 =( GEOMETRIC_REPRESENTATION_CONTEXT ( 3 ) GLOBAL_UNCERTAINTY_ASSIGNED_CONTEXT ( ( #8 ) ) GLOBAL_UNIT_ASSIGNED_CONTEXT ( ( #180, #242, #119 ) ) REPRESENTATION_CONTEXT ( 'NONE', 'WORKASPACE' ) );
#223 = ORIENTED_EDGE ( 'NONE', *, *, #91, .F. ) ;
#224 = EDGE_LOOP ( 'NONE', ( #298, #21, #272, #18 ) ) ;
#225 = DIRECTION ( 'NONE',  ( -1.000000000000000000, 0.0000000000000000000, 1.224646799147353454E-16 ) ) ;
#226 = ORIENTED_EDGE ( 'NONE', *, *, #212, .F. ) ;
#227 = ORIENTED_EDGE ( 'NONE', *, *, #117, .F. ) ;
#228 = DIRECTION ( 'NONE',  ( -0.1736481776669312194, 2.126576849575783625E-17, 0.9848077530122077983 ) ) ;
#229 = VECTOR ( 'NONE', #49, 39.37007874015748143 ) ;
#230 = CARTESIAN_POINT ( 'NONE',  ( 0.0000000000000000000, 0.0000000000000000000, 2.000000000000000000 ) ) ;
#231 = DIRECTION ( 'NONE',  ( -1.224646799147353207E-16, -0.0000000000000000000, -1.000000000000000000 ) ) ;
#232 = DIRECTION ( 'NONE',  ( 1.000000000000000000, 0.0000000000000000000, -0.0000000000000000000 ) ) ;
#233 = CARTESIAN_POINT ( 'NONE',  ( 6.123233995736766036E-17, 0.0000000000000000000, 0.5000000000000000000 ) ) ;
#234 = AXIS2_PLACEMENT_3D ( 'NONE', #194, #79, #169 ) ;
#235 = FACE_OUTER_BOUND ( 'NONE', #138, .T. ) ;
#236 = ADVANCED_FACE ( 'NONE', ( #9 ), #35, .T. ) ;
#237 = CARTESIAN_POINT ( 'NONE',  ( 0.1562500000000000833, 1.913510623667740080E-17, 0.5008861377843155660 ) ) ;
#238 =( LENGTH_UNIT ( ) NAMED_UNIT ( * ) SI_UNIT ( $, .METRE. ) );
#239 = AXIS2_PLACEMENT_3D ( 'NONE', #278, #26, #50 ) ;
#240 = EDGE_CURVE ( 'NONE', #243, #246, #170, .T. ) ;
#241 = VERTEX_POINT ( 'NONE', #148 ) ;
#242 =( NAMED_UNIT ( * ) PLANE_ANGLE_UNIT ( ) SI_UNIT ( $, .RADIAN. ) );
#243 = VERTEX_POINT ( 'NONE', #283 ) ;
#244 = SURFACE_SIDE_STYLE ('',( #88 ) ) ;
#245 = VECTOR ( 'NONE', #48, 39.37007874015748143 ) ;
#246 = VERTEX_POINT ( 'NONE', #167 ) ;
#247 = LENGTH_MEASURE_WITH_UNIT ( LENGTH_MEASURE( 0.02539999999999999897 ), #238 );
#248 = CARTESIAN_POINT ( 'NONE',  ( 0.1560937500000000311, 0.0000000000000000000, 0.5000000000000000000 ) ) ;
#249 = ORIENTED_EDGE ( 'NONE', *, *, #157, .F. ) ;
#250 = CIRCLE ( 'NONE', #291, 0.1562500000000000000 ) ;
#251 = CARTESIAN_POINT ( 'NONE',  ( -0.1562500000000000000, 0.0000000000000000000, 2.000000000000000000 ) ) ;
#252 = DIRECTION ( 'NONE',  ( 1.000000000000000000, 0.0000000000000000000, 0.0000000000000000000 ) ) ;
#253 = LINE ( 'NONE', #251, #245 ) ;
#254 = LINE ( 'NONE', #52, #106 ) ;
#255 = AXIS2_PLACEMENT_3D ( 'NONE', #181, #275, #160 ) ;
#256 = CARTESIAN_POINT ( 'NONE',  ( 0.0000000000000000000, 0.0000000000000000000, 2.000000000000000000 ) ) ;
#257 = LINE ( 'NONE', #191, #75 ) ;
#258 = FILL_AREA_STYLE ('',( #29 ) ) ;
#259 = EDGE_LOOP ( 'NONE', ( #19, #269 ) ) ;
#260 = VERTEX_POINT ( 'NONE', #10 ) ;
#261 = ADVANCED_FACE ( 'NONE', ( #235 ), #131, .T. ) ;
#262 = DIRECTION ( 'NONE',  ( -1.000000000000000000, 0.0000000000000000000, 0.0000000000000000000 ) ) ;
#263 = AXIS2_PLACEMENT_3D ( 'NONE', #108, #217, #262 ) ;
#264 = DIRECTION ( 'NONE',  ( -1.224646799147353207E-16, -0.0000000000000000000, -1.000000000000000000 ) ) ;
#265 = MECHANICAL_DESIGN_GEOMETRIC_PRESENTATION_REPRESENTATION (  '', ( #166 ), #87 ) ;
#266 = ADVANCED_FACE ( 'NONE', ( #12 ), #183, .T. ) ;
#267 = EDGE_LOOP ( 'NONE', ( #185, #37 ) ) ;
#268 =( NAMED_UNIT ( * ) PLANE_ANGLE_UNIT ( ) SI_UNIT ( $, .RADIAN. ) );
#269 = ORIENTED_EDGE ( 'NONE', *, *, #157, .T. ) ;
#270 = MANIFOLD_SOLID_BREP ( 'Cut-Revolve1', #129 ) ;
#271 =( LENGTH_UNIT ( ) NAMED_UNIT ( * ) SI_UNIT ( $, .METRE. ) );
#272 = ORIENTED_EDGE ( 'NONE', *, *, #80, .T. ) ;
#273 = LINE ( 'NONE', #290, #53 ) ;
#274 = COLOUR_RGB ( '',0.7921568627450980005, 0.8196078431372548767, 0.9333333333333333481 ) ;
#275 = DIRECTION ( 'NONE',  ( -1.224646799147353207E-16, -0.0000000000000000000, -1.000000000000000000 ) ) ;
#276 = PRODUCT ( 'Micro_SEM-312-04', 'Micro_SEM-312-04', '', ( #124 ) ) ;
#277 = EDGE_CURVE ( 'NONE', #66, #92, #142, .T. ) ;
#278 = CARTESIAN_POINT ( 'NONE',  ( 0.0000000000000000000, 0.0000000000000000000, 0.0000000000000000000 ) ) ;
#279 = DIRECTION ( 'NONE',  ( -1.224646799147353207E-16, -0.0000000000000000000, -1.000000000000000000 ) ) ;
#280 = DIMENSIONAL_EXPONENTS ( 1.000000000000000000, 0.0000000000000000000, 0.0000000000000000000, 0.0000000000000000000, 0.0000000000000000000, 0.0000000000000000000, 0.0000000000000000000 ) ;
#281 = CYLINDRICAL_SURFACE ( 'NONE', #197, 0.1560937499999999478 ) ;
#282 = AXIS2_PLACEMENT_3D ( 'NONE', #83, #264, #216 ) ;
#283 = CARTESIAN_POINT ( 'NONE',  ( -0.1412499999999997646, 0.0000000000000000000, 2.000000000000000000 ) ) ;
#284 = ORIENTED_EDGE ( 'NONE', *, *, #195, .T. ) ;
#285 = DIRECTION ( 'NONE',  ( -0.0000000000000000000, -0.0000000000000000000, -1.000000000000000000 ) ) ;
#286 = DIRECTION ( 'NONE',  ( 1.224646799147353207E-16, 0.0000000000000000000, 1.000000000000000000 ) ) ;
#287 = AXIS2_PLACEMENT_3D ( 'NONE', #233, #286, #78 ) ;
#288 = DIRECTION ( 'NONE',  ( -1.000000000000000000, 0.0000000000000000000, 0.0000000000000000000 ) ) ;
#289 = ORIENTED_EDGE ( 'NONE', *, *, #295, .F. ) ;
#290 = CARTESIAN_POINT ( 'NONE',  ( 0.1560937499999999478, 1.911597113044071073E-17, -1.911597113044071073E-17 ) ) ;
#291 = AXIS2_PLACEMENT_3D ( 'NONE', #55, #143, #207 ) ;
#292 = CIRCLE ( 'NONE', #13, 0.1562500000000000000 ) ;
#293 = CARTESIAN_POINT ( 'NONE',  ( -0.1412499999999997646, 0.0000000000000000000, 2.000000000000000000 ) ) ;
#294 = EDGE_LOOP ( 'NONE', ( #71, #284, #85, #70 ) ) ;
#295 = EDGE_CURVE ( 'NONE', #44, #147, #273, .T. ) ;
#296 = EDGE_LOOP ( 'NONE', ( #289, #139, #206, #249 ) ) ;
#297 = FILL_AREA_STYLE ('',( #84 ) ) ;
#298 = ORIENTED_EDGE ( 'NONE', *, *, #133, .F. ) ;
#299 = CARTESIAN_POINT ( 'NONE',  ( 2.341031285748743514E-33, 0.0000000000000000000, 1.911597113044071690E-17 ) ) ;
ENDSEC;
END-ISO-10303-21;
