ISO-10303-21;
HEADER;
FILE_DESCRIPTION (( 'STEP AP214' ),
    '1' );
FILE_NAME ('81312.STEP',
    '2023-06-23T00:22:49',
    ( '' ),
    ( '' ),
    'SwSTEP 2.0',
    'SolidWorks 2023',
    '' );
FILE_SCHEMA (( 'AUTOMOTIVE_DESIGN' ));
ENDSEC;

DATA;
#1 = LENGTH_MEASURE_WITH_UNIT ( LENGTH_MEASURE( 0.02539999999999999897 ), #21 );
#2 = CARTESIAN_POINT ( 'NONE',  ( -3.032960542342103792E-32, 1.000000000000000000, 0.000000000000000000 ) ) ;
#3 = CLOSED_SHELL ( 'NONE', ( #253, #178, #91, #94 ) ) ;
#4 = STYLED_ITEM ( 'NONE', ( #305 ), #210 ) ;
#5 = FACE_OUTER_BOUND ( 'NONE', #177, .T. ) ;
#6 = CARTESIAN_POINT ( 'NONE',  ( 0.000000000000000000, 0.000000000000000000, 0.000000000000000000 ) ) ;
#7 = COLOUR_RGB ( '',0.7921568627450980005, 0.8196078431372548767, 0.9333333333333333481 ) ;
#8 =( GEOMETRIC_REPRESENTATION_CONTEXT ( 3 ) GLOBAL_UNCERTAINTY_ASSIGNED_CONTEXT ( ( #237 ) ) GLOBAL_UNIT_ASSIGNED_CONTEXT ( ( #119, #213, #260 ) ) REPRESENTATION_CONTEXT ( 'NONE', 'WORKASPACE' ) );
#9 = SURFACE_STYLE_FILL_AREA ( #219 ) ;
#10 = SHAPE_DEFINITION_REPRESENTATION ( #261, #92 ) ;
#11 =( NAMED_UNIT ( * ) PLANE_ANGLE_UNIT ( ) SI_UNIT ( $, .RADIAN. ) );
#12 =( NAMED_UNIT ( * ) SI_UNIT ( $, .STERADIAN. ) SOLID_ANGLE_UNIT ( ) );
#13 =( GEOMETRIC_REPRESENTATION_CONTEXT ( 3 ) GLOBAL_UNCERTAINTY_ASSIGNED_CONTEXT ( ( #259 ) ) GLOBAL_UNIT_ASSIGNED_CONTEXT ( ( #74, #80, #12 ) ) REPRESENTATION_CONTEXT ( 'NONE', 'WORKASPACE' ) );
#14 = EDGE_LOOP ( 'NONE', ( #135, #67, #89, #275 ) ) ;
#15 = ORIENTED_EDGE ( 'NONE', *, *, #212, .T. ) ;
#16 = LENGTH_MEASURE_WITH_UNIT ( LENGTH_MEASURE( 0.02539999999999999897 ), #196 );
#17 = VERTEX_POINT ( 'NONE', #70 ) ;
#18 = VECTOR ( 'NONE', #169, 39.37007874015748143 ) ;
#19 = SURFACE_STYLE_USAGE ( .BOTH. , #304 ) ;
#20 = CARTESIAN_POINT ( 'NONE',  ( 0.000000000000000000, 1.000000000000000000, 0.000000000000000000 ) ) ;
#21 =( LENGTH_UNIT ( ) NAMED_UNIT ( * ) SI_UNIT ( $, .METRE. ) );
#22 = CIRCLE ( 'NONE', #234, 0.09374999999999998612 ) ;
#23 = SURFACE_STYLE_FILL_AREA ( #28 ) ;
#24 = VECTOR ( 'NONE', #124, 39.37007874015748143 ) ;
#25 =( CONVERSION_BASED_UNIT ( 'INCH', #165 ) LENGTH_UNIT ( ) NAMED_UNIT ( #285 ) );
#26 = PRODUCT_RELATED_PRODUCT_CATEGORY ( 'part', '', ( #121 ) ) ;
#27 = LENGTH_MEASURE_WITH_UNIT ( LENGTH_MEASURE( 0.02539999999999999897 ), #224 );
#28 = FILL_AREA_STYLE ('',( #30 ) ) ;
#29 = DIMENSIONAL_EXPONENTS ( 1.000000000000000000, 0.000000000000000000, 0.000000000000000000, 0.000000000000000000, 0.000000000000000000, 0.000000000000000000, 0.000000000000000000 ) ;
#30 = FILL_AREA_STYLE_COLOUR ( '', #7 ) ;
#31 = CIRCLE ( 'NONE', #129, 0.09374999999999980571 ) ;
#32 = COLOUR_RGB ( '',0.7921568627450980005, 0.8196078431372548767, 0.9333333333333333481 ) ;
#33 = UNCERTAINTY_MEASURE_WITH_UNIT (LENGTH_MEASURE( 1.000000000000000082E-05 ), #49, 'distance_accuracy_value', 'NONE');
#34 = FACE_OUTER_BOUND ( 'NONE', #205, .T. ) ;
#35 = CYLINDRICAL_SURFACE ( 'NONE', #277, 0.09374999999999988898 ) ;
#36 = CARTESIAN_POINT ( 'NONE',  ( -3.032960542342103792E-32, 1.000000000000000000, 0.000000000000000000 ) ) ;
#37 = EDGE_CURVE ( 'NONE', #160, #250, #46, .T. ) ;
#38 = SURFACE_STYLE_USAGE ( .BOTH. , #41 ) ;
#39 = PLANE ( 'NONE',  #110 ) ;
#40 = EDGE_CURVE ( 'NONE', #303, #181, #31, .T. ) ;
#41 = SURFACE_SIDE_STYLE ('',( #156 ) ) ;
#42 = AXIS2_PLACEMENT_3D ( 'NONE', #6, #239, #126 ) ;
#43 = ORIENTED_EDGE ( 'NONE', *, *, #212, .F. ) ;
#44 = PRODUCT_DEFINITION ( 'UNKNOWN', '', #152, #208 ) ;
#45 = ORIENTED_EDGE ( 'NONE', *, *, #246, .T. ) ;
#46 = LINE ( 'NONE', #120, #241 ) ;
#47 = AXIS2_PLACEMENT_3D ( 'NONE', #101, #188, #244 ) ;
#48 = STYLED_ITEM ( 'NONE', ( #226 ), #278 ) ;
#49 =( CONVERSION_BASED_UNIT ( 'INCH', #63 ) LENGTH_UNIT ( ) NAMED_UNIT ( #263 ) );
#50 = SURFACE_SIDE_STYLE ('',( #9 ) ) ;
#51 = SURFACE_STYLE_FILL_AREA ( #77 ) ;
#52 =( GEOMETRIC_REPRESENTATION_CONTEXT ( 3 ) GLOBAL_UNCERTAINTY_ASSIGNED_CONTEXT ( ( #33 ) ) GLOBAL_UNIT_ASSIGNED_CONTEXT ( ( #49, #255, #265 ) ) REPRESENTATION_CONTEXT ( 'NONE', 'WORKASPACE' ) );
#53 = EDGE_CURVE ( 'NONE', #250, #112, #22, .T. ) ;
#54 = DIRECTION ( 'NONE',  ( -1.000000000000000000, 0.000000000000000000, 0.000000000000000000 ) ) ;
#55 = DIRECTION ( 'NONE',  ( -0.000000000000000000, -1.000000000000000000, -0.000000000000000000 ) ) ;
#56 = DIRECTION ( 'NONE',  ( 0.000000000000000000, -1.000000000000000000, -0.000000000000000000 ) ) ;
#57 = DIMENSIONAL_EXPONENTS ( 1.000000000000000000, 0.000000000000000000, 0.000000000000000000, 0.000000000000000000, 0.000000000000000000, 0.000000000000000000, 0.000000000000000000 ) ;
#58 = DIRECTION ( 'NONE',  ( 1.224646799147353207E-16, 1.000000000000000000, -0.000000000000000000 ) ) ;
#59 = DIRECTION ( 'NONE',  ( 1.000000000000000000, -1.224646799147353207E-16, 0.000000000000000000 ) ) ;
#60 = AXIS2_PLACEMENT_3D ( 'NONE', #233, #262, #215 ) ;
#61 = AXIS2_PLACEMENT_3D ( 'NONE', #279, #161, #238 ) ;
#62 = MANIFOLD_SOLID_BREP ( 'Revolve - Tool Body (Straight Shanked)', #3 ) ;
#63 = LENGTH_MEASURE_WITH_UNIT ( LENGTH_MEASURE( 0.02539999999999999897 ), #127 );
#64 = DIMENSIONAL_EXPONENTS ( 1.000000000000000000, 0.000000000000000000, 0.000000000000000000, 0.000000000000000000, 0.000000000000000000, 0.000000000000000000, 0.000000000000000000 ) ;
#65 = PRESENTATION_LAYER_ASSIGNMENT (  '', '', ( #167 ) ) ;
#66 = PRESENTATION_STYLE_ASSIGNMENT (( #140 ) ) ;
#67 = ORIENTED_EDGE ( 'NONE', *, *, #102, .T. ) ;
#68 = DIRECTION ( 'NONE',  ( 0.000000000000000000, 0.000000000000000000, 1.000000000000000000 ) ) ;
#69 = EDGE_LOOP ( 'NONE', ( #272, #228 ) ) ;
#70 = CARTESIAN_POINT ( 'NONE',  ( 0.09374999999999997224, 1.000000000000000000, 1.148106374200642938E-17 ) ) ;
#71 = AXIS2_PLACEMENT_3D ( 'NONE', #163, #236, #59 ) ;
#72 = DIRECTION ( 'NONE',  ( 0.000000000000000000, 0.000000000000000000, -1.000000000000000000 ) ) ;
#73 = SURFACE_SIDE_STYLE ('',( #51 ) ) ;
#74 =( CONVERSION_BASED_UNIT ( 'INCH', #1 ) LENGTH_UNIT ( ) NAMED_UNIT ( #64 ) );
#75 = DIRECTION ( 'NONE',  ( 0.000000000000000000, 0.000000000000000000, -1.000000000000000000 ) ) ;
#76 = PLANE ( 'NONE',  #71 ) ;
#77 = FILL_AREA_STYLE ('',( #284 ) ) ;
#78 = CARTESIAN_POINT ( 'NONE',  ( 1.836970198721029688E-16, 2.500000000000000000, 0.000000000000000000 ) ) ;
#79 = SURFACE_STYLE_USAGE ( .BOTH. , #175 ) ;
#80 =( NAMED_UNIT ( * ) PLANE_ANGLE_UNIT ( ) SI_UNIT ( $, .RADIAN. ) );
#81 = COLOUR_RGB ( '',1.000000000000000000, 0.000000000000000000, 0.000000000000000000 ) ;
#82 = EDGE_CURVE ( 'NONE', #171, #112, #125, .T. ) ;
#83 = VECTOR ( 'NONE', #142, 39.37007874015748143 ) ;
#84 = COLOUR_RGB ( '',1.000000000000000000, 0.000000000000000000, 0.000000000000000000 ) ;
#85 = FILL_AREA_STYLE ('',( #200 ) ) ;
#86 = FILL_AREA_STYLE_COLOUR ( '', #283 ) ;
#87 = ORIENTED_EDGE ( 'NONE', *, *, #40, .T. ) ;
#88 = PRODUCT_CONTEXT ( 'NONE', #264, 'mechanical' ) ;
#89 = ORIENTED_EDGE ( 'NONE', *, *, #82, .T. ) ;
#90 = ORIENTED_EDGE ( 'NONE', *, *, #301, .T. ) ;
#91 = ADVANCED_FACE ( 'NONE', ( #122 ), #97, .T. ) ;
#92 = ADVANCED_BREP_SHAPE_REPRESENTATION ( '81312', ( #155, #62, #232 ), #268 ) ;
#93 =( GEOMETRIC_REPRESENTATION_CONTEXT ( 3 ) GLOBAL_UNCERTAINTY_ASSIGNED_CONTEXT ( ( #191 ) ) GLOBAL_UNIT_ASSIGNED_CONTEXT ( ( #291, #107, #271 ) ) REPRESENTATION_CONTEXT ( 'NONE', 'WORKASPACE' ) );
#94 = ADVANCED_FACE ( 'NONE', ( #5 ), #76, .F. ) ;
#95 = FILL_AREA_STYLE_COLOUR ( '', #247 ) ;
#96 = CARTESIAN_POINT ( 'NONE',  ( -0.09374999999999969469, 2.500000000000000000, 0.000000000000000000 ) ) ;
#97 = CYLINDRICAL_SURFACE ( 'NONE', #60, 0.09374999999999988898 ) ;
#98 = DIRECTION ( 'NONE',  ( 1.224646799147353207E-16, 1.000000000000000000, -0.000000000000000000 ) ) ;
#99 = AXIS2_PLACEMENT_3D ( 'NONE', #123, #245, #217 ) ;
#100 = LINE ( 'NONE', #96, #24 ) ;
#101 = CARTESIAN_POINT ( 'NONE',  ( 0.000000000000000000, 1.000000000000000000, 0.000000000000000000 ) ) ;
#102 = EDGE_CURVE ( 'NONE', #160, #171, #211, .T. ) ;
#103 = STYLED_ITEM ( 'NONE', ( #185 ), #155 ) ;
#104 = DIMENSIONAL_EXPONENTS ( 1.000000000000000000, 0.000000000000000000, 0.000000000000000000, 0.000000000000000000, 0.000000000000000000, 0.000000000000000000, 0.000000000000000000 ) ;
#105 =( NAMED_UNIT ( * ) SI_UNIT ( $, .STERADIAN. ) SOLID_ANGLE_UNIT ( ) );
#106 = LENGTH_MEASURE_WITH_UNIT ( LENGTH_MEASURE( 0.02539999999999999897 ), #141 );
#107 =( NAMED_UNIT ( * ) PLANE_ANGLE_UNIT ( ) SI_UNIT ( $, .RADIAN. ) );
#108 = APPLICATION_PROTOCOL_DEFINITION ( 'draft international standard', 'automotive_design', 1998, #264 ) ;
#109 = FILL_AREA_STYLE ('',( #86 ) ) ;
#110 = AXIS2_PLACEMENT_3D ( 'NONE', #20, #209, #302 ) ;
#111 = ORIENTED_EDGE ( 'NONE', *, *, #115, .F. ) ;
#112 = VERTEX_POINT ( 'NONE', #282 ) ;
#113 = AXIS2_PLACEMENT_3D ( 'NONE', #216, #287, #149 ) ;
#114 = ORIENTED_EDGE ( 'NONE', *, *, #143, .T. ) ;
#115 = EDGE_CURVE ( 'NONE', #295, #17, #131, .T. ) ;
#116 = AXIS2_PLACEMENT_3D ( 'NONE', #144, #240, #193 ) ;
#117 = LINE ( 'NONE', #256, #18 ) ;
#118 =( LENGTH_UNIT ( ) NAMED_UNIT ( * ) SI_UNIT ( $, .METRE. ) );
#119 =( CONVERSION_BASED_UNIT ( 'INCH', #27 ) LENGTH_UNIT ( ) NAMED_UNIT ( #104 ) );
#120 = CARTESIAN_POINT ( 'NONE',  ( 1.148106374200643401E-17, 0.000000000000000000, 0.09374999999999998612 ) ) ;
#121 = PRODUCT ( '81312', '81312', '', ( #88 ) ) ;
#122 = FACE_OUTER_BOUND ( 'NONE', #227, .T. ) ;
#123 = CARTESIAN_POINT ( 'NONE',  ( 7.030123981227455826E-34, 1.000000000000000000, 0.000000000000000000 ) ) ;
#124 = DIRECTION ( 'NONE',  ( 1.224646799147353207E-16, 1.000000000000000000, -0.000000000000000000 ) ) ;
#125 = LINE ( 'NONE', #309, #83 ) ;
#126 = DIRECTION ( 'NONE',  ( 0.000000000000000000, 0.000000000000000000, -1.000000000000000000 ) ) ;
#127 =( LENGTH_UNIT ( ) NAMED_UNIT ( * ) SI_UNIT ( $, .METRE. ) );
#128 = FILL_AREA_STYLE_COLOUR ( '', #81 ) ;
#129 = AXIS2_PLACEMENT_3D ( 'NONE', #78, #148, #308 ) ;
#130 = CARTESIAN_POINT ( 'NONE',  ( 0.000000000000000000, 0.000000000000000000, 0.000000000000000000 ) ) ;
#131 = CIRCLE ( 'NONE', #252, 0.09374999999999998612 ) ;
#132 = CARTESIAN_POINT ( 'NONE',  ( 1.148106374200643401E-17, 1.000000000000000000, 0.09374999999999998612 ) ) ;
#133 =( NAMED_UNIT ( * ) SI_UNIT ( $, .STERADIAN. ) SOLID_ANGLE_UNIT ( ) );
#134 = CIRCLE ( 'NONE', #221, 0.09374999999999998612 ) ;
#135 = ORIENTED_EDGE ( 'NONE', *, *, #37, .F. ) ;
#136 = ORIENTED_EDGE ( 'NONE', *, *, #37, .T. ) ;
#137 = EDGE_LOOP ( 'NONE', ( #176, #136, #273, #157 ) ) ;
#138 = AXIS2_PLACEMENT_3D ( 'NONE', #130, #56, #173 ) ;
#139 = PLANE ( 'NONE',  #138 ) ;
#140 = SURFACE_STYLE_USAGE ( .BOTH. , #50 ) ;
#141 =( LENGTH_UNIT ( ) NAMED_UNIT ( * ) SI_UNIT ( $, .METRE. ) );
#142 = DIRECTION ( 'NONE',  ( -0.000000000000000000, -1.000000000000000000, -0.000000000000000000 ) ) ;
#143 = EDGE_CURVE ( 'NONE', #17, #295, #134, .T. ) ;
#144 = CARTESIAN_POINT ( 'NONE',  ( 0.000000000000000000, 0.000000000000000000, 0.000000000000000000 ) ) ;
#145 = CARTESIAN_POINT ( 'NONE',  ( 0.000000000000000000, 1.000000000000000000, -0.09374999999999998612 ) ) ;
#146 = PRESENTATION_LAYER_ASSIGNMENT (  '', '', ( #48 ) ) ;
#147 = CARTESIAN_POINT ( 'NONE',  ( 1.148106374200643401E-17, 0.000000000000000000, 0.09374999999999998612 ) ) ;
#148 = DIRECTION ( 'NONE',  ( 1.224646799147353207E-16, 1.000000000000000000, -0.000000000000000000 ) ) ;
#149 = DIRECTION ( 'NONE',  ( -1.000000000000000000, 0.000000000000000000, 0.000000000000000000 ) ) ;
#150 = DIMENSIONAL_EXPONENTS ( 1.000000000000000000, 0.000000000000000000, 0.000000000000000000, 0.000000000000000000, 0.000000000000000000, 0.000000000000000000, 0.000000000000000000 ) ;
#151 = CARTESIAN_POINT ( 'NONE',  ( 0.09374999999999997224, 2.500000000000000000, 1.148106374200642938E-17 ) ) ;
#152 = PRODUCT_DEFINITION_FORMATION_WITH_SPECIFIED_SOURCE ( 'ANY', '', #121, .NOT_KNOWN. ) ;
#153 =( LENGTH_UNIT ( ) NAMED_UNIT ( * ) SI_UNIT ( $, .METRE. ) );
#154 = ORIENTED_EDGE ( 'NONE', *, *, #115, .T. ) ;
#155 = MANIFOLD_SOLID_BREP ( 'Revolve - Cutting Edge', #158 ) ;
#156 = SURFACE_STYLE_FILL_AREA ( #109 ) ;
#157 = ORIENTED_EDGE ( 'NONE', *, *, #82, .F. ) ;
#158 = CLOSED_SHELL ( 'NONE', ( #278, #184, #166, #210 ) ) ;
#159 = AXIS2_PLACEMENT_3D ( 'NONE', #307, #183, #72 ) ;
#160 = VERTEX_POINT ( 'NONE', #132 ) ;
#161 = DIRECTION ( 'NONE',  ( -0.000000000000000000, -1.000000000000000000, -0.000000000000000000 ) ) ;
#162 =( NAMED_UNIT ( * ) PLANE_ANGLE_UNIT ( ) SI_UNIT ( $, .RADIAN. ) );
#163 = CARTESIAN_POINT ( 'NONE',  ( 0.09374999999999998612, 2.500000000000000000, 0.000000000000000000 ) ) ;
#164 = PRESENTATION_STYLE_ASSIGNMENT (( #235 ) ) ;
#165 = LENGTH_MEASURE_WITH_UNIT ( LENGTH_MEASURE( 0.02539999999999999897 ), #118 );
#166 = ADVANCED_FACE ( 'NONE', ( #223 ), #170, .T. ) ;
#167 = STYLED_ITEM ( 'NONE', ( #66 ), #184 ) ;
#168 = DIRECTION ( 'NONE',  ( -1.000000000000000000, 0.000000000000000000, 0.000000000000000000 ) ) ;
#169 = DIRECTION ( 'NONE',  ( 1.224646799147353207E-16, 1.000000000000000000, -0.000000000000000000 ) ) ;
#170 = CYLINDRICAL_SURFACE ( 'NONE', #42, 0.09374999999999998612 ) ;
#171 = VERTEX_POINT ( 'NONE', #145 ) ;
#172 = PRESENTATION_LAYER_ASSIGNMENT (  '', '', ( #179 ) ) ;
#173 = DIRECTION ( 'NONE',  ( 0.000000000000000000, 0.000000000000000000, -1.000000000000000000 ) ) ;
#174 = CARTESIAN_POINT ( 'NONE',  ( 0.000000000000000000, 0.000000000000000000, 0.000000000000000000 ) ) ;
#175 = SURFACE_SIDE_STYLE ('',( #289 ) ) ;
#176 = ORIENTED_EDGE ( 'NONE', *, *, #187, .T. ) ;
#177 = EDGE_LOOP ( 'NONE', ( #15, #87 ) ) ;
#178 = ADVANCED_FACE ( 'NONE', ( #34 ), #197, .F. ) ;
#179 = STYLED_ITEM ( 'NONE', ( #164 ), #62 ) ;
#180 = CIRCLE ( 'NONE', #159, 0.09374999999999998612 ) ;
#181 = VERTEX_POINT ( 'NONE', #288 ) ;
#182 =( CONVERSION_BASED_UNIT ( 'INCH', #16 ) LENGTH_UNIT ( ) NAMED_UNIT ( #150 ) );
#183 = DIRECTION ( 'NONE',  ( -0.000000000000000000, -1.000000000000000000, -0.000000000000000000 ) ) ;
#184 = ADVANCED_FACE ( 'NONE', ( #194 ), #39, .T. ) ;
#185 = PRESENTATION_STYLE_ASSIGNMENT (( #258 ) ) ;
#186 = CYLINDRICAL_SURFACE ( 'NONE', #61, 0.09374999999999998612 ) ;
#187 = EDGE_CURVE ( 'NONE', #171, #160, #180, .T. ) ;
#188 = DIRECTION ( 'NONE',  ( -0.000000000000000000, -1.000000000000000000, -0.000000000000000000 ) ) ;
#189 = MECHANICAL_DESIGN_GEOMETRIC_PRESENTATION_REPRESENTATION (  '', ( #4 ), #13 ) ;
#190 =( NAMED_UNIT ( * ) SI_UNIT ( $, .STERADIAN. ) SOLID_ANGLE_UNIT ( ) );
#191 = UNCERTAINTY_MEASURE_WITH_UNIT (LENGTH_MEASURE( 1.000000000000000082E-05 ), #291, 'distance_accuracy_value', 'NONE');
#192 = CARTESIAN_POINT ( 'NONE',  ( 0.000000000000000000, 0.000000000000000000, 0.000000000000000000 ) ) ;
#193 = DIRECTION ( 'NONE',  ( 0.000000000000000000, 0.000000000000000000, -1.000000000000000000 ) ) ;
#194 = FACE_OUTER_BOUND ( 'NONE', #297, .T. ) ;
#195 = CARTESIAN_POINT ( 'NONE',  ( 1.836970198721029688E-16, 2.500000000000000000, 0.000000000000000000 ) ) ;
#196 =( LENGTH_UNIT ( ) NAMED_UNIT ( * ) SI_UNIT ( $, .METRE. ) );
#197 = PLANE ( 'NONE',  #99 ) ;
#198 = MECHANICAL_DESIGN_GEOMETRIC_PRESENTATION_REPRESENTATION (  '', ( #48 ), #52 ) ;
#199 = LENGTH_MEASURE_WITH_UNIT ( LENGTH_MEASURE( 0.02539999999999999897 ), #153 );
#200 = FILL_AREA_STYLE_COLOUR ( '', #84 ) ;
#201 = PRESENTATION_LAYER_ASSIGNMENT (  '', '', ( #103 ) ) ;
#202 = ORIENTED_EDGE ( 'NONE', *, *, #301, .F. ) ;
#203 = ORIENTED_EDGE ( 'NONE', *, *, #143, .F. ) ;
#204 = UNCERTAINTY_MEASURE_WITH_UNIT (LENGTH_MEASURE( 1.000000000000000082E-05 ), #293, 'distance_accuracy_value', 'NONE');
#205 = EDGE_LOOP ( 'NONE', ( #111, #203 ) ) ;
#206 = ORIENTED_EDGE ( 'NONE', *, *, #102, .F. ) ;
#207 = SURFACE_STYLE_FILL_AREA ( #230 ) ;
#208 = PRODUCT_DEFINITION_CONTEXT ( 'detailed design', #298, 'design' ) ;
#209 = DIRECTION ( 'NONE',  ( 0.000000000000000000, 1.000000000000000000, 0.000000000000000000 ) ) ;
#210 = ADVANCED_FACE ( 'NONE', ( #251 ), #139, .T. ) ;
#211 = CIRCLE ( 'NONE', #47, 0.09374999999999998612 ) ;
#212 = EDGE_CURVE ( 'NONE', #181, #303, #292, .T. ) ;
#213 =( NAMED_UNIT ( * ) PLANE_ANGLE_UNIT ( ) SI_UNIT ( $, .RADIAN. ) );
#214 =( GEOMETRIC_REPRESENTATION_CONTEXT ( 3 ) GLOBAL_UNCERTAINTY_ASSIGNED_CONTEXT ( ( #296 ) ) GLOBAL_UNIT_ASSIGNED_CONTEXT ( ( #25, #162, #190 ) ) REPRESENTATION_CONTEXT ( 'NONE', 'WORKASPACE' ) );
#215 = DIRECTION ( 'NONE',  ( -1.000000000000000000, 0.000000000000000000, 0.000000000000000000 ) ) ;
#216 = CARTESIAN_POINT ( 'NONE',  ( 1.836970198721029688E-16, 2.500000000000000000, 0.000000000000000000 ) ) ;
#217 = DIRECTION ( 'NONE',  ( -1.000000000000000000, 1.224646799147353207E-16, 0.000000000000000000 ) ) ;
#218 = FACE_OUTER_BOUND ( 'NONE', #299, .T. ) ;
#219 = FILL_AREA_STYLE ('',( #128 ) ) ;
#220 = DIRECTION ( 'NONE',  ( 1.000000000000000000, 0.000000000000000000, 0.000000000000000000 ) ) ;
#221 = AXIS2_PLACEMENT_3D ( 'NONE', #2, #98, #54 ) ;
#222 =( NAMED_UNIT ( * ) PLANE_ANGLE_UNIT ( ) SI_UNIT ( $, .RADIAN. ) );
#223 = FACE_OUTER_BOUND ( 'NONE', #14, .T. ) ;
#224 =( LENGTH_UNIT ( ) NAMED_UNIT ( * ) SI_UNIT ( $, .METRE. ) );
#225 = CIRCLE ( 'NONE', #116, 0.09374999999999998612 ) ;
#226 = PRESENTATION_STYLE_ASSIGNMENT (( #38 ) ) ;
#227 = EDGE_LOOP ( 'NONE', ( #202, #114, #45, #266 ) ) ;
#228 = ORIENTED_EDGE ( 'NONE', *, *, #53, .T. ) ;
#229 = ORIENTED_EDGE ( 'NONE', *, *, #246, .F. ) ;
#230 = FILL_AREA_STYLE ('',( #95 ) ) ;
#231 = PRESENTATION_LAYER_ASSIGNMENT (  '', '', ( #267 ) ) ;
#232 = AXIS2_PLACEMENT_3D ( 'NONE', #174, #68, #220 ) ;
#233 = CARTESIAN_POINT ( 'NONE',  ( 1.836970198721029688E-16, 2.500000000000000000, 0.000000000000000000 ) ) ;
#234 = AXIS2_PLACEMENT_3D ( 'NONE', #192, #281, #75 ) ;
#235 = SURFACE_STYLE_USAGE ( .BOTH. , #254 ) ;
#236 = DIRECTION ( 'NONE',  ( -1.224646799147353207E-16, -1.000000000000000000, 0.000000000000000000 ) ) ;
#237 = UNCERTAINTY_MEASURE_WITH_UNIT (LENGTH_MEASURE( 1.000000000000000082E-05 ), #119, 'distance_accuracy_value', 'NONE');
#238 = DIRECTION ( 'NONE',  ( 0.000000000000000000, 0.000000000000000000, -1.000000000000000000 ) ) ;
#239 = DIRECTION ( 'NONE',  ( -0.000000000000000000, -1.000000000000000000, -0.000000000000000000 ) ) ;
#240 = DIRECTION ( 'NONE',  ( -0.000000000000000000, -1.000000000000000000, -0.000000000000000000 ) ) ;
#241 = VECTOR ( 'NONE', #55, 39.37007874015748143 ) ;
#242 = FACE_OUTER_BOUND ( 'NONE', #137, .T. ) ;
#243 = MECHANICAL_DESIGN_GEOMETRIC_PRESENTATION_REPRESENTATION (  '', ( #167 ), #93 ) ;
#244 = DIRECTION ( 'NONE',  ( 0.000000000000000000, 0.000000000000000000, -1.000000000000000000 ) ) ;
#245 = DIRECTION ( 'NONE',  ( 1.224646799147353207E-16, 1.000000000000000000, -0.000000000000000000 ) ) ;
#246 = EDGE_CURVE ( 'NONE', #295, #181, #100, .T. ) ;
#247 = COLOUR_RGB ( '',1.000000000000000000, 0.000000000000000000, 0.000000000000000000 ) ;
#248 = ORIENTED_EDGE ( 'NONE', *, *, #187, .F. ) ;
#249 = PRESENTATION_LAYER_ASSIGNMENT (  '', '', ( #4 ) ) ;
#250 = VERTEX_POINT ( 'NONE', #147 ) ;
#251 = FACE_OUTER_BOUND ( 'NONE', #69, .T. ) ;
#252 = AXIS2_PLACEMENT_3D ( 'NONE', #36, #286, #257 ) ;
#253 = ADVANCED_FACE ( 'NONE', ( #218 ), #35, .T. ) ;
#254 = SURFACE_SIDE_STYLE ('',( #23 ) ) ;
#255 =( NAMED_UNIT ( * ) PLANE_ANGLE_UNIT ( ) SI_UNIT ( $, .RADIAN. ) );
#256 = CARTESIAN_POINT ( 'NONE',  ( 0.09375000000000006939, 2.500000000000000000, 1.148106374200642322E-17 ) ) ;
#257 = DIRECTION ( 'NONE',  ( -1.000000000000000000, 0.000000000000000000, 0.000000000000000000 ) ) ;
#258 = SURFACE_STYLE_USAGE ( .BOTH. , #73 ) ;
#259 = UNCERTAINTY_MEASURE_WITH_UNIT (LENGTH_MEASURE( 1.000000000000000082E-05 ), #74, 'distance_accuracy_value', 'NONE');
#260 =( NAMED_UNIT ( * ) SI_UNIT ( $, .STERADIAN. ) SOLID_ANGLE_UNIT ( ) );
#261 = PRODUCT_DEFINITION_SHAPE ( 'NONE', 'NONE',  #44 ) ;
#262 = DIRECTION ( 'NONE',  ( 1.224646799147353207E-16, 1.000000000000000000, -0.000000000000000000 ) ) ;
#263 = DIMENSIONAL_EXPONENTS ( 1.000000000000000000, 0.000000000000000000, 0.000000000000000000, 0.000000000000000000, 0.000000000000000000, 0.000000000000000000, 0.000000000000000000 ) ;
#264 = APPLICATION_CONTEXT ( 'automotive_design' ) ;
#265 =( NAMED_UNIT ( * ) SI_UNIT ( $, .STERADIAN. ) SOLID_ANGLE_UNIT ( ) );
#266 = ORIENTED_EDGE ( 'NONE', *, *, #40, .F. ) ;
#267 = STYLED_ITEM ( 'NONE', ( #270 ), #166 ) ;
#268 =( GEOMETRIC_REPRESENTATION_CONTEXT ( 3 ) GLOBAL_UNCERTAINTY_ASSIGNED_CONTEXT ( ( #276 ) ) GLOBAL_UNIT_ASSIGNED_CONTEXT ( ( #182, #222, #105 ) ) REPRESENTATION_CONTEXT ( 'NONE', 'WORKASPACE' ) );
#269 = APPLICATION_PROTOCOL_DEFINITION ( 'draft international standard', 'automotive_design', 1998, #298 ) ;
#270 = PRESENTATION_STYLE_ASSIGNMENT (( #79 ) ) ;
#271 =( NAMED_UNIT ( * ) SI_UNIT ( $, .STERADIAN. ) SOLID_ANGLE_UNIT ( ) );
#272 = ORIENTED_EDGE ( 'NONE', *, *, #294, .T. ) ;
#273 = ORIENTED_EDGE ( 'NONE', *, *, #294, .F. ) ;
#274 = MECHANICAL_DESIGN_GEOMETRIC_PRESENTATION_REPRESENTATION (  '', ( #103 ), #306 ) ;
#275 = ORIENTED_EDGE ( 'NONE', *, *, #53, .F. ) ;
#276 = UNCERTAINTY_MEASURE_WITH_UNIT (LENGTH_MEASURE( 1.000000000000000082E-05 ), #182, 'distance_accuracy_value', 'NONE');
#277 = AXIS2_PLACEMENT_3D ( 'NONE', #195, #58, #168 ) ;
#278 = ADVANCED_FACE ( 'NONE', ( #242 ), #186, .T. ) ;
#279 = CARTESIAN_POINT ( 'NONE',  ( 0.000000000000000000, 0.000000000000000000, 0.000000000000000000 ) ) ;
#280 = CARTESIAN_POINT ( 'NONE',  ( -0.09374999999999998612, 1.000000000000000000, 0.000000000000000000 ) ) ;
#281 = DIRECTION ( 'NONE',  ( -0.000000000000000000, -1.000000000000000000, -0.000000000000000000 ) ) ;
#282 = CARTESIAN_POINT ( 'NONE',  ( 0.000000000000000000, 0.000000000000000000, -0.09374999999999998612 ) ) ;
#283 = COLOUR_RGB ( '',1.000000000000000000, 0.000000000000000000, 0.000000000000000000 ) ;
#284 = FILL_AREA_STYLE_COLOUR ( '', #32 ) ;
#285 = DIMENSIONAL_EXPONENTS ( 1.000000000000000000, 0.000000000000000000, 0.000000000000000000, 0.000000000000000000, 0.000000000000000000, 0.000000000000000000, 0.000000000000000000 ) ;
#286 = DIRECTION ( 'NONE',  ( 1.224646799147353207E-16, 1.000000000000000000, -0.000000000000000000 ) ) ;
#287 = DIRECTION ( 'NONE',  ( 1.224646799147353207E-16, 1.000000000000000000, -0.000000000000000000 ) ) ;
#288 = CARTESIAN_POINT ( 'NONE',  ( -0.09374999999999961142, 2.500000000000000000, 0.000000000000000000 ) ) ;
#289 = SURFACE_STYLE_FILL_AREA ( #85 ) ;
#290 = MECHANICAL_DESIGN_GEOMETRIC_PRESENTATION_REPRESENTATION (  '', ( #267 ), #8 ) ;
#291 =( CONVERSION_BASED_UNIT ( 'INCH', #199 ) LENGTH_UNIT ( ) NAMED_UNIT ( #57 ) );
#292 = CIRCLE ( 'NONE', #113, 0.09374999999999980571 ) ;
#293 =( CONVERSION_BASED_UNIT ( 'INCH', #106 ) LENGTH_UNIT ( ) NAMED_UNIT ( #29 ) );
#294 = EDGE_CURVE ( 'NONE', #112, #250, #225, .T. ) ;
#295 = VERTEX_POINT ( 'NONE', #280 ) ;
#296 = UNCERTAINTY_MEASURE_WITH_UNIT (LENGTH_MEASURE( 1.000000000000000082E-05 ), #25, 'distance_accuracy_value', 'NONE');
#297 = EDGE_LOOP ( 'NONE', ( #248, #206 ) ) ;
#298 = APPLICATION_CONTEXT ( 'automotive_design' ) ;
#299 = EDGE_LOOP ( 'NONE', ( #154, #90, #43, #229 ) ) ;
#300 = MECHANICAL_DESIGN_GEOMETRIC_PRESENTATION_REPRESENTATION (  '', ( #179 ), #214 ) ;
#301 = EDGE_CURVE ( 'NONE', #17, #303, #117, .T. ) ;
#302 = DIRECTION ( 'NONE',  ( 0.000000000000000000, -0.000000000000000000, 1.000000000000000000 ) ) ;
#303 = VERTEX_POINT ( 'NONE', #151 ) ;
#304 = SURFACE_SIDE_STYLE ('',( #207 ) ) ;
#305 = PRESENTATION_STYLE_ASSIGNMENT (( #19 ) ) ;
#306 =( GEOMETRIC_REPRESENTATION_CONTEXT ( 3 ) GLOBAL_UNCERTAINTY_ASSIGNED_CONTEXT ( ( #204 ) ) GLOBAL_UNIT_ASSIGNED_CONTEXT ( ( #293, #11, #133 ) ) REPRESENTATION_CONTEXT ( 'NONE', 'WORKASPACE' ) );
#307 = CARTESIAN_POINT ( 'NONE',  ( 0.000000000000000000, 1.000000000000000000, 0.000000000000000000 ) ) ;
#308 = DIRECTION ( 'NONE',  ( -1.000000000000000000, 0.000000000000000000, 0.000000000000000000 ) ) ;
#309 = CARTESIAN_POINT ( 'NONE',  ( 0.000000000000000000, 0.000000000000000000, -0.09374999999999998612 ) ) ;
ENDSEC;
END-ISO-10303-21;
