ISO-10303-21;
HEADER;
FILE_DESCRIPTION (( 'STEP AP214' ),
    '1' );
FILE_NAME ('03030.STEP',
    '2023-06-22T14:51:29',
    ( '' ),
    ( '' ),
    'SwSTEP 2.0',
    'SolidWorks 2023',
    '' );
FILE_SCHEMA (( 'AUTOMOTIVE_DESIGN' ));
ENDSEC;

DATA;
#1 = DIRECTION ( 'NONE',  ( -3.768143997376475057E-17, 1.000000000000000000, -0.000000000000000000 ) ) ;
#2 = CARTESIAN_POINT ( 'NONE',  ( 0.000000000000000000, 0.000000000000000000, 0.000000000000000000 ) ) ;
#3 = ORIENTED_EDGE ( 'NONE', *, *, #124, .T. ) ;
#4 = CYLINDRICAL_SURFACE ( 'NONE', #294, 0.06250000000000001388 ) ;
#5 = DIRECTION ( 'NONE',  ( 0.000000000000000000, 0.000000000000000000, -1.000000000000000000 ) ) ;
#6 = EDGE_CURVE ( 'NONE', #241, #114, #292, .T. ) ;
#7 = FILL_AREA_STYLE ('',( #215 ) ) ;
#8 = COLOUR_RGB ( '',0.7921568627450980005, 0.8196078431372548767, 0.9333333333333333481 ) ;
#9 = AXIS2_PLACEMENT_3D ( 'NONE', #53, #95, #73 ) ;
#10 = DIRECTION ( 'NONE',  ( -1.000000000000000000, -3.768143997376475057E-17, 0.000000000000000000 ) ) ;
#11 = ORIENTED_EDGE ( 'NONE', *, *, #42, .F. ) ;
#12 = LENGTH_MEASURE_WITH_UNIT ( LENGTH_MEASURE( 0.02539999999999999897 ), #191 );
#13 = ORIENTED_EDGE ( 'NONE', *, *, #226, .T. ) ;
#14 = ORIENTED_EDGE ( 'NONE', *, *, #109, .F. ) ;
#15 =( NAMED_UNIT ( * ) PLANE_ANGLE_UNIT ( ) SI_UNIT ( $, .RADIAN. ) );
#16 = FACE_OUTER_BOUND ( 'NONE', #171, .T. ) ;
#17 = CARTESIAN_POINT ( 'NONE',  ( -6.123233995736772199E-17, 2.000000000000000000, 0.000000000000000000 ) ) ;
#18 = FILL_AREA_STYLE ('',( #258 ) ) ;
#19 = DIRECTION ( 'NONE',  ( 0.000000000000000000, -0.000000000000000000, 1.000000000000000000 ) ) ;
#20 =( LENGTH_UNIT ( ) NAMED_UNIT ( * ) SI_UNIT ( $, .METRE. ) );
#21 = FILL_AREA_STYLE_COLOUR ( '', #193 ) ;
#22 = AXIS2_PLACEMENT_3D ( 'NONE', #137, #47, #5 ) ;
#23 = SURFACE_STYLE_USAGE ( .BOTH. , #164 ) ;
#24 = DIRECTION ( 'NONE',  ( 0.000000000000000000, 0.000000000000000000, -1.000000000000000000 ) ) ;
#25 = UNCERTAINTY_MEASURE_WITH_UNIT (LENGTH_MEASURE( 1.000000000000000082E-05 ), #278, 'distance_accuracy_value', 'NONE');
#26 = EDGE_CURVE ( 'NONE', #271, #244, #82, .T. ) ;
#27 =( CONVERSION_BASED_UNIT ( 'INCH', #12 ) LENGTH_UNIT ( ) NAMED_UNIT ( #256 ) );
#28 = ORIENTED_EDGE ( 'NONE', *, *, #78, .F. ) ;
#29 = VERTEX_POINT ( 'NONE', #133 ) ;
#30 = SHAPE_DEFINITION_REPRESENTATION ( #194, #108 ) ;
#31 =( NAMED_UNIT ( * ) PLANE_ANGLE_UNIT ( ) SI_UNIT ( $, .RADIAN. ) );
#32 = MECHANICAL_DESIGN_GEOMETRIC_PRESENTATION_REPRESENTATION (  '', ( #90 ), #149 ) ;
#33 = VERTEX_POINT ( 'NONE', #229 ) ;
#34 = CIRCLE ( 'NONE', #59, 0.06250000000000000000 ) ;
#35 = SURFACE_SIDE_STYLE ('',( #56 ) ) ;
#36 = EDGE_LOOP ( 'NONE', ( #13, #307, #11, #94 ) ) ;
#37 = ADVANCED_FACE ( 'NONE', ( #130 ), #205, .T. ) ;
#38 = STYLED_ITEM ( 'NONE', ( #284 ), #37 ) ;
#39 = EDGE_LOOP ( 'NONE', ( #225, #63, #197, #301 ) ) ;
#40 = DIRECTION ( 'NONE',  ( 0.000000000000000000, 1.000000000000000000, 0.000000000000000000 ) ) ;
#41 = DIRECTION ( 'NONE',  ( -3.768143997376475057E-17, 1.000000000000000000, -0.000000000000000000 ) ) ;
#42 = EDGE_CURVE ( 'NONE', #33, #50, #146, .T. ) ;
#43 = DIRECTION ( 'NONE',  ( -1.000000000000000000, 0.000000000000000000, 0.000000000000000000 ) ) ;
#44 = EDGE_CURVE ( 'NONE', #29, #244, #81, .T. ) ;
#45 = PRESENTATION_STYLE_ASSIGNMENT (( #23 ) ) ;
#46 = PRODUCT_RELATED_PRODUCT_CATEGORY ( 'part', '', ( #58 ) ) ;
#47 = DIRECTION ( 'NONE',  ( -0.000000000000000000, -1.000000000000000000, -0.000000000000000000 ) ) ;
#48 = STYLED_ITEM ( 'NONE', ( #157 ), #286 ) ;
#49 = CARTESIAN_POINT ( 'NONE',  ( 0.000000000000000000, 0.000000000000000000, 0.000000000000000000 ) ) ;
#50 = VERTEX_POINT ( 'NONE', #61 ) ;
#51 = ORIENTED_EDGE ( 'NONE', *, *, #26, .T. ) ;
#52 = STYLED_ITEM ( 'NONE', ( #195 ), #161 ) ;
#53 = CARTESIAN_POINT ( 'NONE',  ( 0.000000000000000000, 0.000000000000000000, 0.000000000000000000 ) ) ;
#54 = CYLINDRICAL_SURFACE ( 'NONE', #248, 0.06250000000000002776 ) ;
#55 = CARTESIAN_POINT ( 'NONE',  ( -6.123233995736772199E-17, 2.000000000000000000, 0.000000000000000000 ) ) ;
#56 = SURFACE_STYLE_FILL_AREA ( #147 ) ;
#57 = MECHANICAL_DESIGN_GEOMETRIC_PRESENTATION_REPRESENTATION (  '', ( #177 ), #267 ) ;
#58 = PRODUCT ( '03030', '03030', '', ( #273 ) ) ;
#59 = AXIS2_PLACEMENT_3D ( 'NONE', #141, #113, #218 ) ;
#60 = CARTESIAN_POINT ( 'NONE',  ( 7.654042494670960626E-18, 0.000000000000000000, 0.06250000000000002776 ) ) ;
#61 = CARTESIAN_POINT ( 'NONE',  ( 0.06250000000000000000, 2.000000000000000000, 7.654042494670963708E-18 ) ) ;
#62 = CARTESIAN_POINT ( 'NONE',  ( -0.06250000000000009714, 2.000000000000000000, 0.000000000000000000 ) ) ;
#63 = ORIENTED_EDGE ( 'NONE', *, *, #6, .T. ) ;
#64 = CARTESIAN_POINT ( 'NONE',  ( 0.000000000000000000, 0.3750000000000000555, 0.000000000000000000 ) ) ;
#65 = PRESENTATION_LAYER_ASSIGNMENT (  '', '', ( #177 ) ) ;
#66 = DIRECTION ( 'NONE',  ( -0.000000000000000000, -1.000000000000000000, -0.000000000000000000 ) ) ;
#67 = VECTOR ( 'NONE', #41, 39.37007874015748143 ) ;
#68 =( LENGTH_UNIT ( ) NAMED_UNIT ( * ) SI_UNIT ( $, .METRE. ) );
#69 = FACE_OUTER_BOUND ( 'NONE', #232, .T. ) ;
#70 = AXIS2_PLACEMENT_3D ( 'NONE', #296, #222, #10 ) ;
#71 = SURFACE_STYLE_USAGE ( .BOTH. , #293 ) ;
#72 = CARTESIAN_POINT ( 'NONE',  ( -0.06250000000000000000, 0.3749999999999999445, 0.000000000000000000 ) ) ;
#73 = DIRECTION ( 'NONE',  ( 1.000000000000000000, 0.000000000000000000, 0.000000000000000000 ) ) ;
#74 = FILL_AREA_STYLE_COLOUR ( '', #187 ) ;
#75 = ADVANCED_FACE ( 'NONE', ( #125 ), #282, .T. ) ;
#76 = FACE_OUTER_BOUND ( 'NONE', #36, .T. ) ;
#77 = DIRECTION ( 'NONE',  ( 1.000000000000000000, 3.768143997376475057E-17, 0.000000000000000000 ) ) ;
#78 = EDGE_CURVE ( 'NONE', #153, #271, #245, .T. ) ;
#79 = VECTOR ( 'NONE', #251, 39.37007874015748143 ) ;
#80 = CARTESIAN_POINT ( 'NONE',  ( 0.000000000000000000, 0.000000000000000000, 0.000000000000000000 ) ) ;
#81 = CIRCLE ( 'NONE', #189, 0.06250000000000001388 ) ;
#82 = LINE ( 'NONE', #84, #122 ) ;
#83 = UNCERTAINTY_MEASURE_WITH_UNIT (LENGTH_MEASURE( 1.000000000000000082E-05 ), #121, 'distance_accuracy_value', 'NONE');
#84 = CARTESIAN_POINT ( 'NONE',  ( 7.654042494670959086E-18, 0.000000000000000000, 0.06250000000000001388 ) ) ;
#85 = FILL_AREA_STYLE ('',( #21 ) ) ;
#86 = PRESENTATION_LAYER_ASSIGNMENT (  '', '', ( #90 ) ) ;
#87 = SURFACE_STYLE_USAGE ( .BOTH. , #134 ) ;
#88 = EDGE_CURVE ( 'NONE', #241, #50, #181, .T. ) ;
#89 = SURFACE_STYLE_FILL_AREA ( #7 ) ;
#90 = STYLED_ITEM ( 'NONE', ( #289 ), #143 ) ;
#91 = FILL_AREA_STYLE_COLOUR ( '', #8 ) ;
#92 = FACE_OUTER_BOUND ( 'NONE', #255, .T. ) ;
#93 = CARTESIAN_POINT ( 'NONE',  ( 0.06250000000000000000, 0.3749999999999999445, 7.654042494670963708E-18 ) ) ;
#94 = ORIENTED_EDGE ( 'NONE', *, *, #266, .F. ) ;
#95 = DIRECTION ( 'NONE',  ( 0.000000000000000000, 0.000000000000000000, 1.000000000000000000 ) ) ;
#96 = SURFACE_STYLE_USAGE ( .BOTH. , #35 ) ;
#97 = EDGE_LOOP ( 'NONE', ( #246, #3 ) ) ;
#98 = AXIS2_PLACEMENT_3D ( 'NONE', #265, #135, #291 ) ;
#99 = SURFACE_SIDE_STYLE ('',( #306 ) ) ;
#100 = DIRECTION ( 'NONE',  ( -3.768143997376475057E-17, 1.000000000000000000, -0.000000000000000000 ) ) ;
#101 = LINE ( 'NONE', #62, #79 ) ;
#102 =( NAMED_UNIT ( * ) SI_UNIT ( $, .STERADIAN. ) SOLID_ANGLE_UNIT ( ) );
#103 =( GEOMETRIC_REPRESENTATION_CONTEXT ( 3 ) GLOBAL_UNCERTAINTY_ASSIGNED_CONTEXT ( ( #268 ) ) GLOBAL_UNIT_ASSIGNED_CONTEXT ( ( #162, #155, #102 ) ) REPRESENTATION_CONTEXT ( 'NONE', 'WORKASPACE' ) );
#104 = SURFACE_SIDE_STYLE ('',( #285 ) ) ;
#105 =( GEOMETRIC_REPRESENTATION_CONTEXT ( 3 ) GLOBAL_UNCERTAINTY_ASSIGNED_CONTEXT ( ( #142 ) ) GLOBAL_UNIT_ASSIGNED_CONTEXT ( ( #27, #31, #144 ) ) REPRESENTATION_CONTEXT ( 'NONE', 'WORKASPACE' ) );
#106 = FILL_AREA_STYLE ('',( #91 ) ) ;
#107 = AXIS2_PLACEMENT_3D ( 'NONE', #55, #240, #173 ) ;
#108 = ADVANCED_BREP_SHAPE_REPRESENTATION ( '03030', ( #161, #151, #9 ), #184 ) ;
#109 = EDGE_CURVE ( 'NONE', #153, #29, #128, .T. ) ;
#110 = PLANE ( 'NONE',  #263 ) ;
#111 = PRODUCT_DEFINITION ( 'UNKNOWN', '', #169, #139 ) ;
#112 =( NAMED_UNIT ( * ) SI_UNIT ( $, .STERADIAN. ) SOLID_ANGLE_UNIT ( ) );
#113 = DIRECTION ( 'NONE',  ( -3.768143997376475057E-17, 1.000000000000000000, -0.000000000000000000 ) ) ;
#114 = VERTEX_POINT ( 'NONE', #72 ) ;
#115 = LENGTH_MEASURE_WITH_UNIT ( LENGTH_MEASURE( 0.02539999999999999897 ), #170 );
#116 = AXIS2_PLACEMENT_3D ( 'NONE', #49, #249, #219 ) ;
#117 = ORIENTED_EDGE ( 'NONE', *, *, #109, .T. ) ;
#118 = PRESENTATION_STYLE_ASSIGNMENT (( #96 ) ) ;
#119 = ORIENTED_EDGE ( 'NONE', *, *, #42, .T. ) ;
#120 = DIMENSIONAL_EXPONENTS ( 1.000000000000000000, 0.000000000000000000, 0.000000000000000000, 0.000000000000000000, 0.000000000000000000, 0.000000000000000000, 0.000000000000000000 ) ;
#121 =( CONVERSION_BASED_UNIT ( 'INCH', #178 ) LENGTH_UNIT ( ) NAMED_UNIT ( #198 ) );
#122 = VECTOR ( 'NONE', #261, 39.37007874015748143 ) ;
#123 = FILL_AREA_STYLE_COLOUR ( '', #290 ) ;
#124 = EDGE_CURVE ( 'NONE', #244, #29, #298, .T. ) ;
#125 = FACE_OUTER_BOUND ( 'NONE', #39, .T. ) ;
#126 = DIRECTION ( 'NONE',  ( -0.000000000000000000, -1.000000000000000000, -0.000000000000000000 ) ) ;
#127 = SURFACE_STYLE_USAGE ( .BOTH. , #99 ) ;
#128 = LINE ( 'NONE', #279, #237 ) ;
#129 = DIMENSIONAL_EXPONENTS ( 1.000000000000000000, 0.000000000000000000, 0.000000000000000000, 0.000000000000000000, 0.000000000000000000, 0.000000000000000000, 0.000000000000000000 ) ;
#130 = FACE_OUTER_BOUND ( 'NONE', #239, .T. ) ;
#131 = CLOSED_SHELL ( 'NONE', ( #210, #220, #75, #172 ) ) ;
#132 = EDGE_CURVE ( 'NONE', #271, #153, #287, .T. ) ;
#133 = CARTESIAN_POINT ( 'NONE',  ( 0.000000000000000000, 0.000000000000000000, -0.06250000000000001388 ) ) ;
#134 = SURFACE_SIDE_STYLE ('',( #138 ) ) ;
#135 = DIRECTION ( 'NONE',  ( -0.000000000000000000, -1.000000000000000000, -0.000000000000000000 ) ) ;
#136 = AXIS2_PLACEMENT_3D ( 'NONE', #233, #185, #43 ) ;
#137 = CARTESIAN_POINT ( 'NONE',  ( 0.000000000000000000, 0.000000000000000000, 0.000000000000000000 ) ) ;
#138 = SURFACE_STYLE_FILL_AREA ( #85 ) ;
#139 = PRODUCT_DEFINITION_CONTEXT ( 'detailed design', #216, 'design' ) ;
#140 =( LENGTH_UNIT ( ) NAMED_UNIT ( * ) SI_UNIT ( $, .METRE. ) );
#141 = CARTESIAN_POINT ( 'NONE',  ( 0.000000000000000000, 0.3749999999999999445, 0.000000000000000000 ) ) ;
#142 = UNCERTAINTY_MEASURE_WITH_UNIT (LENGTH_MEASURE( 1.000000000000000082E-05 ), #27, 'distance_accuracy_value', 'NONE');
#143 = ADVANCED_FACE ( 'NONE', ( #69 ), #4, .T. ) ;
#144 =( NAMED_UNIT ( * ) SI_UNIT ( $, .STERADIAN. ) SOLID_ANGLE_UNIT ( ) );
#145 = CARTESIAN_POINT ( 'NONE',  ( -6.123233995736772199E-17, 2.000000000000000000, 0.000000000000000000 ) ) ;
#146 = CIRCLE ( 'NONE', #262, 0.06250000000000005551 ) ;
#147 = FILL_AREA_STYLE ('',( #74 ) ) ;
#148 = ORIENTED_EDGE ( 'NONE', *, *, #26, .F. ) ;
#149 =( GEOMETRIC_REPRESENTATION_CONTEXT ( 3 ) GLOBAL_UNCERTAINTY_ASSIGNED_CONTEXT ( ( #260 ) ) GLOBAL_UNIT_ASSIGNED_CONTEXT ( ( #168, #288, #112 ) ) REPRESENTATION_CONTEXT ( 'NONE', 'WORKASPACE' ) );
#150 = DIMENSIONAL_EXPONENTS ( 1.000000000000000000, 0.000000000000000000, 0.000000000000000000, 0.000000000000000000, 0.000000000000000000, 0.000000000000000000, 0.000000000000000000 ) ;
#151 = MANIFOLD_SOLID_BREP ( 'Revolve - Tool Body (Straight Shanked)', #131 ) ;
#152 =( CONVERSION_BASED_UNIT ( 'INCH', #115 ) LENGTH_UNIT ( ) NAMED_UNIT ( #150 ) );
#153 = VERTEX_POINT ( 'NONE', #166 ) ;
#154 =( LENGTH_UNIT ( ) NAMED_UNIT ( * ) SI_UNIT ( $, .METRE. ) );
#155 =( NAMED_UNIT ( * ) PLANE_ANGLE_UNIT ( ) SI_UNIT ( $, .RADIAN. ) );
#156 = PRESENTATION_LAYER_ASSIGNMENT (  '', '', ( #38 ) ) ;
#157 = PRESENTATION_STYLE_ASSIGNMENT (( #127 ) ) ;
#158 = DIRECTION ( 'NONE',  ( -0.000000000000000000, -1.000000000000000000, -0.000000000000000000 ) ) ;
#159 =( NAMED_UNIT ( * ) SI_UNIT ( $, .STERADIAN. ) SOLID_ANGLE_UNIT ( ) );
#160 = CARTESIAN_POINT ( 'NONE',  ( 0.06249999999999997224, 2.000000000000000000, 7.654042494670960626E-18 ) ) ;
#161 = MANIFOLD_SOLID_BREP ( 'Revolve - Cutting Edge', #227 ) ;
#162 =( CONVERSION_BASED_UNIT ( 'INCH', #211 ) LENGTH_UNIT ( ) NAMED_UNIT ( #129 ) );
#163 = AXIS2_PLACEMENT_3D ( 'NONE', #64, #66, #309 ) ;
#164 = SURFACE_SIDE_STYLE ('',( #235 ) ) ;
#165 = LENGTH_MEASURE_WITH_UNIT ( LENGTH_MEASURE( 0.02539999999999999897 ), #140 );
#166 = CARTESIAN_POINT ( 'NONE',  ( 0.000000000000000000, 0.3750000000000000555, -0.06250000000000000000 ) ) ;
#167 = PRESENTATION_LAYER_ASSIGNMENT (  '', '', ( #304 ) ) ;
#168 =( CONVERSION_BASED_UNIT ( 'INCH', #165 ) LENGTH_UNIT ( ) NAMED_UNIT ( #208 ) );
#169 = PRODUCT_DEFINITION_FORMATION_WITH_SPECIFIED_SOURCE ( 'ANY', '', #58, .NOT_KNOWN. ) ;
#170 =( LENGTH_UNIT ( ) NAMED_UNIT ( * ) SI_UNIT ( $, .METRE. ) );
#171 = EDGE_LOOP ( 'NONE', ( #28, #223 ) ) ;
#172 = ADVANCED_FACE ( 'NONE', ( #238 ), #110, .F. ) ;
#173 = DIRECTION ( 'NONE',  ( -1.000000000000000000, 0.000000000000000000, 0.000000000000000000 ) ) ;
#174 = EDGE_CURVE ( 'NONE', #50, #33, #303, .T. ) ;
#175 = PRESENTATION_LAYER_ASSIGNMENT (  '', '', ( #48 ) ) ;
#176 = MECHANICAL_DESIGN_GEOMETRIC_PRESENTATION_REPRESENTATION (  '', ( #38 ), #103 ) ;
#177 = STYLED_ITEM ( 'NONE', ( #45 ), #151 ) ;
#178 = LENGTH_MEASURE_WITH_UNIT ( LENGTH_MEASURE( 0.02539999999999999897 ), #180 );
#179 = CARTESIAN_POINT ( 'NONE',  ( -6.123233995736772199E-17, 2.000000000000000000, 0.000000000000000000 ) ) ;
#180 =( LENGTH_UNIT ( ) NAMED_UNIT ( * ) SI_UNIT ( $, .METRE. ) );
#181 = LINE ( 'NONE', #160, #67 ) ;
#182 = DIRECTION ( 'NONE',  ( 0.000000000000000000, 0.000000000000000000, -1.000000000000000000 ) ) ;
#183 = DIRECTION ( 'NONE',  ( 0.000000000000000000, 0.000000000000000000, -1.000000000000000000 ) ) ;
#184 =( GEOMETRIC_REPRESENTATION_CONTEXT ( 3 ) GLOBAL_UNCERTAINTY_ASSIGNED_CONTEXT ( ( #83 ) ) GLOBAL_UNIT_ASSIGNED_CONTEXT ( ( #121, #15, #199 ) ) REPRESENTATION_CONTEXT ( 'NONE', 'WORKASPACE' ) );
#185 = DIRECTION ( 'NONE',  ( -3.768143997376475057E-17, 1.000000000000000000, -0.000000000000000000 ) ) ;
#186 = CARTESIAN_POINT ( 'NONE',  ( 0.06250000000000000000, 2.000000000000000000, 0.000000000000000000 ) ) ;
#187 = COLOUR_RGB ( '',1.000000000000000000, 0.000000000000000000, 0.000000000000000000 ) ;
#188 = DIRECTION ( 'NONE',  ( -0.000000000000000000, -1.000000000000000000, -0.000000000000000000 ) ) ;
#189 = AXIS2_PLACEMENT_3D ( 'NONE', #80, #126, #182 ) ;
#190 = ADVANCED_FACE ( 'NONE', ( #274 ), #272, .T. ) ;
#191 =( LENGTH_UNIT ( ) NAMED_UNIT ( * ) SI_UNIT ( $, .METRE. ) );
#192 = ORIENTED_EDGE ( 'NONE', *, *, #174, .T. ) ;
#193 = COLOUR_RGB ( '',1.000000000000000000, 0.000000000000000000, 0.000000000000000000 ) ;
#194 = PRODUCT_DEFINITION_SHAPE ( 'NONE', 'NONE',  #111 ) ;
#195 = PRESENTATION_STYLE_ASSIGNMENT (( #71 ) ) ;
#196 =( NAMED_UNIT ( * ) PLANE_ANGLE_UNIT ( ) SI_UNIT ( $, .RADIAN. ) );
#197 = ORIENTED_EDGE ( 'NONE', *, *, #266, .T. ) ;
#198 = DIMENSIONAL_EXPONENTS ( 1.000000000000000000, 0.000000000000000000, 0.000000000000000000, 0.000000000000000000, 0.000000000000000000, 0.000000000000000000, 0.000000000000000000 ) ;
#199 =( NAMED_UNIT ( * ) SI_UNIT ( $, .STERADIAN. ) SOLID_ANGLE_UNIT ( ) );
#200 = ORIENTED_EDGE ( 'NONE', *, *, #78, .T. ) ;
#201 = FILL_AREA_STYLE ('',( #123 ) ) ;
#202 = DIRECTION ( 'NONE',  ( -1.000000000000000000, 0.000000000000000000, 0.000000000000000000 ) ) ;
#203 = UNCERTAINTY_MEASURE_WITH_UNIT (LENGTH_MEASURE( 1.000000000000000082E-05 ), #152, 'distance_accuracy_value', 'NONE');
#204 = CARTESIAN_POINT ( 'NONE',  ( 7.654042494670959086E-18, 0.3750000000000000555, 0.06250000000000000000 ) ) ;
#205 = CYLINDRICAL_SURFACE ( 'NONE', #253, 0.06250000000000001388 ) ;
#206 = LENGTH_MEASURE_WITH_UNIT ( LENGTH_MEASURE( 0.02539999999999999897 ), #154 );
#207 = ORIENTED_EDGE ( 'NONE', *, *, #124, .F. ) ;
#208 = DIMENSIONAL_EXPONENTS ( 1.000000000000000000, 0.000000000000000000, 0.000000000000000000, 0.000000000000000000, 0.000000000000000000, 0.000000000000000000, 0.000000000000000000 ) ;
#209 = UNCERTAINTY_MEASURE_WITH_UNIT (LENGTH_MEASURE( 1.000000000000000082E-05 ), #295, 'distance_accuracy_value', 'NONE');
#210 = ADVANCED_FACE ( 'NONE', ( #76 ), #54, .T. ) ;
#211 = LENGTH_MEASURE_WITH_UNIT ( LENGTH_MEASURE( 0.02539999999999999897 ), #20 );
#212 = DIRECTION ( 'NONE',  ( -0.000000000000000000, -1.000000000000000000, -0.000000000000000000 ) ) ;
#213 = CARTESIAN_POINT ( 'NONE',  ( 0.000000000000000000, 0.000000000000000000, 0.000000000000000000 ) ) ;
#214 = MECHANICAL_DESIGN_GEOMETRIC_PRESENTATION_REPRESENTATION (  '', ( #304 ), #231 ) ;
#215 = FILL_AREA_STYLE_COLOUR ( '', #308 ) ;
#216 = APPLICATION_CONTEXT ( 'automotive_design' ) ;
#217 = DIRECTION ( 'NONE',  ( -1.000000000000000000, 0.000000000000000000, 0.000000000000000000 ) ) ;
#218 = DIRECTION ( 'NONE',  ( -1.000000000000000000, 0.000000000000000000, 0.000000000000000000 ) ) ;
#219 = DIRECTION ( 'NONE',  ( 0.000000000000000000, 0.000000000000000000, -1.000000000000000000 ) ) ;
#220 = ADVANCED_FACE ( 'NONE', ( #92 ), #297, .F. ) ;
#221 = APPLICATION_CONTEXT ( 'automotive_design' ) ;
#222 = DIRECTION ( 'NONE',  ( -3.768143997376475057E-17, 1.000000000000000000, 0.000000000000000000 ) ) ;
#223 = ORIENTED_EDGE ( 'NONE', *, *, #132, .F. ) ;
#224 = AXIS2_PLACEMENT_3D ( 'NONE', #257, #40, #19 ) ;
#225 = ORIENTED_EDGE ( 'NONE', *, *, #88, .F. ) ;
#226 = EDGE_CURVE ( 'NONE', #114, #241, #34, .T. ) ;
#227 = CLOSED_SHELL ( 'NONE', ( #37, #286, #143, #190 ) ) ;
#228 = SURFACE_STYLE_USAGE ( .BOTH. , #104 ) ;
#229 = CARTESIAN_POINT ( 'NONE',  ( -0.06250000000000012490, 2.000000000000000000, 0.000000000000000000 ) ) ;
#230 = DIMENSIONAL_EXPONENTS ( 1.000000000000000000, 0.000000000000000000, 0.000000000000000000, 0.000000000000000000, 0.000000000000000000, 0.000000000000000000, 0.000000000000000000 ) ;
#231 =( GEOMETRIC_REPRESENTATION_CONTEXT ( 3 ) GLOBAL_UNCERTAINTY_ASSIGNED_CONTEXT ( ( #203 ) ) GLOBAL_UNIT_ASSIGNED_CONTEXT ( ( #152, #196, #270 ) ) REPRESENTATION_CONTEXT ( 'NONE', 'WORKASPACE' ) );
#232 = EDGE_LOOP ( 'NONE', ( #148, #299, #117, #207 ) ) ;
#233 = CARTESIAN_POINT ( 'NONE',  ( 0.000000000000000000, 0.3749999999999999445, 0.000000000000000000 ) ) ;
#234 = LENGTH_MEASURE_WITH_UNIT ( LENGTH_MEASURE( 0.02539999999999999897 ), #68 );
#235 = SURFACE_STYLE_FILL_AREA ( #106 ) ;
#236 =( NAMED_UNIT ( * ) SI_UNIT ( $, .STERADIAN. ) SOLID_ANGLE_UNIT ( ) );
#237 = VECTOR ( 'NONE', #158, 39.37007874015748143 ) ;
#238 = FACE_OUTER_BOUND ( 'NONE', #275, .T. ) ;
#239 = EDGE_LOOP ( 'NONE', ( #200, #51, #252, #14 ) ) ;
#240 = DIRECTION ( 'NONE',  ( -3.768143997376475057E-17, 1.000000000000000000, -0.000000000000000000 ) ) ;
#241 = VERTEX_POINT ( 'NONE', #93 ) ;
#242 = MECHANICAL_DESIGN_GEOMETRIC_PRESENTATION_REPRESENTATION (  '', ( #52 ), #105 ) ;
#243 = DIRECTION ( 'NONE',  ( -3.768143997376475057E-17, 1.000000000000000000, -0.000000000000000000 ) ) ;
#244 = VERTEX_POINT ( 'NONE', #60 ) ;
#245 = CIRCLE ( 'NONE', #163, 0.06250000000000000000 ) ;
#246 = ORIENTED_EDGE ( 'NONE', *, *, #44, .T. ) ;
#247 = APPLICATION_PROTOCOL_DEFINITION ( 'draft international standard', 'automotive_design', 1998, #216 ) ;
#248 = AXIS2_PLACEMENT_3D ( 'NONE', #145, #243, #217 ) ;
#249 = DIRECTION ( 'NONE',  ( 0.000000000000000000, -1.000000000000000000, -0.000000000000000000 ) ) ;
#250 = ORIENTED_EDGE ( 'NONE', *, *, #6, .F. ) ;
#251 = DIRECTION ( 'NONE',  ( -3.768143997376475057E-17, 1.000000000000000000, -0.000000000000000000 ) ) ;
#252 = ORIENTED_EDGE ( 'NONE', *, *, #44, .F. ) ;
#253 = AXIS2_PLACEMENT_3D ( 'NONE', #2, #212, #183 ) ;
#254 = PLANE ( 'NONE',  #224 ) ;
#255 = EDGE_LOOP ( 'NONE', ( #302, #250 ) ) ;
#256 = DIMENSIONAL_EXPONENTS ( 1.000000000000000000, 0.000000000000000000, 0.000000000000000000, 0.000000000000000000, 0.000000000000000000, 0.000000000000000000, 0.000000000000000000 ) ;
#257 = CARTESIAN_POINT ( 'NONE',  ( 0.000000000000000000, 0.3750000000000000555, 0.000000000000000000 ) ) ;
#258 = FILL_AREA_STYLE_COLOUR ( '', #280 ) ;
#259 = PRESENTATION_LAYER_ASSIGNMENT (  '', '', ( #52 ) ) ;
#260 = UNCERTAINTY_MEASURE_WITH_UNIT (LENGTH_MEASURE( 1.000000000000000082E-05 ), #168, 'distance_accuracy_value', 'NONE');
#261 = DIRECTION ( 'NONE',  ( -0.000000000000000000, -1.000000000000000000, -0.000000000000000000 ) ) ;
#262 = AXIS2_PLACEMENT_3D ( 'NONE', #179, #1, #277 ) ;
#263 = AXIS2_PLACEMENT_3D ( 'NONE', #186, #300, #77 ) ;
#264 = AXIS2_PLACEMENT_3D ( 'NONE', #17, #100, #202 ) ;
#265 = CARTESIAN_POINT ( 'NONE',  ( 0.000000000000000000, 0.3750000000000000555, 0.000000000000000000 ) ) ;
#266 = EDGE_CURVE ( 'NONE', #114, #33, #101, .T. ) ;
#267 =( GEOMETRIC_REPRESENTATION_CONTEXT ( 3 ) GLOBAL_UNCERTAINTY_ASSIGNED_CONTEXT ( ( #209 ) ) GLOBAL_UNIT_ASSIGNED_CONTEXT ( ( #295, #269, #236 ) ) REPRESENTATION_CONTEXT ( 'NONE', 'WORKASPACE' ) );
#268 = UNCERTAINTY_MEASURE_WITH_UNIT (LENGTH_MEASURE( 1.000000000000000082E-05 ), #162, 'distance_accuracy_value', 'NONE');
#269 =( NAMED_UNIT ( * ) PLANE_ANGLE_UNIT ( ) SI_UNIT ( $, .RADIAN. ) );
#270 =( NAMED_UNIT ( * ) SI_UNIT ( $, .STERADIAN. ) SOLID_ANGLE_UNIT ( ) );
#271 = VERTEX_POINT ( 'NONE', #204 ) ;
#272 = PLANE ( 'NONE',  #116 ) ;
#273 = PRODUCT_CONTEXT ( 'NONE', #221, 'mechanical' ) ;
#274 = FACE_OUTER_BOUND ( 'NONE', #97, .T. ) ;
#275 = EDGE_LOOP ( 'NONE', ( #119, #192 ) ) ;
#276 =( GEOMETRIC_REPRESENTATION_CONTEXT ( 3 ) GLOBAL_UNCERTAINTY_ASSIGNED_CONTEXT ( ( #25 ) ) GLOBAL_UNIT_ASSIGNED_CONTEXT ( ( #278, #281, #159 ) ) REPRESENTATION_CONTEXT ( 'NONE', 'WORKASPACE' ) );
#277 = DIRECTION ( 'NONE',  ( -1.000000000000000000, 0.000000000000000000, 0.000000000000000000 ) ) ;
#278 =( CONVERSION_BASED_UNIT ( 'INCH', #206 ) LENGTH_UNIT ( ) NAMED_UNIT ( #230 ) );
#279 = CARTESIAN_POINT ( 'NONE',  ( 0.000000000000000000, 0.000000000000000000, -0.06250000000000001388 ) ) ;
#280 = COLOUR_RGB ( '',1.000000000000000000, 0.000000000000000000, 0.000000000000000000 ) ;
#281 =( NAMED_UNIT ( * ) PLANE_ANGLE_UNIT ( ) SI_UNIT ( $, .RADIAN. ) );
#282 = CYLINDRICAL_SURFACE ( 'NONE', #264, 0.06250000000000002776 ) ;
#283 = MECHANICAL_DESIGN_GEOMETRIC_PRESENTATION_REPRESENTATION (  '', ( #48 ), #276 ) ;
#284 = PRESENTATION_STYLE_ASSIGNMENT (( #228 ) ) ;
#285 = SURFACE_STYLE_FILL_AREA ( #18 ) ;
#286 = ADVANCED_FACE ( 'NONE', ( #16 ), #254, .T. ) ;
#287 = CIRCLE ( 'NONE', #98, 0.06250000000000000000 ) ;
#288 =( NAMED_UNIT ( * ) PLANE_ANGLE_UNIT ( ) SI_UNIT ( $, .RADIAN. ) );
#289 = PRESENTATION_STYLE_ASSIGNMENT (( #87 ) ) ;
#290 = COLOUR_RGB ( '',1.000000000000000000, 0.000000000000000000, 0.000000000000000000 ) ;
#291 = DIRECTION ( 'NONE',  ( 0.000000000000000000, 0.000000000000000000, -1.000000000000000000 ) ) ;
#292 = CIRCLE ( 'NONE', #136, 0.06250000000000000000 ) ;
#293 = SURFACE_SIDE_STYLE ('',( #89 ) ) ;
#294 = AXIS2_PLACEMENT_3D ( 'NONE', #213, #188, #24 ) ;
#295 =( CONVERSION_BASED_UNIT ( 'INCH', #234 ) LENGTH_UNIT ( ) NAMED_UNIT ( #120 ) );
#296 = CARTESIAN_POINT ( 'NONE',  ( 4.437159120301362840E-35, 0.3750000000000000555, 0.000000000000000000 ) ) ;
#297 = PLANE ( 'NONE',  #70 ) ;
#298 = CIRCLE ( 'NONE', #22, 0.06250000000000001388 ) ;
#299 = ORIENTED_EDGE ( 'NONE', *, *, #132, .T. ) ;
#300 = DIRECTION ( 'NONE',  ( 3.768143997376475057E-17, -1.000000000000000000, 0.000000000000000000 ) ) ;
#301 = ORIENTED_EDGE ( 'NONE', *, *, #174, .F. ) ;
#302 = ORIENTED_EDGE ( 'NONE', *, *, #226, .F. ) ;
#303 = CIRCLE ( 'NONE', #107, 0.06250000000000005551 ) ;
#304 = STYLED_ITEM ( 'NONE', ( #118 ), #190 ) ;
#305 = APPLICATION_PROTOCOL_DEFINITION ( 'draft international standard', 'automotive_design', 1998, #221 ) ;
#306 = SURFACE_STYLE_FILL_AREA ( #201 ) ;
#307 = ORIENTED_EDGE ( 'NONE', *, *, #88, .T. ) ;
#308 = COLOUR_RGB ( '',0.7921568627450980005, 0.8196078431372548767, 0.9333333333333333481 ) ;
#309 = DIRECTION ( 'NONE',  ( 0.000000000000000000, 0.000000000000000000, -1.000000000000000000 ) ) ;
ENDSEC;
END-ISO-10303-21;
