ISO-10303-21;
HEADER;
FILE_DESCRIPTION (( 'STEP AP214' ),
    '1' );
FILE_NAME ('Micro_GEC-750-2-020.STEP',
    '2021-09-03T17:28:32',
    ( '' ),
    ( '' ),
    'SwSTEP 2.0',
    'SolidWorks 2020',
    '' );
FILE_SCHEMA (( 'AUTOMOTIVE_DESIGN' ));
ENDSEC;

DATA;
#1 = CARTESIAN_POINT ( 'NONE',  ( 2.449293598294706769E-18, 0.0000000000000000000, 0.0000000000000000000 ) ) ;
#2 = VECTOR ( 'NONE', #185, 39.37007874015748143 ) ;
#3 = AXIS2_PLACEMENT_3D ( 'NONE', #31, #172, #60 ) ;
#4 = EDGE_CURVE ( 'NONE', #167, #160, #293, .T. ) ;
#5 = SURFACE_STYLE_FILL_AREA ( #25 ) ;
#6 =( NAMED_UNIT ( * ) PLANE_ANGLE_UNIT ( ) SI_UNIT ( $, .RADIAN. ) );
#7 = AXIS2_PLACEMENT_3D ( 'NONE', #253, #158, #215 ) ;
#8 = SURFACE_STYLE_USAGE ( .BOTH. , #333 ) ;
#9 = DIRECTION ( 'NONE',  ( 0.0000000000000000000, 0.0000000000000000000, -1.000000000000000000 ) ) ;
#10 = FACE_OUTER_BOUND ( 'NONE', #162, .T. ) ;
#11 = CARTESIAN_POINT ( 'NONE',  ( 0.3746249999999999858, 4.587833071305771192E-17, 0.02000000000000000389 ) ) ;
#12 = LINE ( 'NONE', #91, #331 ) ;
#13 = EDGE_CURVE ( 'NONE', #160, #167, #92, .T. ) ;
#14 = CIRCLE ( 'NONE', #256, 0.3750000000000000555 ) ;
#15 =( LENGTH_UNIT ( ) NAMED_UNIT ( * ) SI_UNIT ( $, .METRE. ) );
#16 = CARTESIAN_POINT ( 'NONE',  ( -0.3599999999999994316, 0.0000000000000000000, 4.000000000000000000 ) ) ;
#17 = DIRECTION ( 'NONE',  ( 1.000000000000000000, 0.0000000000000000000, 0.0000000000000000000 ) ) ;
#18 = CONICAL_SURFACE ( 'NONE', #313, 0.3746249999999998748, 0.1745329251994339470 ) ;
#19 = CYLINDRICAL_SURFACE ( 'NONE', #339, 0.3750000000000000555 ) ;
#20 = DIRECTION ( 'NONE',  ( -1.224646799147353207E-16, -0.0000000000000000000, -1.000000000000000000 ) ) ;
#21 = ORIENTED_EDGE ( 'NONE', *, *, #126, .T. ) ;
#22 = CARTESIAN_POINT ( 'NONE',  ( 1.836970198721030181E-16, 0.0000000000000000000, 1.500000000000000222 ) ) ;
#23 = ORIENTED_EDGE ( 'NONE', *, *, #173, .T. ) ;
#24 = EDGE_CURVE ( 'NONE', #80, #140, #192, .T. ) ;
#25 = FILL_AREA_STYLE ('',( #193 ) ) ;
#26 = CARTESIAN_POINT ( 'NONE',  ( -0.3599999999999994316, 0.0000000000000000000, 4.000000000000000000 ) ) ;
#27 = ORIENTED_EDGE ( 'NONE', *, *, #262, .T. ) ;
#28 = VECTOR ( 'NONE', #20, 39.37007874015748143 ) ;
#29 = PRESENTATION_LAYER_ASSIGNMENT (  '', '', ( #76 ) ) ;
#30 = EDGE_CURVE ( 'NONE', #52, #80, #32, .T. ) ;
#31 = CARTESIAN_POINT ( 'NONE',  ( 0.0000000000000000000, 0.0000000000000000000, 3.984999999999998987 ) ) ;
#32 = CIRCLE ( 'NONE', #200, 0.3750000000000000555 ) ;
#33 = EDGE_CURVE ( 'NONE', #52, #223, #214, .T. ) ;
#34 = FACE_OUTER_BOUND ( 'NONE', #45, .T. ) ;
#35 = CARTESIAN_POINT ( 'NONE',  ( 1.839574692643827660E-16, 0.0000000000000000000, 1.502126730682357358 ) ) ;
#36 =( CONVERSION_BASED_UNIT ( 'INCH', #146 ) LENGTH_UNIT ( ) NAMED_UNIT ( #149 ) );
#37 = DIRECTION ( 'NONE',  ( 0.1736481776669314414, 0.0000000000000000000, 0.9848077530122077983 ) ) ;
#38 = EDGE_CURVE ( 'NONE', #107, #230, #100, .T. ) ;
#39 = FACE_OUTER_BOUND ( 'NONE', #317, .T. ) ;
#40 = DIMENSIONAL_EXPONENTS ( 1.000000000000000000, 0.0000000000000000000, 0.0000000000000000000, 0.0000000000000000000, 0.0000000000000000000, 0.0000000000000000000, 0.0000000000000000000 ) ;
#41 = DIRECTION ( 'NONE',  ( 0.0000000000000000000, 0.0000000000000000000, 1.000000000000000000 ) ) ;
#42 = ORIENTED_EDGE ( 'NONE', *, *, #262, .F. ) ;
#43 =( NAMED_UNIT ( * ) SI_UNIT ( $, .STERADIAN. ) SOLID_ANGLE_UNIT ( ) );
#44 = PRODUCT_DEFINITION_SHAPE ( 'NONE', 'NONE',  #82 ) ;
#45 = EDGE_LOOP ( 'NONE', ( #81, #178, #134, #330 ) ) ;
#46 = CARTESIAN_POINT ( 'NONE',  ( 1.836970198721030181E-16, 0.0000000000000000000, 1.500000000000000222 ) ) ;
#47 = ORIENTED_EDGE ( 'NONE', *, *, #106, .F. ) ;
#48 = DIRECTION ( 'NONE',  ( -1.224646799147353207E-16, -0.0000000000000000000, -1.000000000000000000 ) ) ;
#49 = ORIENTED_EDGE ( 'NONE', *, *, #78, .F. ) ;
#50 = SURFACE_STYLE_FILL_AREA ( #300 ) ;
#51 = ORIENTED_EDGE ( 'NONE', *, *, #33, .F. ) ;
#52 = VERTEX_POINT ( 'NONE', #73 ) ;
#53 = TOROIDAL_SURFACE ( 'NONE', #205, 0.3546249999999999680, 0.02000000000000000042 ) ;
#54 = PRESENTATION_LAYER_ASSIGNMENT (  '', '', ( #219 ) ) ;
#55 = FILL_AREA_STYLE_COLOUR ( '', #332 ) ;
#56 = EDGE_CURVE ( 'NONE', #295, #349, #276, .T. ) ;
#57 = CARTESIAN_POINT ( 'NONE',  ( 0.0000000000000000000, 0.0000000000000000000, 0.0000000000000000000 ) ) ;
#58 = AXIS2_PLACEMENT_3D ( 'NONE', #209, #48, #89 ) ;
#59 = CIRCLE ( 'NONE', #3, 0.3750000000000000555 ) ;
#60 = DIRECTION ( 'NONE',  ( 1.000000000000000000, 0.0000000000000000000, 0.0000000000000000000 ) ) ;
#61 = DIRECTION ( 'NONE',  ( 1.224646799147353207E-16, 1.000000000000000000, -0.0000000000000000000 ) ) ;
#62 = CARTESIAN_POINT ( 'NONE',  ( 0.3746250000000000968, 0.0000000000000000000, 1.500000000000000222 ) ) ;
#63 = AXIS2_PLACEMENT_3D ( 'NONE', #46, #265, #17 ) ;
#64 = ORIENTED_EDGE ( 'NONE', *, *, #275, .T. ) ;
#65 = ORIENTED_EDGE ( 'NONE', *, *, #289, .F. ) ;
#66 = PRESENTATION_STYLE_ASSIGNMENT (( #8 ) ) ;
#67 = DIRECTION ( 'NONE',  ( -0.0000000000000000000, -0.0000000000000000000, -1.000000000000000000 ) ) ;
#68 = CARTESIAN_POINT ( 'NONE',  ( -0.3746249999999997082, 4.587833071305770576E-17, 1.500000000000000222 ) ) ;
#69 = VECTOR ( 'NONE', #264, 39.37007874015748143 ) ;
#70 = CONICAL_SURFACE ( 'NONE', #118, 0.3599999999999994316, 0.7853981633974415066 ) ;
#71 = FACE_OUTER_BOUND ( 'NONE', #204, .T. ) ;
#72 = FACE_OUTER_BOUND ( 'NONE', #224, .T. ) ;
#73 = CARTESIAN_POINT ( 'NONE',  ( 0.3750000000000000555, 4.592425496802575451E-17, 3.984999999999998987 ) ) ;
#74 = CARTESIAN_POINT ( 'NONE',  ( 1.839574692643827660E-16, 0.0000000000000000000, 1.502126730682357358 ) ) ;
#75 = ORIENTED_EDGE ( 'NONE', *, *, #102, .F. ) ;
#76 = STYLED_ITEM ( 'NONE', ( #66 ), #271 ) ;
#77 = PRODUCT_CONTEXT ( 'NONE', #258, 'mechanical' ) ;
#78 = EDGE_CURVE ( 'NONE', #349, #230, #12, .T. ) ;
#79 =( NAMED_UNIT ( * ) PLANE_ANGLE_UNIT ( ) SI_UNIT ( $, .RADIAN. ) );
#80 = VERTEX_POINT ( 'NONE', #248 ) ;
#81 = ORIENTED_EDGE ( 'NONE', *, *, #341, .T. ) ;
#82 = PRODUCT_DEFINITION ( 'UNKNOWN', '', #206, #321 ) ;
#83 = ORIENTED_EDGE ( 'NONE', *, *, #30, .F. ) ;
#84 = LENGTH_MEASURE_WITH_UNIT ( LENGTH_MEASURE( 0.02539999999999999897 ), #113 );
#85 = ORIENTED_EDGE ( 'NONE', *, *, #126, .F. ) ;
#86 = DIRECTION ( 'NONE',  ( -1.224646799147353207E-16, -0.0000000000000000000, -1.000000000000000000 ) ) ;
#87 = CIRCLE ( 'NONE', #270, 0.02000000000000000042 ) ;
#88 = CARTESIAN_POINT ( 'NONE',  ( 2.449293598294707154E-18, 0.0000000000000000000, 0.02000000000000000389 ) ) ;
#89 = DIRECTION ( 'NONE',  ( -1.000000000000000000, 0.0000000000000000000, 0.0000000000000000000 ) ) ;
#90 = ADVANCED_FACE ( 'NONE', ( #39 ), #19, .T. ) ;
#91 = CARTESIAN_POINT ( 'NONE',  ( -0.3746249999999999858, 0.0000000000000000000, 4.587833071305771192E-17 ) ) ;
#92 = CIRCLE ( 'NONE', #318, 0.3599999999999994316 ) ;
#93 = CLOSED_SHELL ( 'NONE', ( #307, #143, #98, #142, #351, #90, #191, #231, #197, #311, #207, #177 ) ) ;
#94 = DIRECTION ( 'NONE',  ( -1.224646799147353207E-16, -0.0000000000000000000, -1.000000000000000000 ) ) ;
#95 = VECTOR ( 'NONE', #37, 39.37007874015748143 ) ;
#96 = CIRCLE ( 'NONE', #237, 0.3750000000000000555 ) ;
#97 = DIRECTION ( 'NONE',  ( 0.0000000000000000000, 0.0000000000000000000, 1.000000000000000000 ) ) ;
#98 = ADVANCED_FACE ( 'NONE', ( #294 ), #18, .T. ) ;
#99 = CARTESIAN_POINT ( 'NONE',  ( 2.449293598294706769E-18, 0.0000000000000000000, 0.02000000000000000042 ) ) ;
#100 = CIRCLE ( 'NONE', #111, 0.01999999999999999001 ) ;
#101 = FACE_OUTER_BOUND ( 'NONE', #259, .T. ) ;
#102 = EDGE_CURVE ( 'NONE', #230, #303, #174, .T. ) ;
#103 = DIRECTION ( 'NONE',  ( 1.000000000000000000, 0.0000000000000000000, 0.0000000000000000000 ) ) ;
#104 = DIRECTION ( 'NONE',  ( 0.0000000000000000000, -1.000000000000000000, 0.0000000000000000000 ) ) ;
#105 = ORIENTED_EDGE ( 'NONE', *, *, #129, .F. ) ;
#106 = EDGE_CURVE ( 'NONE', #160, #52, #243, .T. ) ;
#107 = VERTEX_POINT ( 'NONE', #348 ) ;
#108 = CARTESIAN_POINT ( 'NONE',  ( 0.0000000000000000000, 0.0000000000000000000, 4.000000000000000000 ) ) ;
#109 = ORIENTED_EDGE ( 'NONE', *, *, #38, .F. ) ;
#110 = ORIENTED_EDGE ( 'NONE', *, *, #78, .T. ) ;
#111 = AXIS2_PLACEMENT_3D ( 'NONE', #267, #61, #337 ) ;
#112 = CARTESIAN_POINT ( 'NONE',  ( 0.0000000000000000000, 0.0000000000000000000, 4.000000000000000000 ) ) ;
#113 =( LENGTH_UNIT ( ) NAMED_UNIT ( * ) SI_UNIT ( $, .METRE. ) );
#114 = CYLINDRICAL_SURFACE ( 'NONE', #132, 0.3746249999999999858 ) ;
#115 =( NAMED_UNIT ( * ) SI_UNIT ( $, .STERADIAN. ) SOLID_ANGLE_UNIT ( ) );
#116 = ORIENTED_EDGE ( 'NONE', *, *, #4, .T. ) ;
#117 = AXIS2_PLACEMENT_3D ( 'NONE', #182, #151, #261 ) ;
#118 = AXIS2_PLACEMENT_3D ( 'NONE', #292, #196, #164 ) ;
#119 = DIRECTION ( 'NONE',  ( -1.224646799147353207E-16, -0.0000000000000000000, -1.000000000000000000 ) ) ;
#120 = DIRECTION ( 'NONE',  ( 1.000000000000000000, 0.0000000000000000000, 0.0000000000000000000 ) ) ;
#121 = CYLINDRICAL_SURFACE ( 'NONE', #284, 0.3746249999999999858 ) ;
#122 = LENGTH_MEASURE_WITH_UNIT ( LENGTH_MEASURE( 0.02539999999999999897 ), #138 );
#123 = EDGE_CURVE ( 'NONE', #140, #223, #14, .T. ) ;
#124 = DIRECTION ( 'NONE',  ( -1.000000000000000000, 0.0000000000000000000, 0.0000000000000000000 ) ) ;
#125 =( GEOMETRIC_REPRESENTATION_CONTEXT ( 3 ) GLOBAL_UNCERTAINTY_ASSIGNED_CONTEXT ( ( #145 ) ) GLOBAL_UNIT_ASSIGNED_CONTEXT ( ( #305, #218, #43 ) ) REPRESENTATION_CONTEXT ( 'NONE', 'WORKASPACE' ) );
#126 = EDGE_CURVE ( 'NONE', #349, #295, #279, .T. ) ;
#127 = CARTESIAN_POINT ( 'NONE',  ( 0.0000000000000000000, 0.0000000000000000000, 4.000000000000000000 ) ) ;
#128 = CARTESIAN_POINT ( 'NONE',  ( 0.0000000000000000000, 0.0000000000000000000, 0.0000000000000000000 ) ) ;
#129 = EDGE_CURVE ( 'NONE', #295, #223, #240, .T. ) ;
#130 = PRODUCT ( 'Micro_GEC-750-2-020', 'Micro_GEC-750-2-020', '', ( #77 ) ) ;
#131 = VECTOR ( 'NONE', #291, 39.37007874015748143 ) ;
#132 = AXIS2_PLACEMENT_3D ( 'NONE', #57, #86, #141 ) ;
#133 = CARTESIAN_POINT ( 'NONE',  ( 0.3599999999999994316, 4.408728476930464865E-17, 4.000000000000000000 ) ) ;
#134 = ORIENTED_EDGE ( 'NONE', *, *, #123, .F. ) ;
#135 = DIRECTION ( 'NONE',  ( 1.000000000000000000, 0.0000000000000000000, 0.0000000000000000000 ) ) ;
#136 = ORIENTED_EDGE ( 'NONE', *, *, #202, .T. ) ;
#137 = ORIENTED_EDGE ( 'NONE', *, *, #38, .T. ) ;
#138 =( LENGTH_UNIT ( ) NAMED_UNIT ( * ) SI_UNIT ( $, .METRE. ) );
#139 = ORIENTED_EDGE ( 'NONE', *, *, #102, .T. ) ;
#140 = VERTEX_POINT ( 'NONE', #336 ) ;
#141 = DIRECTION ( 'NONE',  ( -1.000000000000000000, 0.0000000000000000000, 1.224646799147352961E-16 ) ) ;
#142 = ADVANCED_FACE ( 'NONE', ( #210 ), #194, .T. ) ;
#143 = ADVANCED_FACE ( 'NONE', ( #10 ), #121, .T. ) ;
#144 = CARTESIAN_POINT ( 'NONE',  ( 2.449293598294706769E-18, 0.0000000000000000000, 0.02000000000000000042 ) ) ;
#145 = UNCERTAINTY_MEASURE_WITH_UNIT (LENGTH_MEASURE( 1.000000000000000082E-05 ), #305, 'distance_accuracy_value', 'NONE');
#146 = LENGTH_MEASURE_WITH_UNIT ( LENGTH_MEASURE( 0.02539999999999999897 ), #15 );
#147 = ORIENTED_EDGE ( 'NONE', *, *, #56, .F. ) ;
#148 = AXIS2_PLACEMENT_3D ( 'NONE', #127, #266, #157 ) ;
#149 = DIMENSIONAL_EXPONENTS ( 1.000000000000000000, 0.0000000000000000000, 0.0000000000000000000, 0.0000000000000000000, 0.0000000000000000000, 0.0000000000000000000, 0.0000000000000000000 ) ;
#150 = UNCERTAINTY_MEASURE_WITH_UNIT (LENGTH_MEASURE( 1.000000000000000082E-05 ), #36, 'distance_accuracy_value', 'NONE');
#151 = DIRECTION ( 'NONE',  ( 0.0000000000000000000, 0.0000000000000000000, -1.000000000000000000 ) ) ;
#152 = DIRECTION ( 'NONE',  ( 1.000000000000000000, 0.0000000000000000000, 0.0000000000000000000 ) ) ;
#153 = DIRECTION ( 'NONE',  ( -1.000000000000000000, 0.0000000000000000000, 0.0000000000000000000 ) ) ;
#154 = CARTESIAN_POINT ( 'NONE',  ( 0.0000000000000000000, 0.0000000000000000000, 0.0000000000000000000 ) ) ;
#155 = CARTESIAN_POINT ( 'NONE',  ( 0.3750000000000000555, 4.592425496802575451E-17, 4.000000000000000000 ) ) ;
#156 = AXIS2_PLACEMENT_3D ( 'NONE', #112, #233, #329 ) ;
#157 = DIRECTION ( 'NONE',  ( 1.000000000000000000, 0.0000000000000000000, -0.0000000000000000000 ) ) ;
#158 = DIRECTION ( 'NONE',  ( -0.0000000000000000000, -0.0000000000000000000, -1.000000000000000000 ) ) ;
#159 = UNCERTAINTY_MEASURE_WITH_UNIT (LENGTH_MEASURE( 1.000000000000000082E-05 ), #203, 'distance_accuracy_value', 'NONE');
#160 = VERTEX_POINT ( 'NONE', #273 ) ;
#161 = CARTESIAN_POINT ( 'NONE',  ( 0.3746249999999999858, 4.587833071305771192E-17, -4.587833071305771192E-17 ) ) ;
#162 = EDGE_LOOP ( 'NONE', ( #21, #198, #268, #49 ) ) ;
#163 = CARTESIAN_POINT ( 'NONE',  ( 0.0000000000000000000, 0.0000000000000000000, 3.984999999999998987 ) ) ;
#164 = DIRECTION ( 'NONE',  ( -1.000000000000000000, 0.0000000000000000000, 0.0000000000000000000 ) ) ;
#165 = EDGE_LOOP ( 'NONE', ( #85, #23, #169, #105 ) ) ;
#166 = VECTOR ( 'NONE', #335, 39.37007874015748143 ) ;
#167 = VERTEX_POINT ( 'NONE', #26 ) ;
#168 = APPLICATION_PROTOCOL_DEFINITION ( 'draft international standard', 'automotive_design', 1998, #234 ) ;
#169 = ORIENTED_EDGE ( 'NONE', *, *, #123, .T. ) ;
#170 = EDGE_CURVE ( 'NONE', #107, #302, #304, .T. ) ;
#171 = DIRECTION ( 'NONE',  ( 0.0000000000000000000, 0.0000000000000000000, 1.000000000000000000 ) ) ;
#172 = DIRECTION ( 'NONE',  ( 0.0000000000000000000, 0.0000000000000000000, -1.000000000000000000 ) ) ;
#173 = EDGE_CURVE ( 'NONE', #349, #140, #290, .T. ) ;
#174 = CIRCLE ( 'NONE', #247, 0.3746249999999999858 ) ;
#175 = AXIS2_PLACEMENT_3D ( 'NONE', #144, #171, #280 ) ;
#176 = ORIENTED_EDGE ( 'NONE', *, *, #56, .T. ) ;
#177 = ADVANCED_FACE ( 'NONE', ( #217 ), #53, .T. ) ;
#178 = ORIENTED_EDGE ( 'NONE', *, *, #33, .T. ) ;
#179 = CARTESIAN_POINT ( 'NONE',  ( 1.836970198721030181E-16, 0.0000000000000000000, 1.500000000000000222 ) ) ;
#180 = DIRECTION ( 'NONE',  ( -1.224646799147353207E-16, -0.0000000000000000000, -1.000000000000000000 ) ) ;
#181 = VECTOR ( 'NONE', #312, 39.37007874015748143 ) ;
#182 = CARTESIAN_POINT ( 'NONE',  ( 0.0000000000000000000, 0.0000000000000000000, 4.000000000000000000 ) ) ;
#183 = AXIS2_PLACEMENT_3D ( 'NONE', #1, #239, #236 ) ;
#184 = ORIENTED_EDGE ( 'NONE', *, *, #250, .F. ) ;
#185 = DIRECTION ( 'NONE',  ( -0.0000000000000000000, -0.0000000000000000000, -1.000000000000000000 ) ) ;
#186 = ORIENTED_EDGE ( 'NONE', *, *, #4, .F. ) ;
#187 = PLANE ( 'NONE',  #148 ) ;
#188 = COLOUR_RGB ( '',0.7921568627450980005, 0.8196078431372548767, 0.9333333333333333481 ) ;
#189 = PLANE ( 'NONE',  #269 ) ;
#190 = CARTESIAN_POINT ( 'NONE',  ( -0.3746249999999999858, 0.0000000000000000000, 0.02000000000000000389 ) ) ;
#191 = ADVANCED_FACE ( 'NONE', ( #101 ), #187, .T. ) ;
#192 = LINE ( 'NONE', #272, #69 ) ;
#193 = FILL_AREA_STYLE_COLOUR ( '', #188 ) ;
#194 = CONICAL_SURFACE ( 'NONE', #117, 0.3599999999999994316, 0.7853981633974415066 ) ;
#195 = MECHANICAL_DESIGN_GEOMETRIC_PRESENTATION_REPRESENTATION (  '', ( #219 ), #125 ) ;
#196 = DIRECTION ( 'NONE',  ( 0.0000000000000000000, 0.0000000000000000000, -1.000000000000000000 ) ) ;
#197 = ADVANCED_FACE ( 'NONE', ( #343 ), #232, .T. ) ;
#198 = ORIENTED_EDGE ( 'NONE', *, *, #250, .T. ) ;
#199 = PRESENTATION_STYLE_ASSIGNMENT (( #325 ) ) ;
#200 = AXIS2_PLACEMENT_3D ( 'NONE', #163, #9, #286 ) ;
#201 = ORIENTED_EDGE ( 'NONE', *, *, #314, .T. ) ;
#202 = EDGE_CURVE ( 'NONE', #167, #80, #245, .T. ) ;
#203 =( CONVERSION_BASED_UNIT ( 'INCH', #84 ) LENGTH_UNIT ( ) NAMED_UNIT ( #287 ) );
#204 = EDGE_LOOP ( 'NONE', ( #201, #260 ) ) ;
#205 = AXIS2_PLACEMENT_3D ( 'NONE', #99, #41, #344 ) ;
#206 = PRODUCT_DEFINITION_FORMATION_WITH_SPECIFIED_SOURCE ( 'ANY', '', #130, .NOT_KNOWN. ) ;
#207 = ADVANCED_FACE ( 'NONE', ( #71 ), #189, .F. ) ;
#208 = CARTESIAN_POINT ( 'NONE',  ( 0.3746250000000000968, 0.0000000000000000000, 1.500000000000000222 ) ) ;
#209 = CARTESIAN_POINT ( 'NONE',  ( 1.836970198721030181E-16, 0.0000000000000000000, 1.500000000000000222 ) ) ;
#210 = FACE_OUTER_BOUND ( 'NONE', #281, .T. ) ;
#211 = AXIS2_PLACEMENT_3D ( 'NONE', #179, #119, #153 ) ;
#212 = DIRECTION ( 'NONE',  ( -1.000000000000000000, 0.0000000000000000000, 1.224646799147352961E-16 ) ) ;
#213 =( GEOMETRIC_REPRESENTATION_CONTEXT ( 3 ) GLOBAL_UNCERTAINTY_ASSIGNED_CONTEXT ( ( #150 ) ) GLOBAL_UNIT_ASSIGNED_CONTEXT ( ( #36, #6, #115 ) ) REPRESENTATION_CONTEXT ( 'NONE', 'WORKASPACE' ) );
#214 = LINE ( 'NONE', #155, #2 ) ;
#215 = DIRECTION ( 'NONE',  ( 1.000000000000000000, 0.0000000000000000000, 0.0000000000000000000 ) ) ;
#216 = AXIS2_PLACEMENT_3D ( 'NONE', #108, #225, #323 ) ;
#217 = FACE_OUTER_BOUND ( 'NONE', #350, .T. ) ;
#218 =( NAMED_UNIT ( * ) PLANE_ANGLE_UNIT ( ) SI_UNIT ( $, .RADIAN. ) );
#219 = STYLED_ITEM ( 'NONE', ( #199 ), #255 ) ;
#220 = LINE ( 'NONE', #161, #28 ) ;
#221 = CARTESIAN_POINT ( 'NONE',  ( 0.0000000000000000000, 0.0000000000000000000, 4.000000000000000000 ) ) ;
#222 = DIRECTION ( 'NONE',  ( 0.0000000000000000000, 0.0000000000000000000, -1.000000000000000000 ) ) ;
#223 = VERTEX_POINT ( 'NONE', #315 ) ;
#224 = EDGE_LOOP ( 'NONE', ( #47, #186, #136, #83 ) ) ;
#225 = DIRECTION ( 'NONE',  ( 0.0000000000000000000, 0.0000000000000000000, 1.000000000000000000 ) ) ;
#226 = MECHANICAL_DESIGN_GEOMETRIC_PRESENTATION_REPRESENTATION (  '', ( #76 ), #213 ) ;
#227 = ORIENTED_EDGE ( 'NONE', *, *, #170, .F. ) ;
#228 = SURFACE_SIDE_STYLE ('',( #50 ) ) ;
#229 = ORIENTED_EDGE ( 'NONE', *, *, #13, .F. ) ;
#230 = VERTEX_POINT ( 'NONE', #190 ) ;
#231 = ADVANCED_FACE ( 'NONE', ( #72 ), #70, .T. ) ;
#232 = CONICAL_SURFACE ( 'NONE', #63, 0.3746249999999998748, 0.1745329251994339470 ) ;
#233 = DIRECTION ( 'NONE',  ( -0.0000000000000000000, -0.0000000000000000000, -1.000000000000000000 ) ) ;
#234 = APPLICATION_CONTEXT ( 'automotive_design' ) ;
#235 = PRODUCT_RELATED_PRODUCT_CATEGORY ( 'part', '', ( #130 ) ) ;
#236 = DIRECTION ( 'NONE',  ( 1.000000000000000000, 0.0000000000000000000, 0.0000000000000000000 ) ) ;
#237 = AXIS2_PLACEMENT_3D ( 'NONE', #74, #180, #120 ) ;
#238 = CIRCLE ( 'NONE', #277, 0.3746249999999999858 ) ;
#239 = DIRECTION ( 'NONE',  ( -0.0000000000000000000, -0.0000000000000000000, -1.000000000000000000 ) ) ;
#240 = LINE ( 'NONE', #62, #95 ) ;
#241 = CARTESIAN_POINT ( 'NONE',  ( 0.3546249999999999680, 0.0000000000000000000, 0.0000000000000000000 ) ) ;
#242 = DIRECTION ( 'NONE',  ( -1.224646799147353207E-16, -0.0000000000000000000, -1.000000000000000000 ) ) ;
#243 = LINE ( 'NONE', #133, #166 ) ;
#244 = ORIENTED_EDGE ( 'NONE', *, *, #314, .F. ) ;
#245 = LINE ( 'NONE', #16, #181 ) ;
#246 = DIRECTION ( 'NONE',  ( 0.0000000000000000000, 0.0000000000000000000, 1.000000000000000000 ) ) ;
#247 = AXIS2_PLACEMENT_3D ( 'NONE', #310, #285, #135 ) ;
#248 = CARTESIAN_POINT ( 'NONE',  ( -0.3750000000000000555, 0.0000000000000000000, 3.984999999999998987 ) ) ;
#249 = ORIENTED_EDGE ( 'NONE', *, *, #341, .F. ) ;
#250 = EDGE_CURVE ( 'NONE', #295, #303, #220, .T. ) ;
#251 = TOROIDAL_SURFACE ( 'NONE', #175, 0.3546249999999999680, 0.02000000000000000042 ) ;
#252 = ORIENTED_EDGE ( 'NONE', *, *, #106, .T. ) ;
#253 = CARTESIAN_POINT ( 'NONE',  ( 2.449293598294706769E-18, 0.0000000000000000000, 0.0000000000000000000 ) ) ;
#254 = APPLICATION_PROTOCOL_DEFINITION ( 'draft international standard', 'automotive_design', 1998, #258 ) ;
#255 = ADVANCED_BREP_SHAPE_REPRESENTATION ( 'Micro_GEC-750-2-020', ( #271, #322 ), #328 ) ;
#256 = AXIS2_PLACEMENT_3D ( 'NONE', #35, #94, #103 ) ;
#257 = FACE_OUTER_BOUND ( 'NONE', #299, .T. ) ;
#258 = APPLICATION_CONTEXT ( 'automotive_design' ) ;
#259 = EDGE_LOOP ( 'NONE', ( #116, #319 ) ) ;
#260 = ORIENTED_EDGE ( 'NONE', *, *, #170, .T. ) ;
#261 = DIRECTION ( 'NONE',  ( -1.000000000000000000, 0.0000000000000000000, 0.0000000000000000000 ) ) ;
#262 = EDGE_CURVE ( 'NONE', #302, #303, #87, .T. ) ;
#263 = DIRECTION ( 'NONE',  ( 0.0000000000000000000, 0.0000000000000000000, 1.000000000000000000 ) ) ;
#264 = DIRECTION ( 'NONE',  ( -0.0000000000000000000, -0.0000000000000000000, -1.000000000000000000 ) ) ;
#265 = DIRECTION ( 'NONE',  ( 1.224646799147353207E-16, 0.0000000000000000000, 1.000000000000000000 ) ) ;
#266 = DIRECTION ( 'NONE',  ( 0.0000000000000000000, 0.0000000000000000000, 1.000000000000000000 ) ) ;
#267 = CARTESIAN_POINT ( 'NONE',  ( -0.3546249999999999680, 4.342903711476301093E-17, 0.02000000000000000042 ) ) ;
#268 = ORIENTED_EDGE ( 'NONE', *, *, #289, .T. ) ;
#269 = AXIS2_PLACEMENT_3D ( 'NONE', #128, #246, #345 ) ;
#270 = AXIS2_PLACEMENT_3D ( 'NONE', #298, #104, #222 ) ;
#271 = MANIFOLD_SOLID_BREP ( 'Fillet1', #93 ) ;
#272 = CARTESIAN_POINT ( 'NONE',  ( -0.3750000000000000555, 0.0000000000000000000, 4.000000000000000000 ) ) ;
#273 = CARTESIAN_POINT ( 'NONE',  ( 0.3599999999999994316, 4.500576986866520466E-17, 4.000000000000000000 ) ) ;
#274 = ORIENTED_EDGE ( 'NONE', *, *, #24, .T. ) ;
#275 = EDGE_CURVE ( 'NONE', #223, #140, #96, .T. ) ;
#276 = CIRCLE ( 'NONE', #211, 0.3746249999999998748 ) ;
#277 = AXIS2_PLACEMENT_3D ( 'NONE', #88, #263, #152 ) ;
#278 = EDGE_LOOP ( 'NONE', ( #308, #147, #326, #64 ) ) ;
#279 = CIRCLE ( 'NONE', #58, 0.3746249999999998748 ) ;
#280 = DIRECTION ( 'NONE',  ( 1.000000000000000000, 0.0000000000000000000, 0.0000000000000000000 ) ) ;
#281 = EDGE_LOOP ( 'NONE', ( #229, #252, #249, #324 ) ) ;
#282 = CARTESIAN_POINT ( 'NONE',  ( -0.3746249999999997082, 4.590129284054172397E-17, 1.500000000000000222 ) ) ;
#283 = DIRECTION ( 'NONE',  ( 1.224646799147353207E-16, 0.0000000000000000000, 1.000000000000000000 ) ) ;
#284 = AXIS2_PLACEMENT_3D ( 'NONE', #309, #242, #212 ) ;
#285 = DIRECTION ( 'NONE',  ( 0.0000000000000000000, 0.0000000000000000000, 1.000000000000000000 ) ) ;
#286 = DIRECTION ( 'NONE',  ( 1.000000000000000000, 0.0000000000000000000, 0.0000000000000000000 ) ) ;
#287 = DIMENSIONAL_EXPONENTS ( 1.000000000000000000, 0.0000000000000000000, 0.0000000000000000000, 0.0000000000000000000, 0.0000000000000000000, 0.0000000000000000000, 0.0000000000000000000 ) ;
#288 = CARTESIAN_POINT ( 'NONE',  ( 0.0000000000000000000, 0.0000000000000000000, 4.000000000000000000 ) ) ;
#289 = EDGE_CURVE ( 'NONE', #303, #230, #238, .T. ) ;
#290 = LINE ( 'NONE', #68, #131 ) ;
#291 = DIRECTION ( 'NONE',  ( -0.1736481776669312194, 2.126576849575783625E-17, 0.9848077530122077983 ) ) ;
#292 = CARTESIAN_POINT ( 'NONE',  ( 0.0000000000000000000, 0.0000000000000000000, 4.000000000000000000 ) ) ;
#293 = CIRCLE ( 'NONE', #216, 0.3599999999999994316 ) ;
#294 = FACE_OUTER_BOUND ( 'NONE', #165, .T. ) ;
#295 = VERTEX_POINT ( 'NONE', #208 ) ;
#296 =( NAMED_UNIT ( * ) SI_UNIT ( $, .STERADIAN. ) SOLID_ANGLE_UNIT ( ) );
#297 = CIRCLE ( 'NONE', #183, 0.3546249999999999680 ) ;
#298 = CARTESIAN_POINT ( 'NONE',  ( 0.3546249999999999680, 0.0000000000000000000, 0.02000000000000000042 ) ) ;
#299 = EDGE_LOOP ( 'NONE', ( #184, #176, #110, #139 ) ) ;
#300 = FILL_AREA_STYLE ('',( #55 ) ) ;
#301 = ORIENTED_EDGE ( 'NONE', *, *, #275, .F. ) ;
#302 = VERTEX_POINT ( 'NONE', #241 ) ;
#303 = VERTEX_POINT ( 'NONE', #11 ) ;
#304 = CIRCLE ( 'NONE', #7, 0.3546249999999999680 ) ;
#305 =( CONVERSION_BASED_UNIT ( 'INCH', #122 ) LENGTH_UNIT ( ) NAMED_UNIT ( #40 ) );
#306 = DIRECTION ( 'NONE',  ( 1.000000000000000000, 0.0000000000000000000, 0.0000000000000000000 ) ) ;
#307 = ADVANCED_FACE ( 'NONE', ( #340 ), #251, .T. ) ;
#308 = ORIENTED_EDGE ( 'NONE', *, *, #173, .F. ) ;
#309 = CARTESIAN_POINT ( 'NONE',  ( 0.0000000000000000000, 0.0000000000000000000, 0.0000000000000000000 ) ) ;
#310 = CARTESIAN_POINT ( 'NONE',  ( 2.449293598294707154E-18, 0.0000000000000000000, 0.02000000000000000389 ) ) ;
#311 = ADVANCED_FACE ( 'NONE', ( #257 ), #114, .T. ) ;
#312 = DIRECTION ( 'NONE',  ( -0.7071067811865426878, 0.0000000000000000000, -0.7071067811865523467 ) ) ;
#313 = AXIS2_PLACEMENT_3D ( 'NONE', #22, #283, #306 ) ;
#314 = EDGE_CURVE ( 'NONE', #302, #107, #297, .T. ) ;
#315 = CARTESIAN_POINT ( 'NONE',  ( 0.3750000000000001665, 4.592425496802577300E-17, 1.502126730682357358 ) ) ;
#316 = DIRECTION ( 'NONE',  ( 1.000000000000000000, 0.0000000000000000000, 0.0000000000000000000 ) ) ;
#317 = EDGE_LOOP ( 'NONE', ( #51, #338, #274, #301 ) ) ;
#318 = AXIS2_PLACEMENT_3D ( 'NONE', #288, #97, #316 ) ;
#319 = ORIENTED_EDGE ( 'NONE', *, *, #13, .T. ) ;
#320 = DIRECTION ( 'NONE',  ( 1.000000000000000000, 0.0000000000000000000, 0.0000000000000000000 ) ) ;
#321 = PRODUCT_DEFINITION_CONTEXT ( 'detailed design', #234, 'design' ) ;
#322 = AXIS2_PLACEMENT_3D ( 'NONE', #154, #346, #320 ) ;
#323 = DIRECTION ( 'NONE',  ( 1.000000000000000000, 0.0000000000000000000, 0.0000000000000000000 ) ) ;
#324 = ORIENTED_EDGE ( 'NONE', *, *, #202, .F. ) ;
#325 = SURFACE_STYLE_USAGE ( .BOTH. , #228 ) ;
#326 = ORIENTED_EDGE ( 'NONE', *, *, #129, .T. ) ;
#327 = EDGE_LOOP ( 'NONE', ( #227, #137, #65, #42 ) ) ;
#328 =( GEOMETRIC_REPRESENTATION_CONTEXT ( 3 ) GLOBAL_UNCERTAINTY_ASSIGNED_CONTEXT ( ( #159 ) ) GLOBAL_UNIT_ASSIGNED_CONTEXT ( ( #203, #79, #296 ) ) REPRESENTATION_CONTEXT ( 'NONE', 'WORKASPACE' ) );
#329 = DIRECTION ( 'NONE',  ( -1.000000000000000000, 0.0000000000000000000, 0.0000000000000000000 ) ) ;
#330 = ORIENTED_EDGE ( 'NONE', *, *, #24, .F. ) ;
#331 = VECTOR ( 'NONE', #342, 39.37007874015748143 ) ;
#332 = COLOUR_RGB ( '',0.7921568627450980005, 0.8196078431372548767, 0.9333333333333333481 ) ;
#333 = SURFACE_SIDE_STYLE ('',( #5 ) ) ;
#334 = CYLINDRICAL_SURFACE ( 'NONE', #156, 0.3750000000000000555 ) ;
#335 = DIRECTION ( 'NONE',  ( 0.7071067811865426878, 8.659560562354873694E-17, -0.7071067811865523467 ) ) ;
#336 = CARTESIAN_POINT ( 'NONE',  ( -0.3749999999999998335, 0.0000000000000000000, 1.502126730682357358 ) ) ;
#337 = DIRECTION ( 'NONE',  ( -1.000000000000000000, 1.224646799147354933E-16, 0.0000000000000000000 ) ) ;
#338 = ORIENTED_EDGE ( 'NONE', *, *, #30, .T. ) ;
#339 = AXIS2_PLACEMENT_3D ( 'NONE', #221, #67, #124 ) ;
#340 = FACE_OUTER_BOUND ( 'NONE', #327, .T. ) ;
#341 = EDGE_CURVE ( 'NONE', #80, #52, #59, .T. ) ;
#342 = DIRECTION ( 'NONE',  ( -1.224646799147353207E-16, -0.0000000000000000000, -1.000000000000000000 ) ) ;
#343 = FACE_OUTER_BOUND ( 'NONE', #278, .T. ) ;
#344 = DIRECTION ( 'NONE',  ( 1.000000000000000000, 0.0000000000000000000, 0.0000000000000000000 ) ) ;
#345 = DIRECTION ( 'NONE',  ( 1.000000000000000000, 0.0000000000000000000, -0.0000000000000000000 ) ) ;
#346 = DIRECTION ( 'NONE',  ( 0.0000000000000000000, 0.0000000000000000000, 1.000000000000000000 ) ) ;
#347 = SHAPE_DEFINITION_REPRESENTATION ( #44, #255 ) ;
#348 = CARTESIAN_POINT ( 'NONE',  ( -0.3546249999999999680, 4.465368391391036143E-17, 0.0000000000000000000 ) ) ;
#349 = VERTEX_POINT ( 'NONE', #282 ) ;
#350 = EDGE_LOOP ( 'NONE', ( #109, #244, #27, #75 ) ) ;
#351 = ADVANCED_FACE ( 'NONE', ( #34 ), #334, .T. ) ;
ENDSEC;
END-ISO-10303-21;
