ISO-10303-21;
HEADER;
FILE_DESCRIPTION (( 'STEP AP214' ),
    '1' );
FILE_NAME ('59480.STEP',
    '2023-07-24T15:07:21',
    ( '' ),
    ( '' ),
    'SwSTEP 2.0',
    'SolidWorks 2023',
    '' );
FILE_SCHEMA (( 'AUTOMOTIVE_DESIGN' ));
ENDSEC;

DATA;
#1 = AXIS2_PLACEMENT_3D ( 'NONE', #57, #16, #304 ) ;
#2 = EDGE_LOOP ( 'NONE', ( #168, #334, #229, #125 ) ) ;
#3 = VERTEX_POINT ( 'NONE', #242 ) ;
#4 = ADVANCED_FACE ( 'NONE', ( #303 ), #100, .T. ) ;
#5 = DIRECTION ( 'NONE',  ( -0.000000000000000000, -1.000000000000000000, -0.000000000000000000 ) ) ;
#6 =( NAMED_UNIT ( * ) PLANE_ANGLE_UNIT ( ) SI_UNIT ( $, .RADIAN. ) );
#7 = VECTOR ( 'NONE', #279, 1000.000000000000000 ) ;
#8 = VERTEX_POINT ( 'NONE', #325 ) ;
#9 = CARTESIAN_POINT ( 'NONE',  ( 0.000000000000000000, 16.00000000000000000, 0.000000000000000000 ) ) ;
#10 = LINE ( 'NONE', #156, #220 ) ;
#11 = VERTEX_POINT ( 'NONE', #171 ) ;
#12 = SURFACE_STYLE_FILL_AREA ( #351 ) ;
#13 = UNCERTAINTY_MEASURE_WITH_UNIT (LENGTH_MEASURE( 1.000000000000000082E-05 ), #161, 'distance_accuracy_value', 'NONE');
#14 = CYLINDRICAL_SURFACE ( 'NONE', #76, 3.999999999999994671 ) ;
#15 = EDGE_LOOP ( 'NONE', ( #105, #122, #298, #247 ) ) ;
#16 = DIRECTION ( 'NONE',  ( -0.000000000000000000, -1.000000000000000000, -0.000000000000000000 ) ) ;
#17 = STYLED_ITEM ( 'NONE', ( #271 ), #96 ) ;
#18 = FILL_AREA_STYLE_COLOUR ( '', #228 ) ;
#19 = AXIS2_PLACEMENT_3D ( 'NONE', #9, #307, #44 ) ;
#20 = ORIENTED_EDGE ( 'NONE', *, *, #115, .T. ) ;
#21 = CARTESIAN_POINT ( 'NONE',  ( 4.000000000000000000, 16.00000000000000000, 4.898587196589407898E-16 ) ) ;
#22 = AXIS2_PLACEMENT_3D ( 'NONE', #46, #159, #282 ) ;
#23 = AXIS2_PLACEMENT_3D ( 'NONE', #80, #346, #51 ) ;
#24 = FILL_AREA_STYLE_COLOUR ( '', #361 ) ;
#25 = DIRECTION ( 'NONE',  ( 0.000000000000000000, 0.000000000000000000, 1.000000000000000000 ) ) ;
#26 = SURFACE_STYLE_FILL_AREA ( #165 ) ;
#27 = APPLICATION_PROTOCOL_DEFINITION ( 'draft international standard', 'automotive_design', 1998, #238 ) ;
#28 = FILL_AREA_STYLE_COLOUR ( '', #231 ) ;
#29 =( NAMED_UNIT ( * ) SI_UNIT ( $, .STERADIAN. ) SOLID_ANGLE_UNIT ( ) );
#30 = CIRCLE ( 'NONE', #1, 4.000000000000000000 ) ;
#31 = UNCERTAINTY_MEASURE_WITH_UNIT (LENGTH_MEASURE( 1.000000000000000082E-05 ), #356, 'distance_accuracy_value', 'NONE');
#32 = ADVANCED_FACE ( 'NONE', ( #118 ), #14, .T. ) ;
#33 = COLOUR_RGB ( '',0.7921568627450980005, 0.8196078431372548767, 0.9333333333333333481 ) ;
#34 = CIRCLE ( 'NONE', #92, 3.500000000000000000 ) ;
#35 = LINE ( 'NONE', #154, #167 ) ;
#36 = VERTEX_POINT ( 'NONE', #233 ) ;
#37 = CARTESIAN_POINT ( 'NONE',  ( 4.000000000000000000, 63.00000000000000000, 4.898587196589407898E-16 ) ) ;
#38 = PRESENTATION_LAYER_ASSIGNMENT (  '', '', ( #295 ) ) ;
#39 = EDGE_LOOP ( 'NONE', ( #264, #354 ) ) ;
#40 =( NAMED_UNIT ( * ) SI_UNIT ( $, .STERADIAN. ) SOLID_ANGLE_UNIT ( ) );
#41 = DIRECTION ( 'NONE',  ( -5.682149050294907483E-17, 1.000000000000000000, -0.000000000000000000 ) ) ;
#42 = ORIENTED_EDGE ( 'NONE', *, *, #300, .T. ) ;
#43 = CARTESIAN_POINT ( 'NONE',  ( 5.854691731421723944E-15, 16.00000000000000000, 0.000000000000000000 ) ) ;
#44 = DIRECTION ( 'NONE',  ( 0.000000000000000000, 0.000000000000000000, -1.000000000000000000 ) ) ;
#45 = DIRECTION ( 'NONE',  ( 0.000000000000000000, 0.000000000000000000, -1.000000000000000000 ) ) ;
#46 = CARTESIAN_POINT ( 'NONE',  ( 0.000000000000000000, 16.00000000000000000, 0.000000000000000000 ) ) ;
#47 = STYLED_ITEM ( 'NONE', ( #134 ), #318 ) ;
#48 = FACE_OUTER_BOUND ( 'NONE', #39, .T. ) ;
#49 = ADVANCED_FACE ( 'NONE', ( #207 ), #143, .T. ) ;
#50 = UNCERTAINTY_MEASURE_WITH_UNIT (LENGTH_MEASURE( 1.000000000000000082E-05 ), #73, 'distance_accuracy_value', 'NONE');
#51 = DIRECTION ( 'NONE',  ( 0.000000000000000000, 0.000000000000000000, -1.000000000000000000 ) ) ;
#52 =( GEOMETRIC_REPRESENTATION_CONTEXT ( 3 ) GLOBAL_UNCERTAINTY_ASSIGNED_CONTEXT ( ( #335 ) ) GLOBAL_UNIT_ASSIGNED_CONTEXT ( ( #67, #332, #164 ) ) REPRESENTATION_CONTEXT ( 'NONE', 'WORKASPACE' ) );
#53 = FACE_OUTER_BOUND ( 'NONE', #2, .T. ) ;
#54 =( NAMED_UNIT ( * ) SI_UNIT ( $, .STERADIAN. ) SOLID_ANGLE_UNIT ( ) );
#55 = AXIS2_PLACEMENT_3D ( 'NONE', #160, #339, #330 ) ;
#56 = EDGE_CURVE ( 'NONE', #11, #64, #10, .T. ) ;
#57 = CARTESIAN_POINT ( 'NONE',  ( 0.000000000000000000, 0.5000000000000000000, 0.000000000000000000 ) ) ;
#58 = MECHANICAL_DESIGN_GEOMETRIC_PRESENTATION_REPRESENTATION (  '', ( #17 ), #260 ) ;
#59 = AXIS2_PLACEMENT_3D ( 'NONE', #226, #81, #350 ) ;
#60 = DIRECTION ( 'NONE',  ( -1.000000000000000000, 0.000000000000000000, 0.000000000000000000 ) ) ;
#61 = ORIENTED_EDGE ( 'NONE', *, *, #162, .T. ) ;
#62 = ORIENTED_EDGE ( 'NONE', *, *, #343, .T. ) ;
#63 = DIRECTION ( 'NONE',  ( -1.000000000000000000, 0.000000000000000000, 0.000000000000000000 ) ) ;
#64 = VERTEX_POINT ( 'NONE', #236 ) ;
#65 = CARTESIAN_POINT ( 'NONE',  ( 0.000000000000000000, 0.000000000000000000, -3.500000000000000000 ) ) ;
#66 = PRESENTATION_LAYER_ASSIGNMENT (  '', '', ( #120 ) ) ;
#67 =( LENGTH_UNIT ( ) NAMED_UNIT ( * ) SI_UNIT ( .MILLI., .METRE. ) );
#68 = EDGE_CURVE ( 'NONE', #151, #8, #267, .T. ) ;
#69 = MANIFOLD_SOLID_BREP ( 'Revolve - Tool Body (Straight Shanked)', #301 ) ;
#70 = ORIENTED_EDGE ( 'NONE', *, *, #136, .T. ) ;
#71 =( NAMED_UNIT ( * ) SI_UNIT ( $, .STERADIAN. ) SOLID_ANGLE_UNIT ( ) );
#72 = VERTEX_POINT ( 'NONE', #21 ) ;
#73 =( LENGTH_UNIT ( ) NAMED_UNIT ( * ) SI_UNIT ( .MILLI., .METRE. ) );
#74 = UNCERTAINTY_MEASURE_WITH_UNIT (LENGTH_MEASURE( 1.000000000000000082E-05 ), #284, 'distance_accuracy_value', 'NONE');
#75 = DIRECTION ( 'NONE',  ( -1.000000000000000000, 0.000000000000000000, 0.000000000000000000 ) ) ;
#76 = AXIS2_PLACEMENT_3D ( 'NONE', #308, #41, #60 ) ;
#77 = DIRECTION ( 'NONE',  ( -5.682149050294907483E-17, 1.000000000000000000, -0.000000000000000000 ) ) ;
#78 = SURFACE_STYLE_USAGE ( .BOTH. , #85 ) ;
#79 = DIRECTION ( 'NONE',  ( 0.000000000000000000, 0.000000000000000000, -1.000000000000000000 ) ) ;
#80 = CARTESIAN_POINT ( 'NONE',  ( 0.000000000000000000, 0.000000000000000000, 0.000000000000000000 ) ) ;
#81 = DIRECTION ( 'NONE',  ( 1.000000000000000000, 0.000000000000000000, -1.224646799147353207E-16 ) ) ;
#82 =( NAMED_UNIT ( * ) PLANE_ANGLE_UNIT ( ) SI_UNIT ( $, .RADIAN. ) );
#83 = PRESENTATION_LAYER_ASSIGNMENT (  '', '', ( #245 ) ) ;
#84 =( GEOMETRIC_REPRESENTATION_CONTEXT ( 3 ) GLOBAL_UNCERTAINTY_ASSIGNED_CONTEXT ( ( #102 ) ) GLOBAL_UNIT_ASSIGNED_CONTEXT ( ( #345, #193, #222 ) ) REPRESENTATION_CONTEXT ( 'NONE', 'WORKASPACE' ) );
#85 = SURFACE_SIDE_STYLE ('',( #349 ) ) ;
#86 = PRODUCT_RELATED_PRODUCT_CATEGORY ( 'part', '', ( #224 ) ) ;
#87 = VERTEX_POINT ( 'NONE', #65 ) ;
#88 = CLOSED_SHELL ( 'NONE', ( #292, #96, #252, #49, #368, #4 ) ) ;
#89 = TOROIDAL_SURFACE ( 'NONE', #116, 3.500000000000000000, 0.5000000000000000000 ) ;
#90 = LINE ( 'NONE', #358, #7 ) ;
#91 = DIRECTION ( 'NONE',  ( 0.000000000000000000, 1.000000000000000000, 0.000000000000000000 ) ) ;
#92 = AXIS2_PLACEMENT_3D ( 'NONE', #276, #186, #254 ) ;
#93 = CARTESIAN_POINT ( 'NONE',  ( 3.184081677783117402E-15, 63.00000000000000000, 0.000000000000000000 ) ) ;
#94 =( NAMED_UNIT ( * ) SI_UNIT ( $, .STERADIAN. ) SOLID_ANGLE_UNIT ( ) );
#95 = VERTEX_POINT ( 'NONE', #275 ) ;
#96 = ADVANCED_FACE ( 'NONE', ( #306 ), #89, .T. ) ;
#97 = FACE_OUTER_BOUND ( 'NONE', #357, .T. ) ;
#98 = SURFACE_STYLE_USAGE ( .BOTH. , #355 ) ;
#99 = CARTESIAN_POINT ( 'NONE',  ( 0.000000000000000000, 0.5000000000000000000, 0.000000000000000000 ) ) ;
#100 = PLANE ( 'NONE',  #205 ) ;
#101 = COLOUR_RGB ( '',1.000000000000000000, 0.000000000000000000, 0.000000000000000000 ) ;
#102 = UNCERTAINTY_MEASURE_WITH_UNIT (LENGTH_MEASURE( 1.000000000000000082E-05 ), #345, 'distance_accuracy_value', 'NONE');
#103 = CIRCLE ( 'NONE', #22, 4.000000000000000000 ) ;
#104 = SURFACE_SIDE_STYLE ('',( #182 ) ) ;
#105 = ORIENTED_EDGE ( 'NONE', *, *, #273, .T. ) ;
#106 = CARTESIAN_POINT ( 'NONE',  ( 4.898587196589412829E-16, 0.000000000000000000, 4.000000000000000000 ) ) ;
#107 =( NAMED_UNIT ( * ) PLANE_ANGLE_UNIT ( ) SI_UNIT ( $, .RADIAN. ) );
#108 = SURFACE_STYLE_USAGE ( .BOTH. , #363 ) ;
#109 = AXIS2_PLACEMENT_3D ( 'NONE', #99, #5, #45 ) ;
#110 = CIRCLE ( 'NONE', #268, 0.5000000000000000000 ) ;
#111 = SURFACE_STYLE_USAGE ( .BOTH. , #369 ) ;
#112 = STYLED_ITEM ( 'NONE', ( #277 ), #49 ) ;
#113 = PRESENTATION_LAYER_ASSIGNMENT (  '', '', ( #310 ) ) ;
#114 = CARTESIAN_POINT ( 'NONE',  ( 5.854691731421723944E-15, 16.00000000000000000, 0.000000000000000000 ) ) ;
#115 = EDGE_CURVE ( 'NONE', #3, #8, #35, .T. ) ;
#116 = AXIS2_PLACEMENT_3D ( 'NONE', #214, #184, #132 ) ;
#117 = DIRECTION ( 'NONE',  ( -5.682149050294907483E-17, 1.000000000000000000, -0.000000000000000000 ) ) ;
#118 = FACE_OUTER_BOUND ( 'NONE', #331, .T. ) ;
#119 = DIRECTION ( 'NONE',  ( -0.000000000000000000, -1.000000000000000000, -0.000000000000000000 ) ) ;
#120 = STYLED_ITEM ( 'NONE', ( #259 ), #292 ) ;
#121 = ADVANCED_FACE ( 'NONE', ( #97 ), #251, .T. ) ;
#122 = ORIENTED_EDGE ( 'NONE', *, *, #263, .T. ) ;
#123 = DIRECTION ( 'NONE',  ( -5.682149050294907483E-17, 1.000000000000000000, -0.000000000000000000 ) ) ;
#124 = FACE_OUTER_BOUND ( 'NONE', #128, .T. ) ;
#125 = ORIENTED_EDGE ( 'NONE', *, *, #56, .F. ) ;
#126 = SURFACE_STYLE_USAGE ( .BOTH. , #150 ) ;
#127 = SURFACE_STYLE_USAGE ( .BOTH. , #104 ) ;
#128 = EDGE_LOOP ( 'NONE', ( #274, #173, #153, #262 ) ) ;
#129 = AXIS2_PLACEMENT_3D ( 'NONE', #249, #77, #63 ) ;
#130 =( LENGTH_UNIT ( ) NAMED_UNIT ( * ) SI_UNIT ( .MILLI., .METRE. ) );
#131 = ORIENTED_EDGE ( 'NONE', *, *, #68, .T. ) ;
#132 = DIRECTION ( 'NONE',  ( 0.000000000000000000, 0.000000000000000000, -1.000000000000000000 ) ) ;
#133 = DIRECTION ( 'NONE',  ( -5.682149050294907483E-17, 1.000000000000000000, -0.000000000000000000 ) ) ;
#134 = PRESENTATION_STYLE_ASSIGNMENT (( #111 ) ) ;
#135 = DIRECTION ( 'NONE',  ( -0.000000000000000000, -1.000000000000000000, -0.000000000000000000 ) ) ;
#136 = EDGE_CURVE ( 'NONE', #64, #87, #110, .T. ) ;
#137 = FILL_AREA_STYLE ('',( #24 ) ) ;
#138 = SURFACE_STYLE_USAGE ( .BOTH. , #225 ) ;
#139 = APPLICATION_PROTOCOL_DEFINITION ( 'draft international standard', 'automotive_design', 1998, #297 ) ;
#140 =( GEOMETRIC_REPRESENTATION_CONTEXT ( 3 ) GLOBAL_UNCERTAINTY_ASSIGNED_CONTEXT ( ( #244 ) ) GLOBAL_UNIT_ASSIGNED_CONTEXT ( ( #321, #82, #29 ) ) REPRESENTATION_CONTEXT ( 'NONE', 'WORKASPACE' ) );
#141 = ORIENTED_EDGE ( 'NONE', *, *, #352, .F. ) ;
#142 = CARTESIAN_POINT ( 'NONE',  ( 0.000000000000000000, 16.00000000000000000, 0.000000000000000000 ) ) ;
#143 = TOROIDAL_SURFACE ( 'NONE', #109, 3.500000000000000000, 0.5000000000000000000 ) ;
#144 = VECTOR ( 'NONE', #337, 1000.000000000000000 ) ;
#145 =( GEOMETRIC_REPRESENTATION_CONTEXT ( 3 ) GLOBAL_UNCERTAINTY_ASSIGNED_CONTEXT ( ( #74 ) ) GLOBAL_UNIT_ASSIGNED_CONTEXT ( ( #284, #215, #40 ) ) REPRESENTATION_CONTEXT ( 'NONE', 'WORKASPACE' ) );
#146 = PRODUCT_DEFINITION ( 'UNKNOWN', '', #255, #185 ) ;
#147 = FILL_AREA_STYLE_COLOUR ( '', #33 ) ;
#148 = ORIENTED_EDGE ( 'NONE', *, *, #219, .F. ) ;
#149 = MECHANICAL_DESIGN_GEOMETRIC_PRESENTATION_REPRESENTATION (  '', ( #295 ), #84 ) ;
#150 = SURFACE_SIDE_STYLE ('',( #12 ) ) ;
#151 = VERTEX_POINT ( 'NONE', #37 ) ;
#152 = DIRECTION ( 'NONE',  ( 5.682149050294907483E-17, -1.000000000000000000, 0.000000000000000000 ) ) ;
#153 = ORIENTED_EDGE ( 'NONE', *, *, #56, .T. ) ;
#154 = CARTESIAN_POINT ( 'NONE',  ( -3.999999999999991562, 63.00000000000000000, 0.000000000000000000 ) ) ;
#155 = CYLINDRICAL_SURFACE ( 'NONE', #23, 4.000000000000000000 ) ;
#156 = CARTESIAN_POINT ( 'NONE',  ( 0.000000000000000000, 0.000000000000000000, -4.000000000000000000 ) ) ;
#157 = COLOUR_RGB ( '',1.000000000000000000, 0.000000000000000000, 0.000000000000000000 ) ;
#158 =( GEOMETRIC_REPRESENTATION_CONTEXT ( 3 ) GLOBAL_UNCERTAINTY_ASSIGNED_CONTEXT ( ( #13 ) ) GLOBAL_UNIT_ASSIGNED_CONTEXT ( ( #161, #200, #54 ) ) REPRESENTATION_CONTEXT ( 'NONE', 'WORKASPACE' ) );
#159 = DIRECTION ( 'NONE',  ( -0.000000000000000000, -1.000000000000000000, -0.000000000000000000 ) ) ;
#160 = CARTESIAN_POINT ( 'NONE',  ( 0.000000000000000000, 0.000000000000000000, 0.000000000000000000 ) ) ;
#161 =( LENGTH_UNIT ( ) NAMED_UNIT ( * ) SI_UNIT ( .MILLI., .METRE. ) );
#162 = EDGE_CURVE ( 'NONE', #3, #72, #206, .T. ) ;
#163 = MECHANICAL_DESIGN_GEOMETRIC_PRESENTATION_REPRESENTATION (  '', ( #47 ), #145 ) ;
#164 =( NAMED_UNIT ( * ) SI_UNIT ( $, .STERADIAN. ) SOLID_ANGLE_UNIT ( ) );
#165 = FILL_AREA_STYLE ('',( #28 ) ) ;
#166 =( GEOMETRIC_REPRESENTATION_CONTEXT ( 3 ) GLOBAL_UNCERTAINTY_ASSIGNED_CONTEXT ( ( #204 ) ) GLOBAL_UNIT_ASSIGNED_CONTEXT ( ( #216, #6, #94 ) ) REPRESENTATION_CONTEXT ( 'NONE', 'WORKASPACE' ) );
#167 = VECTOR ( 'NONE', #117, 1000.000000000000000 ) ;
#168 = ORIENTED_EDGE ( 'NONE', *, *, #219, .T. ) ;
#169 =( GEOMETRIC_REPRESENTATION_CONTEXT ( 3 ) GLOBAL_UNCERTAINTY_ASSIGNED_CONTEXT ( ( #265 ) ) GLOBAL_UNIT_ASSIGNED_CONTEXT ( ( #130, #107, #299 ) ) REPRESENTATION_CONTEXT ( 'NONE', 'WORKASPACE' ) );
#170 = AXIS2_PLACEMENT_3D ( 'NONE', #342, #288, #79 ) ;
#171 = CARTESIAN_POINT ( 'NONE',  ( 0.000000000000000000, 16.00000000000000000, -4.000000000000000000 ) ) ;
#172 =( NAMED_UNIT ( * ) SI_UNIT ( $, .STERADIAN. ) SOLID_ANGLE_UNIT ( ) );
#173 = ORIENTED_EDGE ( 'NONE', *, *, #352, .T. ) ;
#174 = EDGE_CURVE ( 'NONE', #336, #64, #30, .T. ) ;
#175 = FACE_OUTER_BOUND ( 'NONE', #183, .T. ) ;
#176 = FILL_AREA_STYLE ('',( #18 ) ) ;
#177 = PRESENTATION_STYLE_ASSIGNMENT (( #208 ) ) ;
#178 = PRESENTATION_LAYER_ASSIGNMENT (  '', '', ( #234 ) ) ;
#179 = EDGE_LOOP ( 'NONE', ( #266, #240, #70, #250 ) ) ;
#180 = AXIS2_PLACEMENT_3D ( 'NONE', #114, #320, #223 ) ;
#181 = DIRECTION ( 'NONE',  ( -1.000000000000000000, 0.000000000000000000, 0.000000000000000000 ) ) ;
#182 = SURFACE_STYLE_FILL_AREA ( #327 ) ;
#183 = EDGE_LOOP ( 'NONE', ( #62, #131 ) ) ;
#184 = DIRECTION ( 'NONE',  ( -0.000000000000000000, -1.000000000000000000, -0.000000000000000000 ) ) ;
#185 = PRODUCT_DEFINITION_CONTEXT ( 'detailed design', #297, 'design' ) ;
#186 = DIRECTION ( 'NONE',  ( -0.000000000000000000, -1.000000000000000000, -0.000000000000000000 ) ) ;
#187 =( NAMED_UNIT ( * ) PLANE_ANGLE_UNIT ( ) SI_UNIT ( $, .RADIAN. ) );
#188 = PRESENTATION_STYLE_ASSIGNMENT (( #108 ) ) ;
#189 = EDGE_CURVE ( 'NONE', #72, #151, #90, .T. ) ;
#190 = AXIS2_PLACEMENT_3D ( 'NONE', #289, #135, #195 ) ;
#191 = DIRECTION ( 'NONE',  ( 0.000000000000000000, 0.000000000000000000, 1.000000000000000000 ) ) ;
#192 = PRESENTATION_STYLE_ASSIGNMENT (( #98 ) ) ;
#193 =( NAMED_UNIT ( * ) PLANE_ANGLE_UNIT ( ) SI_UNIT ( $, .RADIAN. ) );
#194 = ADVANCED_FACE ( 'NONE', ( #175 ), #248, .F. ) ;
#195 = DIRECTION ( 'NONE',  ( 0.000000000000000000, 0.000000000000000000, -1.000000000000000000 ) ) ;
#196 = CIRCLE ( 'NONE', #221, 3.999999999999994227 ) ;
#197 = CARTESIAN_POINT ( 'NONE',  ( 0.000000000000000000, 0.000000000000000000, 0.000000000000000000 ) ) ;
#198 = FILL_AREA_STYLE_COLOUR ( '', #291 ) ;
#199 = PRODUCT_CONTEXT ( 'NONE', #238, 'mechanical' ) ;
#200 =( NAMED_UNIT ( * ) PLANE_ANGLE_UNIT ( ) SI_UNIT ( $, .RADIAN. ) );
#201 = ADVANCED_BREP_SHAPE_REPRESENTATION ( '59480', ( #318, #69, #348 ), #140 ) ;
#202 = EDGE_CURVE ( 'NONE', #95, #336, #311, .T. ) ;
#203 = DIRECTION ( 'NONE',  ( 0.000000000000000000, -0.000000000000000000, 1.000000000000000000 ) ) ;
#204 = UNCERTAINTY_MEASURE_WITH_UNIT (LENGTH_MEASURE( 1.000000000000000082E-05 ), #216, 'distance_accuracy_value', 'NONE');
#205 = AXIS2_PLACEMENT_3D ( 'NONE', #142, #91, #203 ) ;
#206 = CIRCLE ( 'NONE', #323, 3.999999999999994227 ) ;
#207 = FACE_OUTER_BOUND ( 'NONE', #179, .T. ) ;
#208 = SURFACE_STYLE_USAGE ( .BOTH. , #353 ) ;
#209 = CARTESIAN_POINT ( 'NONE',  ( 0.000000000000000000, 0.5000000000000000000, -3.500000000000000000 ) ) ;
#210 =( GEOMETRIC_REPRESENTATION_CONTEXT ( 3 ) GLOBAL_UNCERTAINTY_ASSIGNED_CONTEXT ( ( #31 ) ) GLOBAL_UNIT_ASSIGNED_CONTEXT ( ( #356, #187, #172 ) ) REPRESENTATION_CONTEXT ( 'NONE', 'WORKASPACE' ) );
#211 = ORIENTED_EDGE ( 'NONE', *, *, #115, .F. ) ;
#212 = CIRCLE ( 'NONE', #55, 3.500000000000000000 ) ;
#213 = SURFACE_STYLE_FILL_AREA ( #305 ) ;
#214 = CARTESIAN_POINT ( 'NONE',  ( 0.000000000000000000, 0.5000000000000000000, 0.000000000000000000 ) ) ;
#215 =( NAMED_UNIT ( * ) PLANE_ANGLE_UNIT ( ) SI_UNIT ( $, .RADIAN. ) );
#216 =( LENGTH_UNIT ( ) NAMED_UNIT ( * ) SI_UNIT ( .MILLI., .METRE. ) );
#217 = DIRECTION ( 'NONE',  ( -1.000000000000000000, 0.000000000000000000, 0.000000000000000000 ) ) ;
#218 = CARTESIAN_POINT ( 'NONE',  ( 4.898587196589412829E-16, 0.5000000000000000000, 4.000000000000000000 ) ) ;
#219 = EDGE_CURVE ( 'NONE', #11, #95, #103, .T. ) ;
#220 = VECTOR ( 'NONE', #119, 1000.000000000000000 ) ;
#221 = AXIS2_PLACEMENT_3D ( 'NONE', #287, #133, #253 ) ;
#222 =( NAMED_UNIT ( * ) SI_UNIT ( $, .STERADIAN. ) SOLID_ANGLE_UNIT ( ) );
#223 = DIRECTION ( 'NONE',  ( -1.000000000000000000, -5.682149050294907483E-17, 0.000000000000000000 ) ) ;
#224 = PRODUCT ( '59480', '59480', '', ( #199 ) ) ;
#225 = SURFACE_SIDE_STYLE ('',( #26 ) ) ;
#226 = CARTESIAN_POINT ( 'NONE',  ( 4.286263797015736595E-16, 0.5000000000000000000, 3.500000000000000000 ) ) ;
#227 = PRESENTATION_LAYER_ASSIGNMENT (  '', '', ( #17 ) ) ;
#228 = COLOUR_RGB ( '',1.000000000000000000, 0.000000000000000000, 0.000000000000000000 ) ;
#229 = ORIENTED_EDGE ( 'NONE', *, *, #273, .F. ) ;
#230 = ADVANCED_FACE ( 'NONE', ( #48 ), #366, .F. ) ;
#231 = COLOUR_RGB ( '',1.000000000000000000, 0.000000000000000000, 0.000000000000000000 ) ;
#232 = DIRECTION ( 'NONE',  ( -5.682149050294907483E-17, 1.000000000000000000, -0.000000000000000000 ) ) ;
#233 = CARTESIAN_POINT ( 'NONE',  ( 4.592425496802573972E-16, 0.000000000000000000, 3.500000000000000000 ) ) ;
#234 = STYLED_ITEM ( 'NONE', ( #188 ), #4 ) ;
#235 = CIRCLE ( 'NONE', #59, 0.5000000000000000000 ) ;
#236 = CARTESIAN_POINT ( 'NONE',  ( 0.000000000000000000, 0.5000000000000000000, -4.000000000000000000 ) ) ;
#237 = ORIENTED_EDGE ( 'NONE', *, *, #189, .F. ) ;
#238 = APPLICATION_CONTEXT ( 'automotive_design' ) ;
#239 = FILL_AREA_STYLE ('',( #147 ) ) ;
#240 = ORIENTED_EDGE ( 'NONE', *, *, #174, .T. ) ;
#241 =( NAMED_UNIT ( * ) PLANE_ANGLE_UNIT ( ) SI_UNIT ( $, .RADIAN. ) );
#242 = CARTESIAN_POINT ( 'NONE',  ( -3.999999999999988010, 16.00000000000000000, 0.000000000000000000 ) ) ;
#243 = FILL_AREA_STYLE_COLOUR ( '', #157 ) ;
#244 = UNCERTAINTY_MEASURE_WITH_UNIT (LENGTH_MEASURE( 1.000000000000000082E-05 ), #321, 'distance_accuracy_value', 'NONE');
#245 = STYLED_ITEM ( 'NONE', ( #177 ), #69 ) ;
#246 = CIRCLE ( 'NONE', #129, 3.999999999999996447 ) ;
#247 = ORIENTED_EDGE ( 'NONE', *, *, #136, .F. ) ;
#248 = PLANE ( 'NONE',  #280 ) ;
#249 = CARTESIAN_POINT ( 'NONE',  ( 3.184081677783117402E-15, 63.00000000000000000, 0.000000000000000000 ) ) ;
#250 = ORIENTED_EDGE ( 'NONE', *, *, #329, .F. ) ;
#251 = CYLINDRICAL_SURFACE ( 'NONE', #302, 3.999999999999994671 ) ;
#252 = ADVANCED_FACE ( 'NONE', ( #341 ), #285, .T. ) ;
#253 = DIRECTION ( 'NONE',  ( -1.000000000000000000, 0.000000000000000000, 0.000000000000000000 ) ) ;
#254 = DIRECTION ( 'NONE',  ( 0.000000000000000000, 0.000000000000000000, -1.000000000000000000 ) ) ;
#255 = PRODUCT_DEFINITION_FORMATION_WITH_SPECIFIED_SOURCE ( 'ANY', '', #224, .NOT_KNOWN. ) ;
#256 = SURFACE_STYLE_FILL_AREA ( #137 ) ;
#257 = DIRECTION ( 'NONE',  ( 1.000000000000000000, 0.000000000000000000, 0.000000000000000000 ) ) ;
#258 = CYLINDRICAL_SURFACE ( 'NONE', #190, 4.000000000000000000 ) ;
#259 = PRESENTATION_STYLE_ASSIGNMENT (( #138 ) ) ;
#260 =( GEOMETRIC_REPRESENTATION_CONTEXT ( 3 ) GLOBAL_UNCERTAINTY_ASSIGNED_CONTEXT ( ( #50 ) ) GLOBAL_UNIT_ASSIGNED_CONTEXT ( ( #73, #241, #71 ) ) REPRESENTATION_CONTEXT ( 'NONE', 'WORKASPACE' ) );
#261 = SHAPE_DEFINITION_REPRESENTATION ( #344, #201 ) ;
#262 = ORIENTED_EDGE ( 'NONE', *, *, #174, .F. ) ;
#263 = EDGE_CURVE ( 'NONE', #336, #36, #235, .T. ) ;
#264 = ORIENTED_EDGE ( 'NONE', *, *, #162, .F. ) ;
#265 = UNCERTAINTY_MEASURE_WITH_UNIT (LENGTH_MEASURE( 1.000000000000000082E-05 ), #130, 'distance_accuracy_value', 'NONE');
#266 = ORIENTED_EDGE ( 'NONE', *, *, #263, .F. ) ;
#267 = CIRCLE ( 'NONE', #359, 3.999999999999996447 ) ;
#268 = AXIS2_PLACEMENT_3D ( 'NONE', #209, #75, #191 ) ;
#269 = SURFACE_STYLE_FILL_AREA ( #239 ) ;
#270 = ORIENTED_EDGE ( 'NONE', *, *, #329, .T. ) ;
#271 = PRESENTATION_STYLE_ASSIGNMENT (( #126 ) ) ;
#272 = DIRECTION ( 'NONE',  ( -1.000000000000000000, 0.000000000000000000, 0.000000000000000000 ) ) ;
#273 = EDGE_CURVE ( 'NONE', #64, #336, #316, .T. ) ;
#274 = ORIENTED_EDGE ( 'NONE', *, *, #202, .F. ) ;
#275 = CARTESIAN_POINT ( 'NONE',  ( 4.898587196589412829E-16, 16.00000000000000000, 4.000000000000000000 ) ) ;
#276 = CARTESIAN_POINT ( 'NONE',  ( 0.000000000000000000, 0.000000000000000000, 0.000000000000000000 ) ) ;
#277 = PRESENTATION_STYLE_ASSIGNMENT (( #127 ) ) ;
#278 = EDGE_LOOP ( 'NONE', ( #296, #270 ) ) ;
#279 = DIRECTION ( 'NONE',  ( -5.682149050294907483E-17, 1.000000000000000000, -0.000000000000000000 ) ) ;
#280 = AXIS2_PLACEMENT_3D ( 'NONE', #309, #152, #364 ) ;
#281 = ORIENTED_EDGE ( 'NONE', *, *, #68, .F. ) ;
#282 = DIRECTION ( 'NONE',  ( 0.000000000000000000, 0.000000000000000000, -1.000000000000000000 ) ) ;
#283 = FILL_AREA_STYLE ('',( #198 ) ) ;
#284 =( LENGTH_UNIT ( ) NAMED_UNIT ( * ) SI_UNIT ( .MILLI., .METRE. ) );
#285 = PLANE ( 'NONE',  #170 ) ;
#286 = MECHANICAL_DESIGN_GEOMETRIC_PRESENTATION_REPRESENTATION (  '', ( #120 ), #158 ) ;
#287 = CARTESIAN_POINT ( 'NONE',  ( 5.854691731421723944E-15, 16.00000000000000000, 0.000000000000000000 ) ) ;
#288 = DIRECTION ( 'NONE',  ( 0.000000000000000000, -1.000000000000000000, -0.000000000000000000 ) ) ;
#289 = CARTESIAN_POINT ( 'NONE',  ( 0.000000000000000000, 0.000000000000000000, 0.000000000000000000 ) ) ;
#290 = COLOUR_RGB ( '',1.000000000000000000, 0.000000000000000000, 0.000000000000000000 ) ;
#291 = COLOUR_RGB ( '',1.000000000000000000, 0.000000000000000000, 0.000000000000000000 ) ;
#292 = ADVANCED_FACE ( 'NONE', ( #53 ), #258, .T. ) ;
#293 = EDGE_LOOP ( 'NONE', ( #148, #141 ) ) ;
#294 = MECHANICAL_DESIGN_GEOMETRIC_PRESENTATION_REPRESENTATION (  '', ( #245 ), #169 ) ;
#295 = STYLED_ITEM ( 'NONE', ( #370 ), #252 ) ;
#296 = ORIENTED_EDGE ( 'NONE', *, *, #319, .T. ) ;
#297 = APPLICATION_CONTEXT ( 'automotive_design' ) ;
#298 = ORIENTED_EDGE ( 'NONE', *, *, #319, .F. ) ;
#299 =( NAMED_UNIT ( * ) SI_UNIT ( $, .STERADIAN. ) SOLID_ANGLE_UNIT ( ) );
#300 = EDGE_CURVE ( 'NONE', #72, #3, #196, .T. ) ;
#301 = CLOSED_SHELL ( 'NONE', ( #121, #230, #32, #194 ) ) ;
#302 = AXIS2_PLACEMENT_3D ( 'NONE', #338, #123, #217 ) ;
#303 = FACE_OUTER_BOUND ( 'NONE', #293, .T. ) ;
#304 = DIRECTION ( 'NONE',  ( 0.000000000000000000, 0.000000000000000000, -1.000000000000000000 ) ) ;
#305 = FILL_AREA_STYLE ('',( #365 ) ) ;
#306 = FACE_OUTER_BOUND ( 'NONE', #15, .T. ) ;
#307 = DIRECTION ( 'NONE',  ( -0.000000000000000000, -1.000000000000000000, -0.000000000000000000 ) ) ;
#308 = CARTESIAN_POINT ( 'NONE',  ( 3.184081677783117402E-15, 63.00000000000000000, 0.000000000000000000 ) ) ;
#309 = CARTESIAN_POINT ( 'NONE',  ( 4.000000000000000000, 63.00000000000000000, 0.000000000000000000 ) ) ;
#310 = STYLED_ITEM ( 'NONE', ( #192 ), #368 ) ;
#311 = LINE ( 'NONE', #106, #144 ) ;
#312 = DIRECTION ( 'NONE',  ( -0.000000000000000000, -1.000000000000000000, -0.000000000000000000 ) ) ;
#313 = DIRECTION ( 'NONE',  ( 0.000000000000000000, 0.000000000000000000, -1.000000000000000000 ) ) ;
#314 = MECHANICAL_DESIGN_GEOMETRIC_PRESENTATION_REPRESENTATION (  '', ( #234 ), #166 ) ;
#315 = PRESENTATION_LAYER_ASSIGNMENT (  '', '', ( #112 ) ) ;
#316 = CIRCLE ( 'NONE', #360, 4.000000000000000000 ) ;
#317 = CARTESIAN_POINT ( 'NONE',  ( 0.000000000000000000, 0.5000000000000000000, 0.000000000000000000 ) ) ;
#318 = MANIFOLD_SOLID_BREP ( 'Revolve - Cutting Edge', #88 ) ;
#319 = EDGE_CURVE ( 'NONE', #87, #36, #212, .T. ) ;
#320 = DIRECTION ( 'NONE',  ( -5.682149050294907483E-17, 1.000000000000000000, 0.000000000000000000 ) ) ;
#321 =( LENGTH_UNIT ( ) NAMED_UNIT ( * ) SI_UNIT ( .MILLI., .METRE. ) );
#322 = ORIENTED_EDGE ( 'NONE', *, *, #343, .F. ) ;
#323 = AXIS2_PLACEMENT_3D ( 'NONE', #43, #232, #181 ) ;
#324 = ORIENTED_EDGE ( 'NONE', *, *, #189, .T. ) ;
#325 = CARTESIAN_POINT ( 'NONE',  ( -3.999999999999993339, 63.00000000000000000, 0.000000000000000000 ) ) ;
#326 = MECHANICAL_DESIGN_GEOMETRIC_PRESENTATION_REPRESENTATION (  '', ( #310 ), #52 ) ;
#327 = FILL_AREA_STYLE ('',( #362 ) ) ;
#328 = DIRECTION ( 'NONE',  ( -5.682149050294907483E-17, 1.000000000000000000, -0.000000000000000000 ) ) ;
#329 = EDGE_CURVE ( 'NONE', #36, #87, #34, .T. ) ;
#330 = DIRECTION ( 'NONE',  ( 0.000000000000000000, 0.000000000000000000, -1.000000000000000000 ) ) ;
#331 = EDGE_LOOP ( 'NONE', ( #237, #42, #20, #281 ) ) ;
#332 =( NAMED_UNIT ( * ) PLANE_ANGLE_UNIT ( ) SI_UNIT ( $, .RADIAN. ) );
#333 = MECHANICAL_DESIGN_GEOMETRIC_PRESENTATION_REPRESENTATION (  '', ( #112 ), #210 ) ;
#334 = ORIENTED_EDGE ( 'NONE', *, *, #202, .T. ) ;
#335 = UNCERTAINTY_MEASURE_WITH_UNIT (LENGTH_MEASURE( 1.000000000000000082E-05 ), #67, 'distance_accuracy_value', 'NONE');
#336 = VERTEX_POINT ( 'NONE', #218 ) ;
#337 = DIRECTION ( 'NONE',  ( -0.000000000000000000, -1.000000000000000000, -0.000000000000000000 ) ) ;
#338 = CARTESIAN_POINT ( 'NONE',  ( 3.184081677783117402E-15, 63.00000000000000000, 0.000000000000000000 ) ) ;
#339 = DIRECTION ( 'NONE',  ( -0.000000000000000000, -1.000000000000000000, -0.000000000000000000 ) ) ;
#340 = PRESENTATION_LAYER_ASSIGNMENT (  '', '', ( #47 ) ) ;
#341 = FACE_OUTER_BOUND ( 'NONE', #278, .T. ) ;
#342 = CARTESIAN_POINT ( 'NONE',  ( 0.000000000000000000, 0.000000000000000000, 0.000000000000000000 ) ) ;
#343 = EDGE_CURVE ( 'NONE', #8, #151, #246, .T. ) ;
#344 = PRODUCT_DEFINITION_SHAPE ( 'NONE', 'NONE',  #146 ) ;
#345 =( LENGTH_UNIT ( ) NAMED_UNIT ( * ) SI_UNIT ( .MILLI., .METRE. ) );
#346 = DIRECTION ( 'NONE',  ( -0.000000000000000000, -1.000000000000000000, -0.000000000000000000 ) ) ;
#347 = CIRCLE ( 'NONE', #19, 4.000000000000000000 ) ;
#348 = AXIS2_PLACEMENT_3D ( 'NONE', #197, #25, #257 ) ;
#349 = SURFACE_STYLE_FILL_AREA ( #283 ) ;
#350 = DIRECTION ( 'NONE',  ( -1.224646799147353454E-16, 0.000000000000000000, -1.000000000000000000 ) ) ;
#351 = FILL_AREA_STYLE ('',( #243 ) ) ;
#352 = EDGE_CURVE ( 'NONE', #95, #11, #347, .T. ) ;
#353 = SURFACE_SIDE_STYLE ('',( #269 ) ) ;
#354 = ORIENTED_EDGE ( 'NONE', *, *, #300, .F. ) ;
#355 = SURFACE_SIDE_STYLE ('',( #367 ) ) ;
#356 =( LENGTH_UNIT ( ) NAMED_UNIT ( * ) SI_UNIT ( .MILLI., .METRE. ) );
#357 = EDGE_LOOP ( 'NONE', ( #61, #324, #322, #211 ) ) ;
#358 = CARTESIAN_POINT ( 'NONE',  ( 3.999999999999998224, 63.00000000000000000, 4.898587196589406912E-16 ) ) ;
#359 = AXIS2_PLACEMENT_3D ( 'NONE', #93, #328, #272 ) ;
#360 = AXIS2_PLACEMENT_3D ( 'NONE', #317, #312, #313 ) ;
#361 = COLOUR_RGB ( '',0.7921568627450980005, 0.8196078431372548767, 0.9333333333333333481 ) ;
#362 = FILL_AREA_STYLE_COLOUR ( '', #290 ) ;
#363 = SURFACE_SIDE_STYLE ('',( #213 ) ) ;
#364 = DIRECTION ( 'NONE',  ( 1.000000000000000000, 5.682149050294907483E-17, 0.000000000000000000 ) ) ;
#365 = FILL_AREA_STYLE_COLOUR ( '', #101 ) ;
#366 = PLANE ( 'NONE',  #180 ) ;
#367 = SURFACE_STYLE_FILL_AREA ( #176 ) ;
#368 = ADVANCED_FACE ( 'NONE', ( #124 ), #155, .T. ) ;
#369 = SURFACE_SIDE_STYLE ('',( #256 ) ) ;
#370 = PRESENTATION_STYLE_ASSIGNMENT (( #78 ) ) ;
ENDSEC;
END-ISO-10303-21;
