ISO-10303-21;
HEADER;
FILE_DESCRIPTION (( 'STEP AP214' ),
    '1' );
FILE_NAME ('30617.STEP',
    '2023-06-22T18:50:00',
    ( '' ),
    ( '' ),
    'SwSTEP 2.0',
    'SolidWorks 2023',
    '' );
FILE_SCHEMA (( 'AUTOMOTIVE_DESIGN' ));
ENDSEC;

DATA;
#1 = CARTESIAN_POINT ( 'NONE',  ( 0.000000000000000000, 3.250000000000000000, -0.3125000000000000000 ) ) ;
#2 = FACE_OUTER_BOUND ( 'NONE', #227, .T. ) ;
#3 = ADVANCED_FACE ( 'NONE', ( #243 ), #23, .F. ) ;
#4 = STYLED_ITEM ( 'NONE', ( #120 ), #42 ) ;
#5 = FACE_OUTER_BOUND ( 'NONE', #96, .T. ) ;
#6 = ORIENTED_EDGE ( 'NONE', *, *, #238, .F. ) ;
#7 = DIRECTION ( 'NONE',  ( -8.906522175617116587E-17, 1.000000000000000000, -0.000000000000000000 ) ) ;
#8 =( NAMED_UNIT ( * ) PLANE_ANGLE_UNIT ( ) SI_UNIT ( $, .RADIAN. ) );
#9 = DIRECTION ( 'NONE',  ( -1.000000000000000000, 0.000000000000000000, 0.000000000000000000 ) ) ;
#10 = UNCERTAINTY_MEASURE_WITH_UNIT (LENGTH_MEASURE( 1.000000000000000082E-05 ), #136, 'distance_accuracy_value', 'NONE');
#11 = APPLICATION_PROTOCOL_DEFINITION ( 'draft international standard', 'automotive_design', 1998, #148 ) ;
#12 =( NAMED_UNIT ( * ) PLANE_ANGLE_UNIT ( ) SI_UNIT ( $, .RADIAN. ) );
#13 = EDGE_LOOP ( 'NONE', ( #280, #98, #183, #21 ) ) ;
#14 = SURFACE_STYLE_FILL_AREA ( #18 ) ;
#15 = ORIENTED_EDGE ( 'NONE', *, *, #291, .F. ) ;
#16 = AXIS2_PLACEMENT_3D ( 'NONE', #130, #75, #265 ) ;
#17 = EDGE_CURVE ( 'NONE', #133, #152, #19, .T. ) ;
#18 = FILL_AREA_STYLE ('',( #232 ) ) ;
#19 = CIRCLE ( 'NONE', #195, 0.3125000000000000000 ) ;
#20 = VECTOR ( 'NONE', #81, 39.37007874015748143 ) ;
#21 = ORIENTED_EDGE ( 'NONE', *, *, #31, .F. ) ;
#22 = FILL_AREA_STYLE_COLOUR ( '', #122 ) ;
#23 = PLANE ( 'NONE',  #252 ) ;
#24 =( NAMED_UNIT ( * ) SI_UNIT ( $, .STERADIAN. ) SOLID_ANGLE_UNIT ( ) );
#25 = SURFACE_SIDE_STYLE ('',( #129 ) ) ;
#26 = DIMENSIONAL_EXPONENTS ( 1.000000000000000000, 0.000000000000000000, 0.000000000000000000, 0.000000000000000000, 0.000000000000000000, 0.000000000000000000, 0.000000000000000000 ) ;
#27 = PRESENTATION_STYLE_ASSIGNMENT (( #203 ) ) ;
#28 = DIRECTION ( 'NONE',  ( -0.000000000000000000, -1.000000000000000000, -0.000000000000000000 ) ) ;
#29 = DIRECTION ( 'NONE',  ( -1.000000000000000000, 0.000000000000000000, 0.000000000000000000 ) ) ;
#30 = DIRECTION ( 'NONE',  ( 0.000000000000000000, 1.000000000000000000, 0.000000000000000000 ) ) ;
#31 = EDGE_CURVE ( 'NONE', #168, #152, #166, .T. ) ;
#32 = AXIS2_PLACEMENT_3D ( 'NONE', #164, #253, #111 ) ;
#33 = ORIENTED_EDGE ( 'NONE', *, *, #97, .F. ) ;
#34 = STYLED_ITEM ( 'NONE', ( #27 ), #281 ) ;
#35 = SHAPE_DEFINITION_REPRESENTATION ( #208, #92 ) ;
#36 =( LENGTH_UNIT ( ) NAMED_UNIT ( * ) SI_UNIT ( $, .METRE. ) );
#37 = SURFACE_STYLE_USAGE ( .BOTH. , #175 ) ;
#38 = DIRECTION ( 'NONE',  ( 0.000000000000000000, 0.000000000000000000, -1.000000000000000000 ) ) ;
#39 = PRODUCT_DEFINITION_CONTEXT ( 'detailed design', #148, 'design' ) ;
#40 = APPLICATION_PROTOCOL_DEFINITION ( 'draft international standard', 'automotive_design', 1998, #93 ) ;
#41 = DIMENSIONAL_EXPONENTS ( 1.000000000000000000, 0.000000000000000000, 0.000000000000000000, 0.000000000000000000, 0.000000000000000000, 0.000000000000000000, 0.000000000000000000 ) ;
#42 = ADVANCED_FACE ( 'NONE', ( #2 ), #196, .T. ) ;
#43 = SURFACE_STYLE_USAGE ( .BOTH. , #246 ) ;
#44 = FACE_OUTER_BOUND ( 'NONE', #58, .T. ) ;
#45 = MECHANICAL_DESIGN_GEOMETRIC_PRESENTATION_REPRESENTATION (  '', ( #4 ), #229 ) ;
#46 = CARTESIAN_POINT ( 'NONE',  ( 0.000000000000000000, 0.000000000000000000, 0.000000000000000000 ) ) ;
#47 =( LENGTH_UNIT ( ) NAMED_UNIT ( * ) SI_UNIT ( $, .METRE. ) );
#48 = CARTESIAN_POINT ( 'NONE',  ( 0.000000000000000000, 3.250000000000000000, 0.000000000000000000 ) ) ;
#49 = EDGE_LOOP ( 'NONE', ( #15, #305, #100, #108 ) ) ;
#50 = CYLINDRICAL_SURFACE ( 'NONE', #16, 0.3125000000000001665 ) ;
#51 = AXIS2_PLACEMENT_3D ( 'NONE', #86, #200, #135 ) ;
#52 =( NAMED_UNIT ( * ) PLANE_ANGLE_UNIT ( ) SI_UNIT ( $, .RADIAN. ) );
#53 =( GEOMETRIC_REPRESENTATION_CONTEXT ( 3 ) GLOBAL_UNCERTAINTY_ASSIGNED_CONTEXT ( ( #10 ) ) GLOBAL_UNIT_ASSIGNED_CONTEXT ( ( #136, #250, #293 ) ) REPRESENTATION_CONTEXT ( 'NONE', 'WORKASPACE' ) );
#54 = DIRECTION ( 'NONE',  ( -8.906522175617116587E-17, 1.000000000000000000, -0.000000000000000000 ) ) ;
#55 = DIMENSIONAL_EXPONENTS ( 1.000000000000000000, 0.000000000000000000, 0.000000000000000000, 0.000000000000000000, 0.000000000000000000, 0.000000000000000000, 0.000000000000000000 ) ;
#56 = PRODUCT_DEFINITION ( 'UNKNOWN', '', #234, #39 ) ;
#57 = SURFACE_STYLE_USAGE ( .BOTH. , #25 ) ;
#58 = EDGE_LOOP ( 'NONE', ( #263, #209 ) ) ;
#59 = AXIS2_PLACEMENT_3D ( 'NONE', #201, #297, #38 ) ;
#60 = LINE ( 'NONE', #113, #236 ) ;
#61 = CARTESIAN_POINT ( 'NONE',  ( 0.000000000000000000, 0.000000000000000000, 0.000000000000000000 ) ) ;
#62 =( NAMED_UNIT ( * ) SI_UNIT ( $, .STERADIAN. ) SOLID_ANGLE_UNIT ( ) );
#63 = STYLED_ITEM ( 'NONE', ( #182 ), #146 ) ;
#64 = PRESENTATION_LAYER_ASSIGNMENT (  '', '', ( #34 ) ) ;
#65 = VECTOR ( 'NONE', #142, 39.37007874015748143 ) ;
#66 = EDGE_CURVE ( 'NONE', #152, #133, #74, .T. ) ;
#67 = CIRCLE ( 'NONE', #218, 0.3125000000000000000 ) ;
#68 =( NAMED_UNIT ( * ) SI_UNIT ( $, .STERADIAN. ) SOLID_ANGLE_UNIT ( ) );
#69 = PRODUCT_RELATED_PRODUCT_CATEGORY ( 'part', '', ( #260 ) ) ;
#70 = DIRECTION ( 'NONE',  ( -8.906522175617116587E-17, 1.000000000000000000, 0.000000000000000000 ) ) ;
#71 =( LENGTH_UNIT ( ) NAMED_UNIT ( * ) SI_UNIT ( $, .METRE. ) );
#72 =( LENGTH_UNIT ( ) NAMED_UNIT ( * ) SI_UNIT ( $, .METRE. ) );
#73 = VERTEX_POINT ( 'NONE', #87 ) ;
#74 = CIRCLE ( 'NONE', #59, 0.3125000000000000000 ) ;
#75 = DIRECTION ( 'NONE',  ( -8.906522175617116587E-17, 1.000000000000000000, -0.000000000000000000 ) ) ;
#76 = EDGE_LOOP ( 'NONE', ( #279, #147, #206, #131 ) ) ;
#77 = CARTESIAN_POINT ( 'NONE',  ( 0.3124999999999998890, 6.000000000000000888, 3.827021247335480159E-17 ) ) ;
#78 = CARTESIAN_POINT ( 'NONE',  ( 0.000000000000000000, 3.250000000000000000, 0.000000000000000000 ) ) ;
#79 = CLOSED_SHELL ( 'NONE', ( #273, #3, #153, #173 ) ) ;
#80 = SURFACE_STYLE_FILL_AREA ( #257 ) ;
#81 = DIRECTION ( 'NONE',  ( -8.906522175617116587E-17, 1.000000000000000000, -0.000000000000000000 ) ) ;
#82 =( LENGTH_UNIT ( ) NAMED_UNIT ( * ) SI_UNIT ( $, .METRE. ) );
#83 = AXIS2_PLACEMENT_3D ( 'NONE', #139, #116, #298 ) ;
#84 = FILL_AREA_STYLE_COLOUR ( '', #163 ) ;
#85 =( CONVERSION_BASED_UNIT ( 'INCH', #145 ) LENGTH_UNIT ( ) NAMED_UNIT ( #41 ) );
#86 = CARTESIAN_POINT ( 'NONE',  ( 0.000000000000000000, 0.000000000000000000, 0.000000000000000000 ) ) ;
#87 = CARTESIAN_POINT ( 'NONE',  ( 0.3125000000000000000, 3.250000000000000000, 3.827021247335480775E-17 ) ) ;
#88 = CARTESIAN_POINT ( 'NONE',  ( -2.449293598294707400E-16, 6.000000000000000888, 0.000000000000000000 ) ) ;
#89 = CARTESIAN_POINT ( 'NONE',  ( -3.032960542342103792E-32, 3.250000000000000000, 0.000000000000000000 ) ) ;
#90 = AXIS2_PLACEMENT_3D ( 'NONE', #221, #7, #9 ) ;
#91 = DIMENSIONAL_EXPONENTS ( 1.000000000000000000, 0.000000000000000000, 0.000000000000000000, 0.000000000000000000, 0.000000000000000000, 0.000000000000000000, 0.000000000000000000 ) ;
#92 = ADVANCED_BREP_SHAPE_REPRESENTATION ( '30617', ( #281, #179, #158 ), #53 ) ;
#93 = APPLICATION_CONTEXT ( 'automotive_design' ) ;
#94 = PRESENTATION_LAYER_ASSIGNMENT (  '', '', ( #132 ) ) ;
#95 = DIMENSIONAL_EXPONENTS ( 1.000000000000000000, 0.000000000000000000, 0.000000000000000000, 0.000000000000000000, 0.000000000000000000, 0.000000000000000000, 0.000000000000000000 ) ;
#96 = EDGE_LOOP ( 'NONE', ( #267, #303, #6, #231 ) ) ;
#97 = EDGE_CURVE ( 'NONE', #73, #284, #67, .T. ) ;
#98 = ORIENTED_EDGE ( 'NONE', *, *, #143, .T. ) ;
#99 = SURFACE_STYLE_USAGE ( .BOTH. , #210 ) ;
#100 = ORIENTED_EDGE ( 'NONE', *, *, #228, .T. ) ;
#101 = COLOUR_RGB ( '',1.000000000000000000, 0.000000000000000000, 0.000000000000000000 ) ;
#102 =( NAMED_UNIT ( * ) SI_UNIT ( $, .STERADIAN. ) SOLID_ANGLE_UNIT ( ) );
#103 = FACE_OUTER_BOUND ( 'NONE', #307, .T. ) ;
#104 = AXIS2_PLACEMENT_3D ( 'NONE', #78, #30, #308 ) ;
#105 = ORIENTED_EDGE ( 'NONE', *, *, #238, .T. ) ;
#106 = PRESENTATION_LAYER_ASSIGNMENT (  '', '', ( #4 ) ) ;
#107 = FILL_AREA_STYLE_COLOUR ( '', #101 ) ;
#108 = ORIENTED_EDGE ( 'NONE', *, *, #123, .F. ) ;
#109 = PRODUCT_CONTEXT ( 'NONE', #93, 'mechanical' ) ;
#110 = FACE_OUTER_BOUND ( 'NONE', #76, .T. ) ;
#111 = DIRECTION ( 'NONE',  ( -1.000000000000000000, 0.000000000000000000, 0.000000000000000000 ) ) ;
#112 = LINE ( 'NONE', #77, #283 ) ;
#113 = CARTESIAN_POINT ( 'NONE',  ( 3.827021247335478926E-17, 0.000000000000000000, 0.3125000000000000000 ) ) ;
#114 = CARTESIAN_POINT ( 'NONE',  ( 0.000000000000000000, 0.000000000000000000, 0.000000000000000000 ) ) ;
#115 = CARTESIAN_POINT ( 'NONE',  ( -0.3125000000000004441, 6.000000000000000888, 0.000000000000000000 ) ) ;
#116 = DIRECTION ( 'NONE',  ( -0.000000000000000000, -1.000000000000000000, -0.000000000000000000 ) ) ;
#117 = DIRECTION ( 'NONE',  ( 0.000000000000000000, -1.000000000000000000, -0.000000000000000000 ) ) ;
#118 = PRESENTATION_LAYER_ASSIGNMENT (  '', '', ( #63 ) ) ;
#119 = STYLED_ITEM ( 'NONE', ( #137 ), #251 ) ;
#120 = PRESENTATION_STYLE_ASSIGNMENT (( #43 ) ) ;
#121 = SURFACE_SIDE_STYLE ('',( #230 ) ) ;
#122 = COLOUR_RGB ( '',1.000000000000000000, 0.000000000000000000, 0.000000000000000000 ) ;
#123 = EDGE_CURVE ( 'NONE', #239, #187, #141, .T. ) ;
#124 = ORIENTED_EDGE ( 'NONE', *, *, #66, .T. ) ;
#125 = SURFACE_STYLE_FILL_AREA ( #285 ) ;
#126 = CARTESIAN_POINT ( 'NONE',  ( 1.239470894761866739E-33, 3.250000000000000000, 0.000000000000000000 ) ) ;
#127 = DIMENSIONAL_EXPONENTS ( 1.000000000000000000, 0.000000000000000000, 0.000000000000000000, 0.000000000000000000, 0.000000000000000000, 0.000000000000000000, 0.000000000000000000 ) ;
#128 = CIRCLE ( 'NONE', #204, 0.3125000000000002776 ) ;
#129 = SURFACE_STYLE_FILL_AREA ( #193 ) ;
#130 = CARTESIAN_POINT ( 'NONE',  ( -2.449293598294707400E-16, 6.000000000000000888, 0.000000000000000000 ) ) ;
#131 = ORIENTED_EDGE ( 'NONE', *, *, #17, .F. ) ;
#132 = STYLED_ITEM ( 'NONE', ( #172 ), #179 ) ;
#133 = VERTEX_POINT ( 'NONE', #198 ) ;
#134 = CARTESIAN_POINT ( 'NONE',  ( 0.000000000000000000, 0.000000000000000000, 0.000000000000000000 ) ) ;
#135 = DIRECTION ( 'NONE',  ( 0.000000000000000000, 0.000000000000000000, -1.000000000000000000 ) ) ;
#136 =( CONVERSION_BASED_UNIT ( 'INCH', #244 ) LENGTH_UNIT ( ) NAMED_UNIT ( #220 ) );
#137 = PRESENTATION_STYLE_ASSIGNMENT (( #37 ) ) ;
#138 = MECHANICAL_DESIGN_GEOMETRIC_PRESENTATION_REPRESENTATION (  '', ( #63 ), #156 ) ;
#139 = CARTESIAN_POINT ( 'NONE',  ( 0.000000000000000000, 3.250000000000000000, 0.000000000000000000 ) ) ;
#140 = UNCERTAINTY_MEASURE_WITH_UNIT (LENGTH_MEASURE( 1.000000000000000082E-05 ), #85, 'distance_accuracy_value', 'NONE');
#141 = CIRCLE ( 'NONE', #32, 0.3125000000000002776 ) ;
#142 = DIRECTION ( 'NONE',  ( -0.000000000000000000, -1.000000000000000000, -0.000000000000000000 ) ) ;
#143 = EDGE_CURVE ( 'NONE', #219, #133, #60, .T. ) ;
#144 = PLANE ( 'NONE',  #104 ) ;
#145 = LENGTH_MEASURE_WITH_UNIT ( LENGTH_MEASURE( 0.02539999999999999897 ), #71 );
#146 = ADVANCED_FACE ( 'NONE', ( #44 ), #144, .T. ) ;
#147 = ORIENTED_EDGE ( 'NONE', *, *, #259, .T. ) ;
#148 = APPLICATION_CONTEXT ( 'automotive_design' ) ;
#149 = DIRECTION ( 'NONE',  ( 1.000000000000000000, 8.906522175617116587E-17, 0.000000000000000000 ) ) ;
#150 = FILL_AREA_STYLE_COLOUR ( '', #276 ) ;
#151 = DIRECTION ( 'NONE',  ( 0.000000000000000000, 0.000000000000000000, -1.000000000000000000 ) ) ;
#152 = VERTEX_POINT ( 'NONE', #216 ) ;
#153 = ADVANCED_FACE ( 'NONE', ( #306 ), #50, .T. ) ;
#154 = CYLINDRICAL_SURFACE ( 'NONE', #170, 0.3125000000000000000 ) ;
#155 = DIRECTION ( 'NONE',  ( -0.000000000000000000, -1.000000000000000000, -0.000000000000000000 ) ) ;
#156 =( GEOMETRIC_REPRESENTATION_CONTEXT ( 3 ) GLOBAL_UNCERTAINTY_ASSIGNED_CONTEXT ( ( #226 ) ) GLOBAL_UNIT_ASSIGNED_CONTEXT ( ( #191, #189, #242 ) ) REPRESENTATION_CONTEXT ( 'NONE', 'WORKASPACE' ) );
#157 = CYLINDRICAL_SURFACE ( 'NONE', #90, 0.3125000000000001665 ) ;
#158 = AXIS2_PLACEMENT_3D ( 'NONE', #114, #224, #248 ) ;
#159 = CYLINDRICAL_SURFACE ( 'NONE', #51, 0.3125000000000000000 ) ;
#160 = UNCERTAINTY_MEASURE_WITH_UNIT (LENGTH_MEASURE( 1.000000000000000082E-05 ), #287, 'distance_accuracy_value', 'NONE');
#161 = FILL_AREA_STYLE ('',( #107 ) ) ;
#162 = DIRECTION ( 'NONE',  ( -8.906522175617116587E-17, 1.000000000000000000, -0.000000000000000000 ) ) ;
#163 = COLOUR_RGB ( '',0.7921568627450980005, 0.8196078431372548767, 0.9333333333333333481 ) ;
#164 = CARTESIAN_POINT ( 'NONE',  ( -2.449293598294707400E-16, 6.000000000000000888, 0.000000000000000000 ) ) ;
#165 = UNCERTAINTY_MEASURE_WITH_UNIT (LENGTH_MEASURE( 1.000000000000000082E-05 ), #184, 'distance_accuracy_value', 'NONE');
#166 = LINE ( 'NONE', #217, #65 ) ;
#167 = CIRCLE ( 'NONE', #255, 0.3125000000000000000 ) ;
#168 = VERTEX_POINT ( 'NONE', #1 ) ;
#169 = ORIENTED_EDGE ( 'NONE', *, *, #302, .F. ) ;
#170 = AXIS2_PLACEMENT_3D ( 'NONE', #61, #177, #180 ) ;
#171 = DIRECTION ( 'NONE',  ( -8.906522175617116587E-17, 1.000000000000000000, -0.000000000000000000 ) ) ;
#172 = PRESENTATION_STYLE_ASSIGNMENT (( #57 ) ) ;
#173 = ADVANCED_FACE ( 'NONE', ( #103 ), #282, .F. ) ;
#174 = EDGE_LOOP ( 'NONE', ( #169, #33 ) ) ;
#175 = SURFACE_SIDE_STYLE ('',( #272 ) ) ;
#176 =( GEOMETRIC_REPRESENTATION_CONTEXT ( 3 ) GLOBAL_UNCERTAINTY_ASSIGNED_CONTEXT ( ( #278 ) ) GLOBAL_UNIT_ASSIGNED_CONTEXT ( ( #294, #12, #62 ) ) REPRESENTATION_CONTEXT ( 'NONE', 'WORKASPACE' ) );
#177 = DIRECTION ( 'NONE',  ( -0.000000000000000000, -1.000000000000000000, -0.000000000000000000 ) ) ;
#178 = LINE ( 'NONE', #115, #20 ) ;
#179 = MANIFOLD_SOLID_BREP ( 'Revolve - Tool Body (Straight Shanked)', #79 ) ;
#180 = DIRECTION ( 'NONE',  ( 0.000000000000000000, 0.000000000000000000, -1.000000000000000000 ) ) ;
#181 = MECHANICAL_DESIGN_GEOMETRIC_PRESENTATION_REPRESENTATION (  '', ( #119 ), #176 ) ;
#182 = PRESENTATION_STYLE_ASSIGNMENT (( #304 ) ) ;
#183 = ORIENTED_EDGE ( 'NONE', *, *, #66, .F. ) ;
#184 =( CONVERSION_BASED_UNIT ( 'INCH', #190 ) LENGTH_UNIT ( ) NAMED_UNIT ( #127 ) );
#185 = PRESENTATION_STYLE_ASSIGNMENT (( #99 ) ) ;
#186 = MECHANICAL_DESIGN_GEOMETRIC_PRESENTATION_REPRESENTATION (  '', ( #247 ), #309 ) ;
#187 = VERTEX_POINT ( 'NONE', #286 ) ;
#188 = CARTESIAN_POINT ( 'NONE',  ( -3.032960542342103792E-32, 3.250000000000000000, 0.000000000000000000 ) ) ;
#189 =( NAMED_UNIT ( * ) PLANE_ANGLE_UNIT ( ) SI_UNIT ( $, .RADIAN. ) );
#190 = LENGTH_MEASURE_WITH_UNIT ( LENGTH_MEASURE( 0.02539999999999999897 ), #47 );
#191 =( CONVERSION_BASED_UNIT ( 'INCH', #289 ) LENGTH_UNIT ( ) NAMED_UNIT ( #91 ) );
#192 = CARTESIAN_POINT ( 'NONE',  ( -0.3125000000000000000, 3.250000000000000000, 0.000000000000000000 ) ) ;
#193 = FILL_AREA_STYLE ('',( #150 ) ) ;
#194 = EDGE_CURVE ( 'NONE', #168, #219, #167, .T. ) ;
#195 = AXIS2_PLACEMENT_3D ( 'NONE', #46, #155, #211 ) ;
#196 = PLANE ( 'NONE',  #295 ) ;
#197 = LENGTH_MEASURE_WITH_UNIT ( LENGTH_MEASURE( 0.02539999999999999897 ), #36 );
#198 = CARTESIAN_POINT ( 'NONE',  ( 3.827021247335478926E-17, 0.000000000000000000, 0.3125000000000000000 ) ) ;
#199 = CIRCLE ( 'NONE', #299, 0.3125000000000000000 ) ;
#200 = DIRECTION ( 'NONE',  ( -0.000000000000000000, -1.000000000000000000, -0.000000000000000000 ) ) ;
#201 = CARTESIAN_POINT ( 'NONE',  ( 0.000000000000000000, 0.000000000000000000, 0.000000000000000000 ) ) ;
#202 = ADVANCED_FACE ( 'NONE', ( #241 ), #154, .T. ) ;
#203 = SURFACE_STYLE_USAGE ( .BOTH. , #121 ) ;
#204 = AXIS2_PLACEMENT_3D ( 'NONE', #88, #271, #296 ) ;
#205 = CIRCLE ( 'NONE', #83, 0.3125000000000000000 ) ;
#206 = ORIENTED_EDGE ( 'NONE', *, *, #31, .T. ) ;
#207 = SURFACE_SIDE_STYLE ('',( #14 ) ) ;
#208 = PRODUCT_DEFINITION_SHAPE ( 'NONE', 'NONE',  #56 ) ;
#209 = ORIENTED_EDGE ( 'NONE', *, *, #259, .F. ) ;
#210 = SURFACE_SIDE_STYLE ('',( #125 ) ) ;
#211 = DIRECTION ( 'NONE',  ( 0.000000000000000000, 0.000000000000000000, -1.000000000000000000 ) ) ;
#212 = COLOUR_RGB ( '',1.000000000000000000, 0.000000000000000000, 0.000000000000000000 ) ;
#213 =( LENGTH_UNIT ( ) NAMED_UNIT ( * ) SI_UNIT ( $, .METRE. ) );
#214 = LENGTH_MEASURE_WITH_UNIT ( LENGTH_MEASURE( 0.02539999999999999897 ), #213 );
#215 =( NAMED_UNIT ( * ) PLANE_ANGLE_UNIT ( ) SI_UNIT ( $, .RADIAN. ) );
#216 = CARTESIAN_POINT ( 'NONE',  ( 0.000000000000000000, 0.000000000000000000, -0.3125000000000000000 ) ) ;
#217 = CARTESIAN_POINT ( 'NONE',  ( 0.000000000000000000, 0.000000000000000000, -0.3125000000000000000 ) ) ;
#218 = AXIS2_PLACEMENT_3D ( 'NONE', #89, #162, #223 ) ;
#219 = VERTEX_POINT ( 'NONE', #268 ) ;
#220 = DIMENSIONAL_EXPONENTS ( 1.000000000000000000, 0.000000000000000000, 0.000000000000000000, 0.000000000000000000, 0.000000000000000000, 0.000000000000000000, 0.000000000000000000 ) ;
#221 = CARTESIAN_POINT ( 'NONE',  ( -2.449293598294707400E-16, 6.000000000000000888, 0.000000000000000000 ) ) ;
#222 = DIRECTION ( 'NONE',  ( 0.000000000000000000, 0.000000000000000000, -1.000000000000000000 ) ) ;
#223 = DIRECTION ( 'NONE',  ( -1.000000000000000000, 0.000000000000000000, 0.000000000000000000 ) ) ;
#224 = DIRECTION ( 'NONE',  ( 0.000000000000000000, 0.000000000000000000, 1.000000000000000000 ) ) ;
#225 = LENGTH_MEASURE_WITH_UNIT ( LENGTH_MEASURE( 0.02539999999999999897 ), #82 );
#226 = UNCERTAINTY_MEASURE_WITH_UNIT (LENGTH_MEASURE( 1.000000000000000082E-05 ), #191, 'distance_accuracy_value', 'NONE');
#227 = EDGE_LOOP ( 'NONE', ( #124, #258 ) ) ;
#228 = EDGE_CURVE ( 'NONE', #284, #187, #178, .T. ) ;
#229 =( GEOMETRIC_REPRESENTATION_CONTEXT ( 3 ) GLOBAL_UNCERTAINTY_ASSIGNED_CONTEXT ( ( #140 ) ) GLOBAL_UNIT_ASSIGNED_CONTEXT ( ( #85, #8, #270 ) ) REPRESENTATION_CONTEXT ( 'NONE', 'WORKASPACE' ) );
#230 = SURFACE_STYLE_FILL_AREA ( #256 ) ;
#231 = ORIENTED_EDGE ( 'NONE', *, *, #228, .F. ) ;
#232 = FILL_AREA_STYLE_COLOUR ( '', #212 ) ;
#233 = MECHANICAL_DESIGN_GEOMETRIC_PRESENTATION_REPRESENTATION (  '', ( #132 ), #288 ) ;
#234 = PRODUCT_DEFINITION_FORMATION_WITH_SPECIFIED_SOURCE ( 'ANY', '', #260, .NOT_KNOWN. ) ;
#235 = COLOUR_RGB ( '',1.000000000000000000, 0.000000000000000000, 0.000000000000000000 ) ;
#236 = VECTOR ( 'NONE', #277, 39.37007874015748143 ) ;
#237 = ORIENTED_EDGE ( 'NONE', *, *, #123, .T. ) ;
#238 = EDGE_CURVE ( 'NONE', #187, #239, #128, .T. ) ;
#239 = VERTEX_POINT ( 'NONE', #245 ) ;
#240 = CARTESIAN_POINT ( 'NONE',  ( 0.3125000000000000000, 6.000000000000000888, 0.000000000000000000 ) ) ;
#241 = FACE_OUTER_BOUND ( 'NONE', #13, .T. ) ;
#242 =( NAMED_UNIT ( * ) SI_UNIT ( $, .STERADIAN. ) SOLID_ANGLE_UNIT ( ) );
#243 = FACE_OUTER_BOUND ( 'NONE', #174, .T. ) ;
#244 = LENGTH_MEASURE_WITH_UNIT ( LENGTH_MEASURE( 0.02539999999999999897 ), #264 );
#245 = CARTESIAN_POINT ( 'NONE',  ( 0.3125000000000000000, 6.000000000000000888, 3.827021247335480775E-17 ) ) ;
#246 = SURFACE_SIDE_STYLE ('',( #80 ) ) ;
#247 = STYLED_ITEM ( 'NONE', ( #185 ), #202 ) ;
#248 = DIRECTION ( 'NONE',  ( 1.000000000000000000, 0.000000000000000000, 0.000000000000000000 ) ) ;
#249 =( CONVERSION_BASED_UNIT ( 'INCH', #225 ) LENGTH_UNIT ( ) NAMED_UNIT ( #55 ) );
#250 =( NAMED_UNIT ( * ) PLANE_ANGLE_UNIT ( ) SI_UNIT ( $, .RADIAN. ) );
#251 = ADVANCED_FACE ( 'NONE', ( #110 ), #159, .T. ) ;
#252 = AXIS2_PLACEMENT_3D ( 'NONE', #126, #70, #261 ) ;
#253 = DIRECTION ( 'NONE',  ( -8.906522175617116587E-17, 1.000000000000000000, -0.000000000000000000 ) ) ;
#254 = UNCERTAINTY_MEASURE_WITH_UNIT (LENGTH_MEASURE( 1.000000000000000082E-05 ), #249, 'distance_accuracy_value', 'NONE');
#255 = AXIS2_PLACEMENT_3D ( 'NONE', #48, #28, #151 ) ;
#256 = FILL_AREA_STYLE ('',( #84 ) ) ;
#257 = FILL_AREA_STYLE ('',( #290 ) ) ;
#258 = ORIENTED_EDGE ( 'NONE', *, *, #17, .T. ) ;
#259 = EDGE_CURVE ( 'NONE', #219, #168, #205, .T. ) ;
#260 = PRODUCT ( '30617', '30617', '', ( #109 ) ) ;
#261 = DIRECTION ( 'NONE',  ( -1.000000000000000000, -8.906522175617116587E-17, 0.000000000000000000 ) ) ;
#262 = DIRECTION ( 'NONE',  ( 8.906522175617116587E-17, -1.000000000000000000, 0.000000000000000000 ) ) ;
#263 = ORIENTED_EDGE ( 'NONE', *, *, #194, .F. ) ;
#264 =( LENGTH_UNIT ( ) NAMED_UNIT ( * ) SI_UNIT ( $, .METRE. ) );
#265 = DIRECTION ( 'NONE',  ( -1.000000000000000000, 0.000000000000000000, 0.000000000000000000 ) ) ;
#266 = PRESENTATION_LAYER_ASSIGNMENT (  '', '', ( #247 ) ) ;
#267 = ORIENTED_EDGE ( 'NONE', *, *, #302, .T. ) ;
#268 = CARTESIAN_POINT ( 'NONE',  ( 3.827021247335478926E-17, 3.250000000000000000, 0.3125000000000000000 ) ) ;
#269 = PRESENTATION_LAYER_ASSIGNMENT (  '', '', ( #119 ) ) ;
#270 =( NAMED_UNIT ( * ) SI_UNIT ( $, .STERADIAN. ) SOLID_ANGLE_UNIT ( ) );
#271 = DIRECTION ( 'NONE',  ( -8.906522175617116587E-17, 1.000000000000000000, -0.000000000000000000 ) ) ;
#272 = SURFACE_STYLE_FILL_AREA ( #161 ) ;
#273 = ADVANCED_FACE ( 'NONE', ( #5 ), #157, .T. ) ;
#274 = AXIS2_PLACEMENT_3D ( 'NONE', #240, #262, #149 ) ;
#275 = MECHANICAL_DESIGN_GEOMETRIC_PRESENTATION_REPRESENTATION (  '', ( #34 ), #301 ) ;
#276 = COLOUR_RGB ( '',0.7921568627450980005, 0.8196078431372548767, 0.9333333333333333481 ) ;
#277 = DIRECTION ( 'NONE',  ( -0.000000000000000000, -1.000000000000000000, -0.000000000000000000 ) ) ;
#278 = UNCERTAINTY_MEASURE_WITH_UNIT (LENGTH_MEASURE( 1.000000000000000082E-05 ), #294, 'distance_accuracy_value', 'NONE');
#279 = ORIENTED_EDGE ( 'NONE', *, *, #143, .F. ) ;
#280 = ORIENTED_EDGE ( 'NONE', *, *, #194, .T. ) ;
#281 = MANIFOLD_SOLID_BREP ( 'Revolve - Cutting Edge', #300 ) ;
#282 = PLANE ( 'NONE',  #274 ) ;
#283 = VECTOR ( 'NONE', #171, 39.37007874015748143 ) ;
#284 = VERTEX_POINT ( 'NONE', #192 ) ;
#285 = FILL_AREA_STYLE ('',( #22 ) ) ;
#286 = CARTESIAN_POINT ( 'NONE',  ( -0.3125000000000005551, 6.000000000000000888, 0.000000000000000000 ) ) ;
#287 =( CONVERSION_BASED_UNIT ( 'INCH', #214 ) LENGTH_UNIT ( ) NAMED_UNIT ( #95 ) );
#288 =( GEOMETRIC_REPRESENTATION_CONTEXT ( 3 ) GLOBAL_UNCERTAINTY_ASSIGNED_CONTEXT ( ( #160 ) ) GLOBAL_UNIT_ASSIGNED_CONTEXT ( ( #287, #52, #102 ) ) REPRESENTATION_CONTEXT ( 'NONE', 'WORKASPACE' ) );
#289 = LENGTH_MEASURE_WITH_UNIT ( LENGTH_MEASURE( 0.02539999999999999897 ), #72 );
#290 = FILL_AREA_STYLE_COLOUR ( '', #235 ) ;
#291 = EDGE_CURVE ( 'NONE', #73, #239, #112, .T. ) ;
#292 =( NAMED_UNIT ( * ) PLANE_ANGLE_UNIT ( ) SI_UNIT ( $, .RADIAN. ) );
#293 =( NAMED_UNIT ( * ) SI_UNIT ( $, .STERADIAN. ) SOLID_ANGLE_UNIT ( ) );
#294 =( CONVERSION_BASED_UNIT ( 'INCH', #197 ) LENGTH_UNIT ( ) NAMED_UNIT ( #26 ) );
#295 = AXIS2_PLACEMENT_3D ( 'NONE', #134, #117, #222 ) ;
#296 = DIRECTION ( 'NONE',  ( -1.000000000000000000, 0.000000000000000000, 0.000000000000000000 ) ) ;
#297 = DIRECTION ( 'NONE',  ( -0.000000000000000000, -1.000000000000000000, -0.000000000000000000 ) ) ;
#298 = DIRECTION ( 'NONE',  ( 0.000000000000000000, 0.000000000000000000, -1.000000000000000000 ) ) ;
#299 = AXIS2_PLACEMENT_3D ( 'NONE', #188, #54, #29 ) ;
#300 = CLOSED_SHELL ( 'NONE', ( #202, #146, #251, #42 ) ) ;
#301 =( GEOMETRIC_REPRESENTATION_CONTEXT ( 3 ) GLOBAL_UNCERTAINTY_ASSIGNED_CONTEXT ( ( #165 ) ) GLOBAL_UNIT_ASSIGNED_CONTEXT ( ( #184, #215, #24 ) ) REPRESENTATION_CONTEXT ( 'NONE', 'WORKASPACE' ) );
#302 = EDGE_CURVE ( 'NONE', #284, #73, #199, .T. ) ;
#303 = ORIENTED_EDGE ( 'NONE', *, *, #291, .T. ) ;
#304 = SURFACE_STYLE_USAGE ( .BOTH. , #207 ) ;
#305 = ORIENTED_EDGE ( 'NONE', *, *, #97, .T. ) ;
#306 = FACE_OUTER_BOUND ( 'NONE', #49, .T. ) ;
#307 = EDGE_LOOP ( 'NONE', ( #105, #237 ) ) ;
#308 = DIRECTION ( 'NONE',  ( 0.000000000000000000, -0.000000000000000000, 1.000000000000000000 ) ) ;
#309 =( GEOMETRIC_REPRESENTATION_CONTEXT ( 3 ) GLOBAL_UNCERTAINTY_ASSIGNED_CONTEXT ( ( #254 ) ) GLOBAL_UNIT_ASSIGNED_CONTEXT ( ( #249, #292, #68 ) ) REPRESENTATION_CONTEXT ( 'NONE', 'WORKASPACE' ) );
ENDSEC;
END-ISO-10303-21;
