ISO-10303-21;
HEADER;
FILE_DESCRIPTION (( 'STEP AP214' ),
    '1' );
FILE_NAME ('83405.STEP',
    '2023-06-23T09:42:23',
    ( '' ),
    ( '' ),
    'SwSTEP 2.0',
    'SolidWorks 2023',
    '' );
FILE_SCHEMA (( 'AUTOMOTIVE_DESIGN' ));
ENDSEC;

DATA;
#1 =( CONVERSION_BASED_UNIT ( 'INCH', #266 ) LENGTH_UNIT ( ) NAMED_UNIT ( #104 ) );
#2 = UNCERTAINTY_MEASURE_WITH_UNIT (LENGTH_MEASURE( 1.000000000000000082E-05 ), #291, 'distance_accuracy_value', 'NONE');
#3 = CIRCLE ( 'NONE', #205, 0.06250000000000000000 ) ;
#4 = EDGE_CURVE ( 'NONE', #206, #158, #3, .T. ) ;
#5 = FACE_OUTER_BOUND ( 'NONE', #181, .T. ) ;
#6 = DIMENSIONAL_EXPONENTS ( 1.000000000000000000, 0.000000000000000000, 0.000000000000000000, 0.000000000000000000, 0.000000000000000000, 0.000000000000000000, 0.000000000000000000 ) ;
#7 = CARTESIAN_POINT ( 'NONE',  ( 0.06250000000000002776, 2.500000000000000000, 7.654042494670954463E-18 ) ) ;
#8 = DIRECTION ( 'NONE',  ( 3.265724797726278260E-17, 1.000000000000000000, -0.000000000000000000 ) ) ;
#9 = MECHANICAL_DESIGN_GEOMETRIC_PRESENTATION_REPRESENTATION (  '', ( #159 ), #28 ) ;
#10 = ADVANCED_FACE ( 'NONE', ( #288 ), #149, .F. ) ;
#11 = ORIENTED_EDGE ( 'NONE', *, *, #306, .T. ) ;
#12 = VERTEX_POINT ( 'NONE', #290 ) ;
#13 =( NAMED_UNIT ( * ) PLANE_ANGLE_UNIT ( ) SI_UNIT ( $, .RADIAN. ) );
#14 = ORIENTED_EDGE ( 'NONE', *, *, #217, .F. ) ;
#15 = COLOUR_RGB ( '',0.7921568627450980005, 0.8196078431372548767, 0.9333333333333333481 ) ;
#16 = ORIENTED_EDGE ( 'NONE', *, *, #217, .T. ) ;
#17 = EDGE_CURVE ( 'NONE', #209, #279, #38, .T. ) ;
#18 = AXIS2_PLACEMENT_3D ( 'NONE', #68, #243, #99 ) ;
#19 = DIRECTION ( 'NONE',  ( -0.000000000000000000, -1.000000000000000000, -0.000000000000000000 ) ) ;
#20 = FACE_OUTER_BOUND ( 'NONE', #305, .T. ) ;
#21 = PRESENTATION_STYLE_ASSIGNMENT (( #292 ) ) ;
#22 = ADVANCED_FACE ( 'NONE', ( #67 ), #167, .T. ) ;
#23 = PRESENTATION_LAYER_ASSIGNMENT (  '', '', ( #159 ) ) ;
#24 = MANIFOLD_SOLID_BREP ( 'Revolve - Tool Body (Straight Shanked)', #59 ) ;
#25 = CARTESIAN_POINT ( 'NONE',  ( 0.000000000000000000, 0.6250000000000000000, 0.000000000000000000 ) ) ;
#26 = FILL_AREA_STYLE_COLOUR ( '', #15 ) ;
#27 = SURFACE_STYLE_FILL_AREA ( #265 ) ;
#28 =( GEOMETRIC_REPRESENTATION_CONTEXT ( 3 ) GLOBAL_UNCERTAINTY_ASSIGNED_CONTEXT ( ( #2 ) ) GLOBAL_UNIT_ASSIGNED_CONTEXT ( ( #291, #32, #249 ) ) REPRESENTATION_CONTEXT ( 'NONE', 'WORKASPACE' ) );
#29 = CARTESIAN_POINT ( 'NONE',  ( 7.654042494670957545E-18, 0.000000000000000000, 0.06250000000000000000 ) ) ;
#30 = UNCERTAINTY_MEASURE_WITH_UNIT (LENGTH_MEASURE( 1.000000000000000082E-05 ), #261, 'distance_accuracy_value', 'NONE');
#31 = APPLICATION_CONTEXT ( 'automotive_design' ) ;
#32 =( NAMED_UNIT ( * ) PLANE_ANGLE_UNIT ( ) SI_UNIT ( $, .RADIAN. ) );
#33 = DIRECTION ( 'NONE',  ( 0.000000000000000000, 0.000000000000000000, -1.000000000000000000 ) ) ;
#34 = CARTESIAN_POINT ( 'NONE',  ( 0.06250000000000000000, 2.500000000000000000, 0.000000000000000000 ) ) ;
#35 = DIMENSIONAL_EXPONENTS ( 1.000000000000000000, 0.000000000000000000, 0.000000000000000000, 0.000000000000000000, 0.000000000000000000, 0.000000000000000000, 0.000000000000000000 ) ;
#36 = ORIENTED_EDGE ( 'NONE', *, *, #4, .T. ) ;
#37 = DIRECTION ( 'NONE',  ( -1.000000000000000000, 0.000000000000000000, 0.000000000000000000 ) ) ;
#38 = CIRCLE ( 'NONE', #196, 0.06250000000000000000 ) ;
#39 = VERTEX_POINT ( 'NONE', #58 ) ;
#40 = SURFACE_STYLE_USAGE ( .BOTH. , #182 ) ;
#41 = FILL_AREA_STYLE ('',( #162 ) ) ;
#42 = COLOUR_RGB ( '',1.000000000000000000, 0.000000000000000000, 0.000000000000000000 ) ;
#43 =( LENGTH_UNIT ( ) NAMED_UNIT ( * ) SI_UNIT ( $, .METRE. ) );
#44 = SURFACE_STYLE_FILL_AREA ( #65 ) ;
#45 =( GEOMETRIC_REPRESENTATION_CONTEXT ( 3 ) GLOBAL_UNCERTAINTY_ASSIGNED_CONTEXT ( ( #30 ) ) GLOBAL_UNIT_ASSIGNED_CONTEXT ( ( #261, #244, #190 ) ) REPRESENTATION_CONTEXT ( 'NONE', 'WORKASPACE' ) );
#46 = PRESENTATION_STYLE_ASSIGNMENT (( #95 ) ) ;
#47 =( NAMED_UNIT ( * ) PLANE_ANGLE_UNIT ( ) SI_UNIT ( $, .RADIAN. ) );
#48 = PRESENTATION_LAYER_ASSIGNMENT (  '', '', ( #189 ) ) ;
#49 = LENGTH_MEASURE_WITH_UNIT ( LENGTH_MEASURE( 0.02539999999999999897 ), #297 );
#50 = SURFACE_SIDE_STYLE ('',( #171 ) ) ;
#51 = DIRECTION ( 'NONE',  ( -0.000000000000000000, -1.000000000000000000, -0.000000000000000000 ) ) ;
#52 = AXIS2_PLACEMENT_3D ( 'NONE', #304, #108, #63 ) ;
#53 = ORIENTED_EDGE ( 'NONE', *, *, #92, .F. ) ;
#54 = FILL_AREA_STYLE_COLOUR ( '', #179 ) ;
#55 = ORIENTED_EDGE ( 'NONE', *, *, #92, .T. ) ;
#56 = ORIENTED_EDGE ( 'NONE', *, *, #232, .T. ) ;
#57 =( LENGTH_UNIT ( ) NAMED_UNIT ( * ) SI_UNIT ( $, .METRE. ) );
#58 = CARTESIAN_POINT ( 'NONE',  ( 7.654042494670957545E-18, 0.6250000000000000000, 0.06250000000000000000 ) ) ;
#59 = CLOSED_SHELL ( 'NONE', ( #252, #119, #239, #10 ) ) ;
#60 =( NAMED_UNIT ( * ) PLANE_ANGLE_UNIT ( ) SI_UNIT ( $, .RADIAN. ) );
#61 = DIRECTION ( 'NONE',  ( 0.000000000000000000, 1.000000000000000000, 0.000000000000000000 ) ) ;
#62 = CYLINDRICAL_SURFACE ( 'NONE', #125, 0.06250000000000000000 ) ;
#63 = DIRECTION ( 'NONE',  ( -1.000000000000000000, 0.000000000000000000, 0.000000000000000000 ) ) ;
#64 = APPLICATION_CONTEXT ( 'automotive_design' ) ;
#65 = FILL_AREA_STYLE ('',( #163 ) ) ;
#66 = CIRCLE ( 'NONE', #143, 0.06249999999999993755 ) ;
#67 = FACE_OUTER_BOUND ( 'NONE', #132, .T. ) ;
#68 = CARTESIAN_POINT ( 'NONE',  ( 0.000000000000000000, 0.6250000000000000000, 0.000000000000000000 ) ) ;
#69 =( LENGTH_UNIT ( ) NAMED_UNIT ( * ) SI_UNIT ( $, .METRE. ) );
#70 = ADVANCED_FACE ( 'NONE', ( #20 ), #62, .T. ) ;
#71 = PRESENTATION_LAYER_ASSIGNMENT (  '', '', ( #102 ) ) ;
#72 = UNCERTAINTY_MEASURE_WITH_UNIT (LENGTH_MEASURE( 1.000000000000000082E-05 ), #113, 'distance_accuracy_value', 'NONE');
#73 = SURFACE_SIDE_STYLE ('',( #295 ) ) ;
#74 = UNCERTAINTY_MEASURE_WITH_UNIT (LENGTH_MEASURE( 1.000000000000000082E-05 ), #199, 'distance_accuracy_value', 'NONE');
#75 = CARTESIAN_POINT ( 'NONE',  ( 0.06250000000000000000, 2.500000000000000000, 7.654042494670956004E-18 ) ) ;
#76 = AXIS2_PLACEMENT_3D ( 'NONE', #270, #61, #208 ) ;
#77 = DIRECTION ( 'NONE',  ( 0.000000000000000000, 0.000000000000000000, -1.000000000000000000 ) ) ;
#78 = CARTESIAN_POINT ( 'NONE',  ( 3.332799517026356512E-35, 0.6250000000000000000, 0.000000000000000000 ) ) ;
#79 = DIRECTION ( 'NONE',  ( -0.000000000000000000, -1.000000000000000000, -0.000000000000000000 ) ) ;
#80 = DIRECTION ( 'NONE',  ( -1.000000000000000000, 3.265724797726278260E-17, 0.000000000000000000 ) ) ;
#81 = AXIS2_PLACEMENT_3D ( 'NONE', #247, #268, #77 ) ;
#82 = COLOUR_RGB ( '',1.000000000000000000, 0.000000000000000000, 0.000000000000000000 ) ;
#83 = FACE_OUTER_BOUND ( 'NONE', #155, .T. ) ;
#84 = ORIENTED_EDGE ( 'NONE', *, *, #303, .F. ) ;
#85 = SURFACE_STYLE_FILL_AREA ( #228 ) ;
#86 =( LENGTH_UNIT ( ) NAMED_UNIT ( * ) SI_UNIT ( $, .METRE. ) );
#87 = EDGE_LOOP ( 'NONE', ( #14, #55, #186, #84 ) ) ;
#88 = ORIENTED_EDGE ( 'NONE', *, *, #232, .F. ) ;
#89 = EDGE_CURVE ( 'NONE', #299, #224, #66, .T. ) ;
#90 = CARTESIAN_POINT ( 'NONE',  ( 0.000000000000000000, 0.6250000000000000000, 0.000000000000000000 ) ) ;
#91 = PRESENTATION_STYLE_ASSIGNMENT (( #150 ) ) ;
#92 = EDGE_CURVE ( 'NONE', #39, #12, #264, .T. ) ;
#93 = CARTESIAN_POINT ( 'NONE',  ( 6.123233995736772199E-17, 2.500000000000000000, 0.000000000000000000 ) ) ;
#94 = MECHANICAL_DESIGN_GEOMETRIC_PRESENTATION_REPRESENTATION (  '', ( #189 ), #278 ) ;
#95 = SURFACE_STYLE_USAGE ( .BOTH. , #267 ) ;
#96 =( GEOMETRIC_REPRESENTATION_CONTEXT ( 3 ) GLOBAL_UNCERTAINTY_ASSIGNED_CONTEXT ( ( #200 ) ) GLOBAL_UNIT_ASSIGNED_CONTEXT ( ( #259, #307, #238 ) ) REPRESENTATION_CONTEXT ( 'NONE', 'WORKASPACE' ) );
#97 = FILL_AREA_STYLE_COLOUR ( '', #272 ) ;
#98 = CARTESIAN_POINT ( 'NONE',  ( 6.123233995736772199E-17, 2.500000000000000000, 0.000000000000000000 ) ) ;
#99 = DIRECTION ( 'NONE',  ( -1.000000000000000000, 0.000000000000000000, 0.000000000000000000 ) ) ;
#100 = FACE_OUTER_BOUND ( 'NONE', #87, .T. ) ;
#101 = EDGE_CURVE ( 'NONE', #279, #209, #246, .T. ) ;
#102 = STYLED_ITEM ( 'NONE', ( #91 ), #24 ) ;
#103 = PRODUCT_CONTEXT ( 'NONE', #31, 'mechanical' ) ;
#104 = DIMENSIONAL_EXPONENTS ( 1.000000000000000000, 0.000000000000000000, 0.000000000000000000, 0.000000000000000000, 0.000000000000000000, 0.000000000000000000, 0.000000000000000000 ) ;
#105 = ADVANCED_FACE ( 'NONE', ( #100 ), #120, .T. ) ;
#106 = DIRECTION ( 'NONE',  ( 3.265724797726278260E-17, 1.000000000000000000, -0.000000000000000000 ) ) ;
#107 = DIMENSIONAL_EXPONENTS ( 1.000000000000000000, 0.000000000000000000, 0.000000000000000000, 0.000000000000000000, 0.000000000000000000, 0.000000000000000000, 0.000000000000000000 ) ;
#108 = DIRECTION ( 'NONE',  ( 3.265724797726278260E-17, 1.000000000000000000, -0.000000000000000000 ) ) ;
#109 = APPLICATION_PROTOCOL_DEFINITION ( 'draft international standard', 'automotive_design', 1998, #64 ) ;
#110 = AXIS2_PLACEMENT_3D ( 'NONE', #98, #106, #230 ) ;
#111 = ORIENTED_EDGE ( 'NONE', *, *, #303, .T. ) ;
#112 = AXIS2_PLACEMENT_3D ( 'NONE', #241, #142, #194 ) ;
#113 =( CONVERSION_BASED_UNIT ( 'INCH', #49 ) LENGTH_UNIT ( ) NAMED_UNIT ( #180 ) );
#114 = ORIENTED_EDGE ( 'NONE', *, *, #191, .T. ) ;
#115 = CARTESIAN_POINT ( 'NONE',  ( 0.000000000000000000, 0.000000000000000000, 0.000000000000000000 ) ) ;
#116 = FACE_OUTER_BOUND ( 'NONE', #256, .T. ) ;
#117 = MECHANICAL_DESIGN_GEOMETRIC_PRESENTATION_REPRESENTATION (  '', ( #102 ), #298 ) ;
#118 = CIRCLE ( 'NONE', #110, 0.06249999999999993755 ) ;
#119 = ADVANCED_FACE ( 'NONE', ( #5 ), #130, .F. ) ;
#120 = CYLINDRICAL_SURFACE ( 'NONE', #147, 0.06250000000000000000 ) ;
#121 = DIRECTION ( 'NONE',  ( 0.000000000000000000, -1.000000000000000000, -0.000000000000000000 ) ) ;
#122 = MECHANICAL_DESIGN_GEOMETRIC_PRESENTATION_REPRESENTATION (  '', ( #177 ), #45 ) ;
#123 = UNCERTAINTY_MEASURE_WITH_UNIT (LENGTH_MEASURE( 1.000000000000000082E-05 ), #1, 'distance_accuracy_value', 'NONE');
#124 = AXIS2_PLACEMENT_3D ( 'NONE', #151, #226, #223 ) ;
#125 = AXIS2_PLACEMENT_3D ( 'NONE', #145, #19, #188 ) ;
#126 = CIRCLE ( 'NONE', #81, 0.06250000000000000000 ) ;
#127 = CARTESIAN_POINT ( 'NONE',  ( 7.654042494670957545E-18, 0.000000000000000000, 0.06250000000000000000 ) ) ;
#128 = APPLICATION_PROTOCOL_DEFINITION ( 'draft international standard', 'automotive_design', 1998, #31 ) ;
#129 = DIMENSIONAL_EXPONENTS ( 1.000000000000000000, 0.000000000000000000, 0.000000000000000000, 0.000000000000000000, 0.000000000000000000, 0.000000000000000000, 0.000000000000000000 ) ;
#130 = PLANE ( 'NONE',  #166 ) ;
#131 = DIRECTION ( 'NONE',  ( -3.265724797726278260E-17, -1.000000000000000000, 0.000000000000000000 ) ) ;
#132 = EDGE_LOOP ( 'NONE', ( #36, #111 ) ) ;
#133 = CARTESIAN_POINT ( 'NONE',  ( 0.06250000000000000000, 0.6250000000000000000, 7.654042494670956004E-18 ) ) ;
#134 = PRODUCT_DEFINITION_FORMATION_WITH_SPECIFIED_SOURCE ( 'ANY', '', #275, .NOT_KNOWN. ) ;
#135 = EDGE_LOOP ( 'NONE', ( #88, #137, #114, #211 ) ) ;
#136 =( NAMED_UNIT ( * ) SI_UNIT ( $, .STERADIAN. ) SOLID_ANGLE_UNIT ( ) );
#137 = ORIENTED_EDGE ( 'NONE', *, *, #101, .T. ) ;
#138 = PRESENTATION_STYLE_ASSIGNMENT (( #40 ) ) ;
#139 = VECTOR ( 'NONE', #175, 39.37007874015748143 ) ;
#140 = CARTESIAN_POINT ( 'NONE',  ( 0.000000000000000000, 0.000000000000000000, 0.000000000000000000 ) ) ;
#141 = SURFACE_SIDE_STYLE ('',( #44 ) ) ;
#142 = DIRECTION ( 'NONE',  ( -0.000000000000000000, -1.000000000000000000, -0.000000000000000000 ) ) ;
#143 = AXIS2_PLACEMENT_3D ( 'NONE', #93, #262, #287 ) ;
#144 = DIRECTION ( 'NONE',  ( 3.265724797726278260E-17, 1.000000000000000000, -0.000000000000000000 ) ) ;
#145 = CARTESIAN_POINT ( 'NONE',  ( 0.000000000000000000, 0.000000000000000000, 0.000000000000000000 ) ) ;
#146 = LENGTH_MEASURE_WITH_UNIT ( LENGTH_MEASURE( 0.02539999999999999897 ), #242 );
#147 = AXIS2_PLACEMENT_3D ( 'NONE', #273, #51, #33 ) ;
#148 = PRODUCT_DEFINITION_CONTEXT ( 'detailed design', #64, 'design' ) ;
#149 = PLANE ( 'NONE',  #257 ) ;
#150 = SURFACE_STYLE_USAGE ( .BOTH. , #50 ) ;
#151 = CARTESIAN_POINT ( 'NONE',  ( 0.000000000000000000, 0.000000000000000000, 0.000000000000000000 ) ) ;
#152 = ORIENTED_EDGE ( 'NONE', *, *, #191, .F. ) ;
#153 =( GEOMETRIC_REPRESENTATION_CONTEXT ( 3 ) GLOBAL_UNCERTAINTY_ASSIGNED_CONTEXT ( ( #74 ) ) GLOBAL_UNIT_ASSIGNED_CONTEXT ( ( #199, #60, #285 ) ) REPRESENTATION_CONTEXT ( 'NONE', 'WORKASPACE' ) );
#154 = DIRECTION ( 'NONE',  ( 3.265724797726278260E-17, 1.000000000000000000, -0.000000000000000000 ) ) ;
#155 = EDGE_LOOP ( 'NONE', ( #253, #53 ) ) ;
#156 = ORIENTED_EDGE ( 'NONE', *, *, #89, .F. ) ;
#157 =( NAMED_UNIT ( * ) SI_UNIT ( $, .STERADIAN. ) SOLID_ANGLE_UNIT ( ) );
#158 = VERTEX_POINT ( 'NONE', #29 ) ;
#159 = STYLED_ITEM ( 'NONE', ( #21 ), #105 ) ;
#160 = CYLINDRICAL_SURFACE ( 'NONE', #52, 0.06249999999999996531 ) ;
#161 = CARTESIAN_POINT ( 'NONE',  ( -0.06249999999999988204, 2.500000000000000000, 0.000000000000000000 ) ) ;
#162 = FILL_AREA_STYLE_COLOUR ( '', #82 ) ;
#163 = FILL_AREA_STYLE_COLOUR ( '', #277 ) ;
#164 = PRODUCT_DEFINITION ( 'UNKNOWN', '', #134, #148 ) ;
#165 = UNCERTAINTY_MEASURE_WITH_UNIT (LENGTH_MEASURE( 1.000000000000000082E-05 ), #183, 'distance_accuracy_value', 'NONE');
#166 = AXIS2_PLACEMENT_3D ( 'NONE', #78, #269, #80 ) ;
#167 = PLANE ( 'NONE',  #219 ) ;
#168 = DIMENSIONAL_EXPONENTS ( 1.000000000000000000, 0.000000000000000000, 0.000000000000000000, 0.000000000000000000, 0.000000000000000000, 0.000000000000000000, 0.000000000000000000 ) ;
#169 = PRESENTATION_STYLE_ASSIGNMENT (( #170 ) ) ;
#170 = SURFACE_STYLE_USAGE ( .BOTH. , #73 ) ;
#171 = SURFACE_STYLE_FILL_AREA ( #193 ) ;
#172 = LINE ( 'NONE', #248, #187 ) ;
#173 = SHAPE_DEFINITION_REPRESENTATION ( #221, #215 ) ;
#174 = DIRECTION ( 'NONE',  ( 0.000000000000000000, 0.000000000000000000, -1.000000000000000000 ) ) ;
#175 = DIRECTION ( 'NONE',  ( -0.000000000000000000, -1.000000000000000000, -0.000000000000000000 ) ) ;
#176 = PRESENTATION_LAYER_ASSIGNMENT (  '', '', ( #251 ) ) ;
#177 = STYLED_ITEM ( 'NONE', ( #46 ), #22 ) ;
#178 = ORIENTED_EDGE ( 'NONE', *, *, #17, .T. ) ;
#179 = COLOUR_RGB ( '',1.000000000000000000, 0.000000000000000000, 0.000000000000000000 ) ;
#180 = DIMENSIONAL_EXPONENTS ( 1.000000000000000000, 0.000000000000000000, 0.000000000000000000, 0.000000000000000000, 0.000000000000000000, 0.000000000000000000, 0.000000000000000000 ) ;
#181 = EDGE_LOOP ( 'NONE', ( #300, #227 ) ) ;
#182 = SURFACE_SIDE_STYLE ('',( #85 ) ) ;
#183 =( CONVERSION_BASED_UNIT ( 'INCH', #280 ) LENGTH_UNIT ( ) NAMED_UNIT ( #107 ) );
#184 = ORIENTED_EDGE ( 'NONE', *, *, #89, .T. ) ;
#185 = LENGTH_MEASURE_WITH_UNIT ( LENGTH_MEASURE( 0.02539999999999999897 ), #231 );
#186 = ORIENTED_EDGE ( 'NONE', *, *, #222, .T. ) ;
#187 = VECTOR ( 'NONE', #8, 39.37007874015748143 ) ;
#188 = DIRECTION ( 'NONE',  ( 0.000000000000000000, 0.000000000000000000, -1.000000000000000000 ) ) ;
#189 = STYLED_ITEM ( 'NONE', ( #169 ), #233 ) ;
#190 =( NAMED_UNIT ( * ) SI_UNIT ( $, .STERADIAN. ) SOLID_ANGLE_UNIT ( ) );
#191 = EDGE_CURVE ( 'NONE', #209, #299, #172, .T. ) ;
#192 = LENGTH_MEASURE_WITH_UNIT ( LENGTH_MEASURE( 0.02539999999999999897 ), #69 );
#193 = FILL_AREA_STYLE ('',( #97 ) ) ;
#194 = DIRECTION ( 'NONE',  ( 0.000000000000000000, 0.000000000000000000, -1.000000000000000000 ) ) ;
#195 = PRODUCT_RELATED_PRODUCT_CATEGORY ( 'part', '', ( #275 ) ) ;
#196 = AXIS2_PLACEMENT_3D ( 'NONE', #25, #144, #293 ) ;
#197 = FILL_AREA_STYLE_COLOUR ( '', #42 ) ;
#198 = LINE ( 'NONE', #7, #289 ) ;
#199 =( CONVERSION_BASED_UNIT ( 'INCH', #185 ) LENGTH_UNIT ( ) NAMED_UNIT ( #35 ) );
#200 = UNCERTAINTY_MEASURE_WITH_UNIT (LENGTH_MEASURE( 1.000000000000000082E-05 ), #259, 'distance_accuracy_value', 'NONE');
#201 = LINE ( 'NONE', #127, #139 ) ;
#202 = MECHANICAL_DESIGN_GEOMETRIC_PRESENTATION_REPRESENTATION (  '', ( #250 ), #294 ) ;
#203 = CARTESIAN_POINT ( 'NONE',  ( -0.06250000000000000000, 0.6250000000000000000, 0.000000000000000000 ) ) ;
#204 = DIRECTION ( 'NONE',  ( 0.000000000000000000, 0.000000000000000000, -1.000000000000000000 ) ) ;
#205 = AXIS2_PLACEMENT_3D ( 'NONE', #115, #79, #174 ) ;
#206 = VERTEX_POINT ( 'NONE', #225 ) ;
#207 = CIRCLE ( 'NONE', #236, 0.06250000000000000000 ) ;
#208 = DIRECTION ( 'NONE',  ( 0.000000000000000000, -0.000000000000000000, 1.000000000000000000 ) ) ;
#209 = VERTEX_POINT ( 'NONE', #203 ) ;
#210 = LENGTH_MEASURE_WITH_UNIT ( LENGTH_MEASURE( 0.02539999999999999897 ), #57 );
#211 = ORIENTED_EDGE ( 'NONE', *, *, #306, .F. ) ;
#212 = PRESENTATION_LAYER_ASSIGNMENT (  '', '', ( #177 ) ) ;
#213 = AXIS2_PLACEMENT_3D ( 'NONE', #255, #301, #37 ) ;
#214 = PRESENTATION_STYLE_ASSIGNMENT (( #260 ) ) ;
#215 = ADVANCED_BREP_SHAPE_REPRESENTATION ( '83405', ( #233, #24, #124 ), #153 ) ;
#216 = VECTOR ( 'NONE', #276, 39.37007874015748143 ) ;
#217 = EDGE_CURVE ( 'NONE', #39, #158, #201, .T. ) ;
#218 = FILL_AREA_STYLE ('',( #26 ) ) ;
#219 = AXIS2_PLACEMENT_3D ( 'NONE', #140, #121, #240 ) ;
#220 = LINE ( 'NONE', #296, #216 ) ;
#221 = PRODUCT_DEFINITION_SHAPE ( 'NONE', 'NONE',  #164 ) ;
#222 = EDGE_CURVE ( 'NONE', #12, #206, #220, .T. ) ;
#223 = DIRECTION ( 'NONE',  ( 1.000000000000000000, 0.000000000000000000, 0.000000000000000000 ) ) ;
#224 = VERTEX_POINT ( 'NONE', #75 ) ;
#225 = CARTESIAN_POINT ( 'NONE',  ( 0.000000000000000000, 0.000000000000000000, -0.06250000000000000000 ) ) ;
#226 = DIRECTION ( 'NONE',  ( 0.000000000000000000, 0.000000000000000000, 1.000000000000000000 ) ) ;
#227 = ORIENTED_EDGE ( 'NONE', *, *, #101, .F. ) ;
#228 = FILL_AREA_STYLE ('',( #54 ) ) ;
#229 = ORIENTED_EDGE ( 'NONE', *, *, #222, .F. ) ;
#230 = DIRECTION ( 'NONE',  ( -1.000000000000000000, 0.000000000000000000, 0.000000000000000000 ) ) ;
#231 =( LENGTH_UNIT ( ) NAMED_UNIT ( * ) SI_UNIT ( $, .METRE. ) );
#232 = EDGE_CURVE ( 'NONE', #279, #224, #198, .T. ) ;
#233 = MANIFOLD_SOLID_BREP ( 'Revolve - Cutting Edge', #235 ) ;
#234 = PLANE ( 'NONE',  #76 ) ;
#235 = CLOSED_SHELL ( 'NONE', ( #70, #282, #105, #22 ) ) ;
#236 = AXIS2_PLACEMENT_3D ( 'NONE', #90, #254, #204 ) ;
#237 = SURFACE_STYLE_FILL_AREA ( #41 ) ;
#238 =( NAMED_UNIT ( * ) SI_UNIT ( $, .STERADIAN. ) SOLID_ANGLE_UNIT ( ) );
#239 = ADVANCED_FACE ( 'NONE', ( #286 ), #271, .T. ) ;
#240 = DIRECTION ( 'NONE',  ( 0.000000000000000000, 0.000000000000000000, -1.000000000000000000 ) ) ;
#241 = CARTESIAN_POINT ( 'NONE',  ( 0.000000000000000000, 0.6250000000000000000, 0.000000000000000000 ) ) ;
#242 =( LENGTH_UNIT ( ) NAMED_UNIT ( * ) SI_UNIT ( $, .METRE. ) );
#243 = DIRECTION ( 'NONE',  ( 3.265724797726278260E-17, 1.000000000000000000, -0.000000000000000000 ) ) ;
#244 =( NAMED_UNIT ( * ) PLANE_ANGLE_UNIT ( ) SI_UNIT ( $, .RADIAN. ) );
#245 = MECHANICAL_DESIGN_GEOMETRIC_PRESENTATION_REPRESENTATION (  '', ( #251 ), #96 ) ;
#246 = CIRCLE ( 'NONE', #18, 0.06250000000000000000 ) ;
#247 = CARTESIAN_POINT ( 'NONE',  ( 0.000000000000000000, 0.000000000000000000, 0.000000000000000000 ) ) ;
#248 = CARTESIAN_POINT ( 'NONE',  ( -0.06249999999999990286, 2.500000000000000000, 0.000000000000000000 ) ) ;
#249 =( NAMED_UNIT ( * ) SI_UNIT ( $, .STERADIAN. ) SOLID_ANGLE_UNIT ( ) );
#250 = STYLED_ITEM ( 'NONE', ( #214 ), #70 ) ;
#251 = STYLED_ITEM ( 'NONE', ( #138 ), #282 ) ;
#252 = ADVANCED_FACE ( 'NONE', ( #116 ), #160, .T. ) ;
#253 = ORIENTED_EDGE ( 'NONE', *, *, #274, .F. ) ;
#254 = DIRECTION ( 'NONE',  ( -0.000000000000000000, -1.000000000000000000, -0.000000000000000000 ) ) ;
#255 = CARTESIAN_POINT ( 'NONE',  ( 6.123233995736772199E-17, 2.500000000000000000, 0.000000000000000000 ) ) ;
#256 = EDGE_LOOP ( 'NONE', ( #178, #56, #156, #152 ) ) ;
#257 = AXIS2_PLACEMENT_3D ( 'NONE', #34, #131, #263 ) ;
#258 = EDGE_LOOP ( 'NONE', ( #184, #11 ) ) ;
#259 =( CONVERSION_BASED_UNIT ( 'INCH', #210 ) LENGTH_UNIT ( ) NAMED_UNIT ( #6 ) );
#260 = SURFACE_STYLE_USAGE ( .BOTH. , #308 ) ;
#261 =( CONVERSION_BASED_UNIT ( 'INCH', #146 ) LENGTH_UNIT ( ) NAMED_UNIT ( #129 ) );
#262 = DIRECTION ( 'NONE',  ( 3.265724797726278260E-17, 1.000000000000000000, -0.000000000000000000 ) ) ;
#263 = DIRECTION ( 'NONE',  ( 1.000000000000000000, -3.265724797726278260E-17, 0.000000000000000000 ) ) ;
#264 = CIRCLE ( 'NONE', #112, 0.06250000000000000000 ) ;
#265 = FILL_AREA_STYLE ('',( #197 ) ) ;
#266 = LENGTH_MEASURE_WITH_UNIT ( LENGTH_MEASURE( 0.02539999999999999897 ), #43 );
#267 = SURFACE_SIDE_STYLE ('',( #27 ) ) ;
#268 = DIRECTION ( 'NONE',  ( -0.000000000000000000, -1.000000000000000000, -0.000000000000000000 ) ) ;
#269 = DIRECTION ( 'NONE',  ( 3.265724797726278260E-17, 1.000000000000000000, -0.000000000000000000 ) ) ;
#270 = CARTESIAN_POINT ( 'NONE',  ( 0.000000000000000000, 0.6250000000000000000, 0.000000000000000000 ) ) ;
#271 = CYLINDRICAL_SURFACE ( 'NONE', #213, 0.06249999999999996531 ) ;
#272 = COLOUR_RGB ( '',0.7921568627450980005, 0.8196078431372548767, 0.9333333333333333481 ) ;
#273 = CARTESIAN_POINT ( 'NONE',  ( 0.000000000000000000, 0.000000000000000000, 0.000000000000000000 ) ) ;
#274 = EDGE_CURVE ( 'NONE', #12, #39, #207, .T. ) ;
#275 = PRODUCT ( '83405', '83405', '', ( #103 ) ) ;
#276 = DIRECTION ( 'NONE',  ( -0.000000000000000000, -1.000000000000000000, -0.000000000000000000 ) ) ;
#277 = COLOUR_RGB ( '',1.000000000000000000, 0.000000000000000000, 0.000000000000000000 ) ;
#278 =( GEOMETRIC_REPRESENTATION_CONTEXT ( 3 ) GLOBAL_UNCERTAINTY_ASSIGNED_CONTEXT ( ( #72 ) ) GLOBAL_UNIT_ASSIGNED_CONTEXT ( ( #113, #13, #136 ) ) REPRESENTATION_CONTEXT ( 'NONE', 'WORKASPACE' ) );
#279 = VERTEX_POINT ( 'NONE', #133 ) ;
#280 = LENGTH_MEASURE_WITH_UNIT ( LENGTH_MEASURE( 0.02539999999999999897 ), #86 );
#281 = ORIENTED_EDGE ( 'NONE', *, *, #4, .F. ) ;
#282 = ADVANCED_FACE ( 'NONE', ( #83 ), #234, .T. ) ;
#283 =( NAMED_UNIT ( * ) PLANE_ANGLE_UNIT ( ) SI_UNIT ( $, .RADIAN. ) );
#284 = PRESENTATION_LAYER_ASSIGNMENT (  '', '', ( #250 ) ) ;
#285 =( NAMED_UNIT ( * ) SI_UNIT ( $, .STERADIAN. ) SOLID_ANGLE_UNIT ( ) );
#286 = FACE_OUTER_BOUND ( 'NONE', #135, .T. ) ;
#287 = DIRECTION ( 'NONE',  ( -1.000000000000000000, 0.000000000000000000, 0.000000000000000000 ) ) ;
#288 = FACE_OUTER_BOUND ( 'NONE', #258, .T. ) ;
#289 = VECTOR ( 'NONE', #154, 39.37007874015748143 ) ;
#290 = CARTESIAN_POINT ( 'NONE',  ( 0.000000000000000000, 0.6250000000000000000, -0.06250000000000000000 ) ) ;
#291 =( CONVERSION_BASED_UNIT ( 'INCH', #192 ) LENGTH_UNIT ( ) NAMED_UNIT ( #168 ) );
#292 = SURFACE_STYLE_USAGE ( .BOTH. , #141 ) ;
#293 = DIRECTION ( 'NONE',  ( -1.000000000000000000, 0.000000000000000000, 0.000000000000000000 ) ) ;
#294 =( GEOMETRIC_REPRESENTATION_CONTEXT ( 3 ) GLOBAL_UNCERTAINTY_ASSIGNED_CONTEXT ( ( #123 ) ) GLOBAL_UNIT_ASSIGNED_CONTEXT ( ( #1, #47, #309 ) ) REPRESENTATION_CONTEXT ( 'NONE', 'WORKASPACE' ) );
#295 = SURFACE_STYLE_FILL_AREA ( #218 ) ;
#296 = CARTESIAN_POINT ( 'NONE',  ( 0.000000000000000000, 0.000000000000000000, -0.06250000000000000000 ) ) ;
#297 =( LENGTH_UNIT ( ) NAMED_UNIT ( * ) SI_UNIT ( $, .METRE. ) );
#298 =( GEOMETRIC_REPRESENTATION_CONTEXT ( 3 ) GLOBAL_UNCERTAINTY_ASSIGNED_CONTEXT ( ( #165 ) ) GLOBAL_UNIT_ASSIGNED_CONTEXT ( ( #183, #283, #157 ) ) REPRESENTATION_CONTEXT ( 'NONE', 'WORKASPACE' ) );
#299 = VERTEX_POINT ( 'NONE', #161 ) ;
#300 = ORIENTED_EDGE ( 'NONE', *, *, #17, .F. ) ;
#301 = DIRECTION ( 'NONE',  ( 3.265724797726278260E-17, 1.000000000000000000, -0.000000000000000000 ) ) ;
#302 = ORIENTED_EDGE ( 'NONE', *, *, #274, .T. ) ;
#303 = EDGE_CURVE ( 'NONE', #158, #206, #126, .T. ) ;
#304 = CARTESIAN_POINT ( 'NONE',  ( 6.123233995736772199E-17, 2.500000000000000000, 0.000000000000000000 ) ) ;
#305 = EDGE_LOOP ( 'NONE', ( #302, #16, #281, #229 ) ) ;
#306 = EDGE_CURVE ( 'NONE', #224, #299, #118, .T. ) ;
#307 =( NAMED_UNIT ( * ) PLANE_ANGLE_UNIT ( ) SI_UNIT ( $, .RADIAN. ) );
#308 = SURFACE_SIDE_STYLE ('',( #237 ) ) ;
#309 =( NAMED_UNIT ( * ) SI_UNIT ( $, .STERADIAN. ) SOLID_ANGLE_UNIT ( ) );
ENDSEC;
END-ISO-10303-21;
