ISO-10303-21;
HEADER;
FILE_DESCRIPTION (( 'STEP AP214' ),
    '1' );
FILE_NAME ('Micro_BEMM-080-2X.STEP',
    '2021-09-03T13:29:24',
    ( '' ),
    ( '' ),
    'SwSTEP 2.0',
    'SolidWorks 2020',
    '' );
FILE_SCHEMA (( 'AUTOMOTIVE_DESIGN' ));
ENDSEC;

DATA;
#1 = DIRECTION ( 'NONE',  ( 0.1736481776669312471, 0.0000000000000000000, 0.9848077530122077983 ) ) ;
#2 = EDGE_CURVE ( 'NONE', #238, #4, #231, .T. ) ;
#3 = DIRECTION ( 'NONE',  ( 1.000000000000000000, 0.0000000000000000000, 0.0000000000000000000 ) ) ;
#4 = VERTEX_POINT ( 'NONE', #78 ) ;
#5 = VERTEX_POINT ( 'NONE', #303 ) ;
#6 = EDGE_CURVE ( 'NONE', #209, #62, #131, .T. ) ;
#7 = ORIENTED_EDGE ( 'NONE', *, *, #200, .T. ) ;
#8 = VECTOR ( 'NONE', #206, 39.37007874015748854 ) ;
#9 = ORIENTED_EDGE ( 'NONE', *, *, #42, .T. ) ;
#10 = CARTESIAN_POINT ( 'NONE',  ( 0.0000000000000000000, 0.0000000000000000000, 2.480315000000000047 ) ) ;
#11 = DIRECTION ( 'NONE',  ( 1.000000000000000000, 0.0000000000000000000, 0.0000000000000000000 ) ) ;
#12 = AXIS2_PLACEMENT_3D ( 'NONE', #116, #167, #11 ) ;
#13 = FACE_OUTER_BOUND ( 'NONE', #280, .T. ) ;
#14 =( CONVERSION_BASED_UNIT ( 'INCH', #34 ) LENGTH_UNIT ( ) NAMED_UNIT ( #110 ) );
#15 = ADVANCED_FACE ( 'NONE', ( #208 ), #57, .T. ) ;
#16 = DIRECTION ( 'NONE',  ( -0.7071067811865627828, 0.0000000000000000000, -0.7071067811865321406 ) ) ;
#17 = DIRECTION ( 'NONE',  ( 0.0000000000000000000, 1.000000000000000000, 0.0000000000000000000 ) ) ;
#18 = LINE ( 'NONE', #294, #236 ) ;
#19 = DIRECTION ( 'NONE',  ( -1.000000000000000000, 0.0000000000000000000, 0.0000000000000000000 ) ) ;
#20 = EDGE_CURVE ( 'NONE', #62, #209, #295, .T. ) ;
#21 = DIRECTION ( 'NONE',  ( -1.224646799147353207E-16, -0.0000000000000000000, -1.000000000000000000 ) ) ;
#22 =( NAMED_UNIT ( * ) SI_UNIT ( $, .STERADIAN. ) SOLID_ANGLE_UNIT ( ) );
#23 = CIRCLE ( 'NONE', #52, 0.1573230194999999942 ) ;
#24 = AXIS2_PLACEMENT_3D ( 'NONE', #186, #107, #3 ) ;
#25 = AXIS2_PLACEMENT_3D ( 'NONE', #223, #193, #315 ) ;
#26 =( GEOMETRIC_REPRESENTATION_CONTEXT ( 3 ) GLOBAL_UNCERTAINTY_ASSIGNED_CONTEXT ( ( #302 ) ) GLOBAL_UNIT_ASSIGNED_CONTEXT ( ( #41, #91, #169 ) ) REPRESENTATION_CONTEXT ( 'NONE', 'WORKASPACE' ) );
#27 = EDGE_CURVE ( 'NONE', #282, #213, #214, .T. ) ;
#28 = PRODUCT_RELATED_PRODUCT_CATEGORY ( 'part', '', ( #55 ) ) ;
#29 = DIRECTION ( 'NONE',  ( 0.0000000000000000000, 0.0000000000000000000, 1.000000000000000000 ) ) ;
#30 = ORIENTED_EDGE ( 'NONE', *, *, #118, .F. ) ;
#31 = ORIENTED_EDGE ( 'NONE', *, *, #103, .F. ) ;
#32 = ORIENTED_EDGE ( 'NONE', *, *, #248, .F. ) ;
#33 = ORIENTED_EDGE ( 'NONE', *, *, #6, .T. ) ;
#34 = LENGTH_MEASURE_WITH_UNIT ( LENGTH_MEASURE( 0.02539999999999999897 ), #67 );
#35 = CONICAL_SURFACE ( 'NONE', #266, 0.1424804999999990940, 0.7853981633974699283 ) ;
#36 = ORIENTED_EDGE ( 'NONE', *, *, #150, .T. ) ;
#37 = VECTOR ( 'NONE', #1, 39.37007874015748143 ) ;
#38 = DIRECTION ( 'NONE',  ( 1.000000000000000000, 0.0000000000000000000, 0.0000000000000000000 ) ) ;
#39 = LINE ( 'NONE', #194, #284 ) ;
#40 = CYLINDRICAL_SURFACE ( 'NONE', #197, 0.1574804999999999955 ) ;
#41 =( CONVERSION_BASED_UNIT ( 'INCH', #220 ) LENGTH_UNIT ( ) NAMED_UNIT ( #168 ) );
#42 = EDGE_CURVE ( 'NONE', #235, #4, #69, .T. ) ;
#43 = DIRECTION ( 'NONE',  ( -0.0000000000000000000, -0.0000000000000000000, -1.000000000000000000 ) ) ;
#44 = DIRECTION ( 'NONE',  ( 1.224646799147353207E-16, 1.000000000000000000, -0.0000000000000000000 ) ) ;
#45 = PLANE ( 'NONE',  #25 ) ;
#46 = FILL_AREA_STYLE_COLOUR ( '', #73 ) ;
#47 = AXIS2_PLACEMENT_3D ( 'NONE', #182, #297, #127 ) ;
#48 = DIRECTION ( 'NONE',  ( 1.224646799147353207E-16, 0.0000000000000000000, 1.000000000000000000 ) ) ;
#49 =( LENGTH_UNIT ( ) NAMED_UNIT ( * ) SI_UNIT ( $, .METRE. ) );
#50 = DIRECTION ( 'NONE',  ( 1.000000000000000000, 0.0000000000000000000, 0.0000000000000000000 ) ) ;
#51 = DIRECTION ( 'NONE',  ( -1.224646799147353207E-16, -0.0000000000000000000, -1.000000000000000000 ) ) ;
#52 = AXIS2_PLACEMENT_3D ( 'NONE', #269, #48, #99 ) ;
#53 =( GEOMETRIC_REPRESENTATION_CONTEXT ( 3 ) GLOBAL_UNCERTAINTY_ASSIGNED_CONTEXT ( ( #260 ) ) GLOBAL_UNIT_ASSIGNED_CONTEXT ( ( #156, #204, #22 ) ) REPRESENTATION_CONTEXT ( 'NONE', 'WORKASPACE' ) );
#54 = EDGE_CURVE ( 'NONE', #166, #305, #144, .T. ) ;
#55 = PRODUCT ( 'Micro_BEMM-080-2X', 'Micro_BEMM-080-2X', '', ( #89 ) ) ;
#56 = DIRECTION ( 'NONE',  ( 1.000000000000000000, 0.0000000000000000000, 0.0000000000000000000 ) ) ;
#57 = SPHERICAL_SURFACE ( 'NONE', #226, 0.1573230194999999942 ) ;
#58 = EDGE_CURVE ( 'NONE', #238, #305, #245, .T. ) ;
#59 = ORIENTED_EDGE ( 'NONE', *, *, #27, .F. ) ;
#60 = ORIENTED_EDGE ( 'NONE', *, *, #212, .F. ) ;
#61 = ORIENTED_EDGE ( 'NONE', *, *, #317, .F. ) ;
#62 = VERTEX_POINT ( 'NONE', #180 ) ;
#63 = CARTESIAN_POINT ( 'NONE',  ( 0.1573230195000001053, 0.0000000000000000000, 0.8661419999999999675 ) ) ;
#64 = ADVANCED_FACE ( 'NONE', ( #270 ), #229, .T. ) ;
#65 = CARTESIAN_POINT ( 'NONE',  ( -0.1573230194999999942, 0.0000000000000000000, 1.926651322628716627E-17 ) ) ;
#66 = DIRECTION ( 'NONE',  ( -1.224646799147353207E-16, -0.0000000000000000000, -1.000000000000000000 ) ) ;
#67 =( LENGTH_UNIT ( ) NAMED_UNIT ( * ) SI_UNIT ( $, .METRE. ) );
#68 = CONICAL_SURFACE ( 'NONE', #247, 0.1573230194999999942, 0.1745329251994337527 ) ;
#69 = CIRCLE ( 'NONE', #159, 0.1574804999999999955 ) ;
#70 = CARTESIAN_POINT ( 'NONE',  ( 0.0000000000000000000, 0.0000000000000000000, 2.480315000000000047 ) ) ;
#71 = CARTESIAN_POINT ( 'NONE',  ( 0.1573230194999999942, 1.926651322628716627E-17, -1.926651322628716627E-17 ) ) ;
#72 = CARTESIAN_POINT ( 'NONE',  ( 1.061811779920977231E-16, 0.0000000000000000000, 0.8670351162965941327 ) ) ;
#73 = COLOUR_RGB ( '',0.7921568627450980005, 0.8196078431372548767, 0.9333333333333333481 ) ;
#74 = DIRECTION ( 'NONE',  ( -1.000000000000000000, 0.0000000000000000000, 0.0000000000000000000 ) ) ;
#75 = EDGE_CURVE ( 'NONE', #5, #235, #76, .T. ) ;
#76 = LINE ( 'NONE', #320, #8 ) ;
#77 = DIRECTION ( 'NONE',  ( 0.0000000000000000000, 1.000000000000000000, 0.0000000000000000000 ) ) ;
#78 = CARTESIAN_POINT ( 'NONE',  ( 0.1574805000000000788, 1.928579902531248645E-17, 0.8670351162965941327 ) ) ;
#79 = AXIS2_PLACEMENT_3D ( 'NONE', #153, #244, #38 ) ;
#80 = ORIENTED_EDGE ( 'NONE', *, *, #118, .T. ) ;
#81 = CLOSED_SHELL ( 'NONE', ( #15, #205, #286, #274, #140, #165, #132, #105, #172, #64, #277 ) ) ;
#82 = CIRCLE ( 'NONE', #142, 0.1573230194999999942 ) ;
#83 = ORIENTED_EDGE ( 'NONE', *, *, #2, .T. ) ;
#84 = APPLICATION_CONTEXT ( 'automotive_design' ) ;
#85 = EDGE_LOOP ( 'NONE', ( #189, #111, #9, #283 ) ) ;
#86 = DIMENSIONAL_EXPONENTS ( 1.000000000000000000, 0.0000000000000000000, 0.0000000000000000000, 0.0000000000000000000, 0.0000000000000000000, 0.0000000000000000000, 0.0000000000000000000 ) ;
#87 =( NAMED_UNIT ( * ) SI_UNIT ( $, .STERADIAN. ) SOLID_ANGLE_UNIT ( ) );
#88 = ORIENTED_EDGE ( 'NONE', *, *, #20, .T. ) ;
#89 = PRODUCT_CONTEXT ( 'NONE', #250, 'mechanical' ) ;
#90 = DIRECTION ( 'NONE',  ( 0.0000000000000000000, 0.0000000000000000000, 1.000000000000000000 ) ) ;
#91 =( NAMED_UNIT ( * ) PLANE_ANGLE_UNIT ( ) SI_UNIT ( $, .RADIAN. ) );
#92 = DIRECTION ( 'NONE',  ( 0.7071067811865627828, 8.659560562355118980E-17, -0.7071067811865321406 ) ) ;
#93 = DIRECTION ( 'NONE',  ( 1.000000000000000000, 0.0000000000000000000, 0.0000000000000000000 ) ) ;
#94 = SHAPE_DEFINITION_REPRESENTATION ( #130, #184 ) ;
#95 = FACE_OUTER_BOUND ( 'NONE', #164, .T. ) ;
#96 = CARTESIAN_POINT ( 'NONE',  ( 1.926651322628716627E-17, 0.0000000000000000000, 0.1573230194999999942 ) ) ;
#97 = MANIFOLD_SOLID_BREP ( 'Fillet1', #81 ) ;
#98 = EDGE_CURVE ( 'NONE', #4, #235, #275, .T. ) ;
#99 = DIRECTION ( 'NONE',  ( -1.000000000000000000, 0.0000000000000000000, 2.170572369468365833E-16 ) ) ;
#100 = DIRECTION ( 'NONE',  ( 0.0000000000000000000, 0.0000000000000000000, -1.000000000000000000 ) ) ;
#101 = SURFACE_STYLE_FILL_AREA ( #199 ) ;
#102 = CARTESIAN_POINT ( 'NONE',  ( 0.0000000000000000000, 0.0000000000000000000, 0.0000000000000000000 ) ) ;
#103 = EDGE_CURVE ( 'NONE', #238, #5, #82, .T. ) ;
#104 = CARTESIAN_POINT ( 'NONE',  ( 1.061811779920977231E-16, 0.0000000000000000000, 0.8670351162965941327 ) ) ;
#105 = ADVANCED_FACE ( 'NONE', ( #225 ), #152, .T. ) ;
#106 = STYLED_ITEM ( 'NONE', ( #292 ), #184 ) ;
#107 = DIRECTION ( 'NONE',  ( 0.0000000000000000000, 0.0000000000000000000, -1.000000000000000000 ) ) ;
#108 = ORIENTED_EDGE ( 'NONE', *, *, #126, .T. ) ;
#109 = CIRCLE ( 'NONE', #183, 0.1573230194999999942 ) ;
#110 = DIMENSIONAL_EXPONENTS ( 1.000000000000000000, 0.0000000000000000000, 0.0000000000000000000, 0.0000000000000000000, 0.0000000000000000000, 0.0000000000000000000, 0.0000000000000000000 ) ;
#111 = ORIENTED_EDGE ( 'NONE', *, *, #75, .T. ) ;
#112 = VERTEX_POINT ( 'NONE', #201 ) ;
#113 = STYLED_ITEM ( 'NONE', ( #181 ), #97 ) ;
#114 =( NAMED_UNIT ( * ) PLANE_ANGLE_UNIT ( ) SI_UNIT ( $, .RADIAN. ) );
#115 = ORIENTED_EDGE ( 'NONE', *, *, #200, .F. ) ;
#116 = CARTESIAN_POINT ( 'NONE',  ( 0.0000000000000000000, 0.0000000000000000000, 0.0000000000000000000 ) ) ;
#117 = CARTESIAN_POINT ( 'NONE',  ( 0.1574804999999999955, 1.928579902531247412E-17, 2.480315000000000047 ) ) ;
#118 = EDGE_CURVE ( 'NONE', #305, #112, #281, .T. ) ;
#119 = DIRECTION ( 'NONE',  ( -1.224646799147353207E-16, -0.0000000000000000000, -1.000000000000000000 ) ) ;
#120 = LINE ( 'NONE', #65, #293 ) ;
#121 = DIRECTION ( 'NONE',  ( 1.000000000000000000, 0.0000000000000000000, 0.0000000000000000000 ) ) ;
#122 = DIRECTION ( 'NONE',  ( -1.000000000000000000, 0.0000000000000000000, 1.224646799147353454E-16 ) ) ;
#123 = DIRECTION ( 'NONE',  ( -1.224646799147353207E-16, -0.0000000000000000000, -1.000000000000000000 ) ) ;
#124 = CARTESIAN_POINT ( 'NONE',  ( 1.060718027907086782E-16, 0.0000000000000000000, 0.8661419999999999675 ) ) ;
#125 = AXIS2_PLACEMENT_3D ( 'NONE', #128, #322, #100 ) ;
#126 = EDGE_CURVE ( 'NONE', #213, #282, #230, .T. ) ;
#127 = DIRECTION ( 'NONE',  ( -1.000000000000000000, 0.0000000000000000000, 2.170572369468365833E-16 ) ) ;
#128 = CARTESIAN_POINT ( 'NONE',  ( 1.926651322628716627E-17, 0.0000000000000000000, 0.1573230194999999942 ) ) ;
#129 = AXIS2_PLACEMENT_3D ( 'NONE', #96, #17, #93 ) ;
#130 = PRODUCT_DEFINITION_SHAPE ( 'NONE', 'NONE',  #202 ) ;
#131 = CIRCLE ( 'NONE', #24, 0.1574804999999999955 ) ;
#132 = ADVANCED_FACE ( 'NONE', ( #192 ), #45, .T. ) ;
#133 = ORIENTED_EDGE ( 'NONE', *, *, #301, .F. ) ;
#134 = ORIENTED_EDGE ( 'NONE', *, *, #207, .T. ) ;
#135 = CARTESIAN_POINT ( 'NONE',  ( 1.926651322628716627E-17, 0.0000000000000000000, 0.1573230194999999942 ) ) ;
#136 = EDGE_LOOP ( 'NONE', ( #133, #232, #141 ) ) ;
#137 = EDGE_LOOP ( 'NONE', ( #261, #252, #311, #32 ) ) ;
#138 = CIRCLE ( 'NONE', #175, 0.1573230194999999942 ) ;
#139 = ORIENTED_EDGE ( 'NONE', *, *, #103, .T. ) ;
#140 = ADVANCED_FACE ( 'NONE', ( #95 ), #40, .T. ) ;
#141 = ORIENTED_EDGE ( 'NONE', *, *, #150, .F. ) ;
#142 = AXIS2_PLACEMENT_3D ( 'NONE', #124, #21, #19 ) ;
#143 = DIRECTION ( 'NONE',  ( -0.0000000000000000000, -0.0000000000000000000, -1.000000000000000000 ) ) ;
#144 = CIRCLE ( 'NONE', #125, 0.1573230194999999942 ) ;
#145 = APPLICATION_PROTOCOL_DEFINITION ( 'draft international standard', 'automotive_design', 1998, #250 ) ;
#146 = CARTESIAN_POINT ( 'NONE',  ( 2.889976983943074940E-17, 0.0000000000000000000, 0.0000000000000000000 ) ) ;
#147 = DIRECTION ( 'NONE',  ( -0.0000000000000000000, -0.0000000000000000000, -1.000000000000000000 ) ) ;
#148 = CYLINDRICAL_SURFACE ( 'NONE', #306, 0.1573230194999999942 ) ;
#149 = DIRECTION ( 'NONE',  ( -1.000000000000000000, 1.224646799147353454E-16, 0.0000000000000000000 ) ) ;
#150 = EDGE_CURVE ( 'NONE', #112, #305, #23, .T. ) ;
#151 = FILL_AREA_STYLE ('',( #46 ) ) ;
#152 = CONICAL_SURFACE ( 'NONE', #188, 0.1424804999999990940, 0.7853981633974699283 ) ;
#153 = CARTESIAN_POINT ( 'NONE',  ( 1.060718027907086782E-16, 0.0000000000000000000, 0.8661419999999999675 ) ) ;
#154 = SURFACE_SIDE_STYLE ('',( #101 ) ) ;
#155 = MECHANICAL_DESIGN_GEOMETRIC_PRESENTATION_REPRESENTATION (  '', ( #106 ), #312 ) ;
#156 =( CONVERSION_BASED_UNIT ( 'INCH', #203 ) LENGTH_UNIT ( ) NAMED_UNIT ( #86 ) );
#157 = DIRECTION ( 'NONE',  ( -1.000000000000000000, 0.0000000000000000000, 1.224646799147353454E-16 ) ) ;
#158 = PRODUCT_DEFINITION_CONTEXT ( 'detailed design', #84, 'design' ) ;
#159 = AXIS2_PLACEMENT_3D ( 'NONE', #72, #123, #50 ) ;
#160 = PRESENTATION_LAYER_ASSIGNMENT (  '', '', ( #106 ) ) ;
#161 = DIRECTION ( 'NONE',  ( 0.0000000000000000000, 0.0000000000000000000, -1.000000000000000000 ) ) ;
#162 = DIRECTION ( 'NONE',  ( 1.000000000000000000, 0.0000000000000000000, 0.0000000000000000000 ) ) ;
#163 = ORIENTED_EDGE ( 'NONE', *, *, #98, .T. ) ;
#164 = EDGE_LOOP ( 'NONE', ( #88, #7, #187, #61 ) ) ;
#165 = ADVANCED_FACE ( 'NONE', ( #198 ), #259, .T. ) ;
#166 = VERTEX_POINT ( 'NONE', #146 ) ;
#167 = DIRECTION ( 'NONE',  ( 0.0000000000000000000, 0.0000000000000000000, 1.000000000000000000 ) ) ;
#168 = DIMENSIONAL_EXPONENTS ( 1.000000000000000000, 0.0000000000000000000, 0.0000000000000000000, 0.0000000000000000000, 0.0000000000000000000, 0.0000000000000000000, 0.0000000000000000000 ) ;
#169 =( NAMED_UNIT ( * ) SI_UNIT ( $, .STERADIAN. ) SOLID_ANGLE_UNIT ( ) );
#170 = ORIENTED_EDGE ( 'NONE', *, *, #6, .F. ) ;
#171 = FACE_OUTER_BOUND ( 'NONE', #137, .T. ) ;
#172 = ADVANCED_FACE ( 'NONE', ( #176 ), #211, .T. ) ;
#173 = DIRECTION ( 'NONE',  ( -1.000000000000000000, 0.0000000000000000000, 0.0000000000000000000 ) ) ;
#174 = SURFACE_STYLE_USAGE ( .BOTH. , #265 ) ;
#175 = AXIS2_PLACEMENT_3D ( 'NONE', #318, #119, #173 ) ;
#176 = FACE_OUTER_BOUND ( 'NONE', #215, .T. ) ;
#177 = CARTESIAN_POINT ( 'NONE',  ( -0.1424804999999990940, 0.0000000000000000000, 2.480315000000000047 ) ) ;
#178 = DIRECTION ( 'NONE',  ( -0.0000000000000000000, -0.0000000000000000000, -1.000000000000000000 ) ) ;
#179 = AXIS2_PLACEMENT_3D ( 'NONE', #323, #90, #240 ) ;
#180 = CARTESIAN_POINT ( 'NONE',  ( -0.1574804999999999955, 0.0000000000000000000, 2.465314999999999923 ) ) ;
#181 = PRESENTATION_STYLE_ASSIGNMENT (( #246 ) ) ;
#182 = CARTESIAN_POINT ( 'NONE',  ( 1.926651322628716627E-17, 0.0000000000000000000, 0.1573230194999999942 ) ) ;
#183 = AXIS2_PLACEMENT_3D ( 'NONE', #285, #44, #149 ) ;
#184 = ADVANCED_BREP_SHAPE_REPRESENTATION ( 'Micro_BEMM-080-2X', ( #97, #12 ), #26 ) ;
#185 = ORIENTED_EDGE ( 'NONE', *, *, #58, .F. ) ;
#186 = CARTESIAN_POINT ( 'NONE',  ( 0.0000000000000000000, 0.0000000000000000000, 2.465314999999999923 ) ) ;
#187 = ORIENTED_EDGE ( 'NONE', *, *, #42, .F. ) ;
#188 = AXIS2_PLACEMENT_3D ( 'NONE', #227, #299, #74 ) ;
#189 = ORIENTED_EDGE ( 'NONE', *, *, #253, .F. ) ;
#190 = ORIENTED_EDGE ( 'NONE', *, *, #207, .F. ) ;
#191 = ORIENTED_EDGE ( 'NONE', *, *, #317, .T. ) ;
#192 = FACE_OUTER_BOUND ( 'NONE', #237, .T. ) ;
#193 = DIRECTION ( 'NONE',  ( 0.0000000000000000000, 0.0000000000000000000, 1.000000000000000000 ) ) ;
#194 = CARTESIAN_POINT ( 'NONE',  ( -0.1574804999999999955, 0.0000000000000000000, 2.480315000000000047 ) ) ;
#195 = CARTESIAN_POINT ( 'NONE',  ( 0.0000000000000000000, 0.0000000000000000000, 2.480315000000000047 ) ) ;
#196 = SURFACE_STYLE_FILL_AREA ( #151 ) ;
#197 = AXIS2_PLACEMENT_3D ( 'NONE', #70, #178, #319 ) ;
#198 = FACE_OUTER_BOUND ( 'NONE', #233, .T. ) ;
#199 = FILL_AREA_STYLE ('',( #271 ) ) ;
#200 = EDGE_CURVE ( 'NONE', #209, #4, #242, .T. ) ;
#201 = CARTESIAN_POINT ( 'NONE',  ( -0.1573230194999999665, 0.0000000000000000000, 0.1573230195000000220 ) ) ;
#202 = PRODUCT_DEFINITION ( 'UNKNOWN', '', #251, #158 ) ;
#203 = LENGTH_MEASURE_WITH_UNIT ( LENGTH_MEASURE( 0.02539999999999999897 ), #49 );
#204 =( NAMED_UNIT ( * ) PLANE_ANGLE_UNIT ( ) SI_UNIT ( $, .RADIAN. ) );
#205 = ADVANCED_FACE ( 'NONE', ( #13 ), #148, .T. ) ;
#206 = DIRECTION ( 'NONE',  ( -0.1736481776669310251, 2.126576849575781468E-17, 0.9848077530122080203 ) ) ;
#207 = EDGE_CURVE ( 'NONE', #5, #112, #120, .T. ) ;
#208 = FACE_OUTER_BOUND ( 'NONE', #308, .T. ) ;
#209 = VERTEX_POINT ( 'NONE', #241 ) ;
#210 = ORIENTED_EDGE ( 'NONE', *, *, #75, .F. ) ;
#211 = CONICAL_SURFACE ( 'NONE', #79, 0.1573230194999999942, 0.1745329251994337527 ) ;
#212 = EDGE_CURVE ( 'NONE', #213, #209, #18, .T. ) ;
#213 = VERTEX_POINT ( 'NONE', #218 ) ;
#214 = CIRCLE ( 'NONE', #321, 0.1424804999999990940 ) ;
#215 = EDGE_LOOP ( 'NONE', ( #210, #31, #83, #163 ) ) ;
#216 = APPLICATION_PROTOCOL_DEFINITION ( 'draft international standard', 'automotive_design', 1998, #84 ) ;
#217 = ORIENTED_EDGE ( 'NONE', *, *, #58, .T. ) ;
#218 = CARTESIAN_POINT ( 'NONE',  ( 0.1424804999999990940, 1.836731392595189962E-17, 2.480315000000000047 ) ) ;
#219 = LINE ( 'NONE', #221, #228 ) ;
#220 = LENGTH_MEASURE_WITH_UNIT ( LENGTH_MEASURE( 0.02539999999999999897 ), #290 );
#221 = CARTESIAN_POINT ( 'NONE',  ( -0.1424804999999990940, 0.0000000000000000000, 2.480315000000000047 ) ) ;
#222 = CARTESIAN_POINT ( 'NONE',  ( 1.060718027907086782E-16, 0.0000000000000000000, 0.8661419999999999675 ) ) ;
#223 = CARTESIAN_POINT ( 'NONE',  ( 0.0000000000000000000, 0.0000000000000000000, 2.480315000000000047 ) ) ;
#224 = AXIS2_PLACEMENT_3D ( 'NONE', #10, #43, #288 ) ;
#225 = FACE_OUTER_BOUND ( 'NONE', #234, .T. ) ;
#226 = AXIS2_PLACEMENT_3D ( 'NONE', #135, #77, #56 ) ;
#227 = CARTESIAN_POINT ( 'NONE',  ( 0.0000000000000000000, 0.0000000000000000000, 2.480315000000000047 ) ) ;
#228 = VECTOR ( 'NONE', #16, 39.37007874015748854 ) ;
#229 = CYLINDRICAL_SURFACE ( 'NONE', #239, 0.1573230194999999942 ) ;
#230 = CIRCLE ( 'NONE', #179, 0.1424804999999990940 ) ;
#231 = LINE ( 'NONE', #276, #37 ) ;
#232 = ORIENTED_EDGE ( 'NONE', *, *, #54, .T. ) ;
#233 = EDGE_LOOP ( 'NONE', ( #115, #33, #191, #256 ) ) ;
#234 = EDGE_LOOP ( 'NONE', ( #60, #59, #255, #170 ) ) ;
#235 = VERTEX_POINT ( 'NONE', #313 ) ;
#236 = VECTOR ( 'NONE', #92, 39.37007874015748854 ) ;
#237 = EDGE_LOOP ( 'NONE', ( #304, #108 ) ) ;
#238 = VERTEX_POINT ( 'NONE', #63 ) ;
#239 = AXIS2_PLACEMENT_3D ( 'NONE', #102, #324, #157 ) ;
#240 = DIRECTION ( 'NONE',  ( 1.000000000000000000, 0.0000000000000000000, 0.0000000000000000000 ) ) ;
#241 = CARTESIAN_POINT ( 'NONE',  ( 0.1574804999999999955, 1.928579902531247412E-17, 2.465314999999999923 ) ) ;
#242 = LINE ( 'NONE', #117, #273 ) ;
#243 = CARTESIAN_POINT ( 'NONE',  ( 0.1573230195000000220, 1.926651322628716627E-17, 0.1573230194999999665 ) ) ;
#244 = DIRECTION ( 'NONE',  ( 1.224646799147353207E-16, 0.0000000000000000000, 1.000000000000000000 ) ) ;
#245 = LINE ( 'NONE', #71, #309 ) ;
#246 = SURFACE_STYLE_USAGE ( .BOTH. , #154 ) ;
#247 = AXIS2_PLACEMENT_3D ( 'NONE', #222, #314, #121 ) ;
#248 = EDGE_CURVE ( 'NONE', #282, #62, #219, .T. ) ;
#249 = COLOUR_RGB ( '',0.7921568627450980005, 0.8196078431372548767, 0.9333333333333333481 ) ;
#250 = APPLICATION_CONTEXT ( 'automotive_design' ) ;
#251 = PRODUCT_DEFINITION_FORMATION_WITH_SPECIFIED_SOURCE ( 'ANY', '', #55, .NOT_KNOWN. ) ;
#252 = ORIENTED_EDGE ( 'NONE', *, *, #212, .T. ) ;
#253 = EDGE_CURVE ( 'NONE', #5, #238, #138, .T. ) ;
#254 = CARTESIAN_POINT ( 'NONE',  ( 0.0000000000000000000, 0.0000000000000000000, 2.480315000000000047 ) ) ;
#255 = ORIENTED_EDGE ( 'NONE', *, *, #248, .T. ) ;
#256 = ORIENTED_EDGE ( 'NONE', *, *, #98, .F. ) ;
#257 = EDGE_LOOP ( 'NONE', ( #185, #139, #134, #36 ) ) ;
#258 = ORIENTED_EDGE ( 'NONE', *, *, #253, .T. ) ;
#259 = CYLINDRICAL_SURFACE ( 'NONE', #224, 0.1574804999999999955 ) ;
#260 = UNCERTAINTY_MEASURE_WITH_UNIT (LENGTH_MEASURE( 1.000000000000000082E-05 ), #156, 'distance_accuracy_value', 'NONE');
#261 = ORIENTED_EDGE ( 'NONE', *, *, #126, .F. ) ;
#262 = DIRECTION ( 'NONE',  ( 0.0000000000000000000, 0.0000000000000000000, -1.000000000000000000 ) ) ;
#263 = SPHERICAL_SURFACE ( 'NONE', #129, 0.1573230194999999942 ) ;
#264 = CARTESIAN_POINT ( 'NONE',  ( 0.0000000000000000000, 0.0000000000000000000, 0.0000000000000000000 ) ) ;
#265 = SURFACE_SIDE_STYLE ('',( #196 ) ) ;
#266 = AXIS2_PLACEMENT_3D ( 'NONE', #195, #262, #291 ) ;
#267 = FACE_OUTER_BOUND ( 'NONE', #136, .T. ) ;
#268 = PRESENTATION_LAYER_ASSIGNMENT (  '', '', ( #113 ) ) ;
#269 = CARTESIAN_POINT ( 'NONE',  ( 1.926651322628716627E-17, 0.0000000000000000000, 0.1573230194999999942 ) ) ;
#270 = FACE_OUTER_BOUND ( 'NONE', #257, .T. ) ;
#271 = FILL_AREA_STYLE_COLOUR ( '', #249 ) ;
#272 = DIRECTION ( 'NONE',  ( -1.224646799147353207E-16, -0.0000000000000000000, -1.000000000000000000 ) ) ;
#273 = VECTOR ( 'NONE', #143, 39.37007874015748143 ) ;
#274 = ADVANCED_FACE ( 'NONE', ( #171 ), #35, .T. ) ;
#275 = CIRCLE ( 'NONE', #325, 0.1574804999999999955 ) ;
#276 = CARTESIAN_POINT ( 'NONE',  ( 0.1573230195000001053, 0.0000000000000000000, 0.8661419999999999675 ) ) ;
#277 = ADVANCED_FACE ( 'NONE', ( #267 ), #263, .T. ) ;
#278 = CARTESIAN_POINT ( 'NONE',  ( 0.0000000000000000000, 0.0000000000000000000, 2.465314999999999923 ) ) ;
#279 = UNCERTAINTY_MEASURE_WITH_UNIT (LENGTH_MEASURE( 1.000000000000000082E-05 ), #14, 'distance_accuracy_value', 'NONE');
#280 = EDGE_LOOP ( 'NONE', ( #258, #217, #80, #190 ) ) ;
#281 = CIRCLE ( 'NONE', #47, 0.1573230194999999942 ) ;
#282 = VERTEX_POINT ( 'NONE', #177 ) ;
#283 = ORIENTED_EDGE ( 'NONE', *, *, #2, .F. ) ;
#284 = VECTOR ( 'NONE', #147, 39.37007874015748143 ) ;
#285 = CARTESIAN_POINT ( 'NONE',  ( 1.926651322628716627E-17, 0.0000000000000000000, 0.1573230194999999942 ) ) ;
#286 = ADVANCED_FACE ( 'NONE', ( #316 ), #68, .T. ) ;
#287 = ORIENTED_EDGE ( 'NONE', *, *, #54, .F. ) ;
#288 = DIRECTION ( 'NONE',  ( -1.000000000000000000, 0.0000000000000000000, 0.0000000000000000000 ) ) ;
#289 = DIRECTION ( 'NONE',  ( -1.224646799147353207E-16, -0.0000000000000000000, -1.000000000000000000 ) ) ;
#290 =( LENGTH_UNIT ( ) NAMED_UNIT ( * ) SI_UNIT ( $, .METRE. ) );
#291 = DIRECTION ( 'NONE',  ( -1.000000000000000000, 0.0000000000000000000, 0.0000000000000000000 ) ) ;
#292 = PRESENTATION_STYLE_ASSIGNMENT (( #174 ) ) ;
#293 = VECTOR ( 'NONE', #66, 39.37007874015748143 ) ;
#294 = CARTESIAN_POINT ( 'NONE',  ( 0.1424804999999990940, 1.744882882659133128E-17, 2.480315000000000047 ) ) ;
#295 = CIRCLE ( 'NONE', #307, 0.1574804999999999955 ) ;
#296 = MECHANICAL_DESIGN_GEOMETRIC_PRESENTATION_REPRESENTATION (  '', ( #113 ), #53 ) ;
#297 = DIRECTION ( 'NONE',  ( 1.224646799147353207E-16, 0.0000000000000000000, 1.000000000000000000 ) ) ;
#298 = DIRECTION ( 'NONE',  ( 1.000000000000000000, 0.0000000000000000000, 0.0000000000000000000 ) ) ;
#299 = DIRECTION ( 'NONE',  ( 0.0000000000000000000, 0.0000000000000000000, -1.000000000000000000 ) ) ;
#300 = DIRECTION ( 'NONE',  ( 1.000000000000000000, 0.0000000000000000000, 0.0000000000000000000 ) ) ;
#301 = EDGE_CURVE ( 'NONE', #166, #112, #109, .T. ) ;
#302 = UNCERTAINTY_MEASURE_WITH_UNIT (LENGTH_MEASURE( 1.000000000000000082E-05 ), #41, 'distance_accuracy_value', 'NONE');
#303 = CARTESIAN_POINT ( 'NONE',  ( -0.1573230194999999110, 1.927615612579982019E-17, 0.8661419999999999675 ) ) ;
#304 = ORIENTED_EDGE ( 'NONE', *, *, #27, .T. ) ;
#305 = VERTEX_POINT ( 'NONE', #243 ) ;
#306 = AXIS2_PLACEMENT_3D ( 'NONE', #264, #289, #122 ) ;
#307 = AXIS2_PLACEMENT_3D ( 'NONE', #278, #161, #162 ) ;
#308 = EDGE_LOOP ( 'NONE', ( #287, #310, #30 ) ) ;
#309 = VECTOR ( 'NONE', #272, 39.37007874015748143 ) ;
#310 = ORIENTED_EDGE ( 'NONE', *, *, #301, .T. ) ;
#311 = ORIENTED_EDGE ( 'NONE', *, *, #20, .F. ) ;
#312 =( GEOMETRIC_REPRESENTATION_CONTEXT ( 3 ) GLOBAL_UNCERTAINTY_ASSIGNED_CONTEXT ( ( #279 ) ) GLOBAL_UNIT_ASSIGNED_CONTEXT ( ( #14, #114, #87 ) ) REPRESENTATION_CONTEXT ( 'NONE', 'WORKASPACE' ) );
#313 = CARTESIAN_POINT ( 'NONE',  ( -0.1574804999999998845, 0.0000000000000000000, 0.8670351162965941327 ) ) ;
#314 = DIRECTION ( 'NONE',  ( 1.224646799147353207E-16, 0.0000000000000000000, 1.000000000000000000 ) ) ;
#315 = DIRECTION ( 'NONE',  ( 1.000000000000000000, 0.0000000000000000000, -0.0000000000000000000 ) ) ;
#316 = FACE_OUTER_BOUND ( 'NONE', #85, .T. ) ;
#317 = EDGE_CURVE ( 'NONE', #62, #235, #39, .T. ) ;
#318 = CARTESIAN_POINT ( 'NONE',  ( 1.060718027907086782E-16, 0.0000000000000000000, 0.8661419999999999675 ) ) ;
#319 = DIRECTION ( 'NONE',  ( -1.000000000000000000, 0.0000000000000000000, 0.0000000000000000000 ) ) ;
#320 = CARTESIAN_POINT ( 'NONE',  ( -0.1573230194999999110, 1.926651322628716627E-17, 0.8661419999999999675 ) ) ;
#321 = AXIS2_PLACEMENT_3D ( 'NONE', #254, #29, #300 ) ;
#322 = DIRECTION ( 'NONE',  ( 0.0000000000000000000, -1.000000000000000000, 0.0000000000000000000 ) ) ;
#323 = CARTESIAN_POINT ( 'NONE',  ( 0.0000000000000000000, 0.0000000000000000000, 2.480315000000000047 ) ) ;
#324 = DIRECTION ( 'NONE',  ( -1.224646799147353207E-16, -0.0000000000000000000, -1.000000000000000000 ) ) ;
#325 = AXIS2_PLACEMENT_3D ( 'NONE', #104, #51, #298 ) ;
ENDSEC;
END-ISO-10303-21;
