ISO-10303-21;
HEADER;
FILE_DESCRIPTION (( 'STEP AP214' ),
    '1' );
FILE_NAME ('03767.STEP',
    '2023-06-22T15:44:29',
    ( '' ),
    ( '' ),
    'SwSTEP 2.0',
    'SolidWorks 2023',
    '' );
FILE_SCHEMA (( 'AUTOMOTIVE_DESIGN' ));
ENDSEC;

DATA;
#1 = DIRECTION ( 'NONE',  ( -3.628583108584753553E-17, 1.000000000000000000, -0.000000000000000000 ) ) ;
#2 = ORIENTED_EDGE ( 'NONE', *, *, #179, .T. ) ;
#3 = CARTESIAN_POINT ( 'NONE',  ( 0.000000000000000000, 0.000000000000000000, 0.000000000000000000 ) ) ;
#4 = ORIENTED_EDGE ( 'NONE', *, *, #166, .T. ) ;
#5 = PRODUCT_RELATED_PRODUCT_CATEGORY ( 'part', '', ( #127 ) ) ;
#6 = CARTESIAN_POINT ( 'NONE',  ( 0.000000000000000000, 2.625000000000000000, 0.000000000000000000 ) ) ;
#7 = COLOUR_RGB ( '',0.7921568627450980005, 0.8196078431372548767, 0.9333333333333333481 ) ;
#8 = DIMENSIONAL_EXPONENTS ( 1.000000000000000000, 0.000000000000000000, 0.000000000000000000, 0.000000000000000000, 0.000000000000000000, 0.000000000000000000, 0.000000000000000000 ) ;
#9 = DIRECTION ( 'NONE',  ( -1.000000000000000000, 0.000000000000000000, 0.000000000000000000 ) ) ;
#10 = PRODUCT_DEFINITION_SHAPE ( 'NONE', 'NONE',  #76 ) ;
#11 =( NAMED_UNIT ( * ) SI_UNIT ( $, .STERADIAN. ) SOLID_ANGLE_UNIT ( ) );
#12 = ADVANCED_FACE ( 'NONE', ( #250 ), #295, .T. ) ;
#13 =( CONVERSION_BASED_UNIT ( 'INCH', #229 ) LENGTH_UNIT ( ) NAMED_UNIT ( #262 ) );
#14 = CARTESIAN_POINT ( 'NONE',  ( -0.5000000000000002220, 6.000000000000000888, 0.000000000000000000 ) ) ;
#15 = DIRECTION ( 'NONE',  ( -0.000000000000000000, -1.000000000000000000, -0.000000000000000000 ) ) ;
#16 = ORIENTED_EDGE ( 'NONE', *, *, #39, .T. ) ;
#17 = SURFACE_STYLE_USAGE ( .BOTH. , #150 ) ;
#18 = AXIS2_PLACEMENT_3D ( 'NONE', #216, #178, #308 ) ;
#19 = SURFACE_STYLE_FILL_AREA ( #235 ) ;
#20 =( LENGTH_UNIT ( ) NAMED_UNIT ( * ) SI_UNIT ( $, .METRE. ) );
#21 = UNCERTAINTY_MEASURE_WITH_UNIT (LENGTH_MEASURE( 1.000000000000000082E-05 ), #110, 'distance_accuracy_value', 'NONE');
#22 =( NAMED_UNIT ( * ) PLANE_ANGLE_UNIT ( ) SI_UNIT ( $, .RADIAN. ) );
#23 = AXIS2_PLACEMENT_3D ( 'NONE', #40, #45, #104 ) ;
#24 =( NAMED_UNIT ( * ) SI_UNIT ( $, .STERADIAN. ) SOLID_ANGLE_UNIT ( ) );
#25 = MECHANICAL_DESIGN_GEOMETRIC_PRESENTATION_REPRESENTATION (  '', ( #203 ), #283 ) ;
#26 = DIRECTION ( 'NONE',  ( 0.000000000000000000, 0.000000000000000000, -1.000000000000000000 ) ) ;
#27 = DIRECTION ( 'NONE',  ( -3.628583108584753553E-17, 1.000000000000000000, -0.000000000000000000 ) ) ;
#28 = CARTESIAN_POINT ( 'NONE',  ( 6.123233995736766036E-17, 0.000000000000000000, 0.5000000000000000000 ) ) ;
#29 = VERTEX_POINT ( 'NONE', #14 ) ;
#30 = CARTESIAN_POINT ( 'NONE',  ( -1.224646799147354440E-16, 6.000000000000000888, 0.000000000000000000 ) ) ;
#31 = LENGTH_MEASURE_WITH_UNIT ( LENGTH_MEASURE( 0.02539999999999999897 ), #20 );
#32 = ADVANCED_FACE ( 'NONE', ( #101 ), #177, .T. ) ;
#33 = SURFACE_SIDE_STYLE ('',( #245 ) ) ;
#34 = PLANE ( 'NONE',  #163 ) ;
#35 = CARTESIAN_POINT ( 'NONE',  ( 0.000000000000000000, 2.625000000000000000, 0.000000000000000000 ) ) ;
#36 = FILL_AREA_STYLE_COLOUR ( '', #7 ) ;
#37 = DIMENSIONAL_EXPONENTS ( 1.000000000000000000, 0.000000000000000000, 0.000000000000000000, 0.000000000000000000, 0.000000000000000000, 0.000000000000000000, 0.000000000000000000 ) ;
#38 = CARTESIAN_POINT ( 'NONE',  ( 0.000000000000000000, 2.625000000000000000, -0.5000000000000000000 ) ) ;
#39 = EDGE_CURVE ( 'NONE', #287, #114, #54, .T. ) ;
#40 = CARTESIAN_POINT ( 'NONE',  ( -1.224646799147354440E-16, 6.000000000000000888, 0.000000000000000000 ) ) ;
#41 = COLOUR_RGB ( '',1.000000000000000000, 0.000000000000000000, 0.000000000000000000 ) ;
#42 = STYLED_ITEM ( 'NONE', ( #100 ), #181 ) ;
#43 = ORIENTED_EDGE ( 'NONE', *, *, #62, .T. ) ;
#44 = FACE_OUTER_BOUND ( 'NONE', #145, .T. ) ;
#45 = DIRECTION ( 'NONE',  ( -3.628583108584753553E-17, 1.000000000000000000, -0.000000000000000000 ) ) ;
#46 = ADVANCED_FACE ( 'NONE', ( #77 ), #223, .F. ) ;
#47 = ORIENTED_EDGE ( 'NONE', *, *, #94, .F. ) ;
#48 =( LENGTH_UNIT ( ) NAMED_UNIT ( * ) SI_UNIT ( $, .METRE. ) );
#49 = APPLICATION_PROTOCOL_DEFINITION ( 'draft international standard', 'automotive_design', 1998, #157 ) ;
#50 = CIRCLE ( 'NONE', #269, 0.5000000000000000000 ) ;
#51 = SURFACE_SIDE_STYLE ('',( #279 ) ) ;
#52 = DIRECTION ( 'NONE',  ( 1.000000000000000000, 3.628583108584753553E-17, 0.000000000000000000 ) ) ;
#53 = CARTESIAN_POINT ( 'NONE',  ( 6.123233995736766036E-17, 0.000000000000000000, 0.5000000000000000000 ) ) ;
#54 = CIRCLE ( 'NONE', #263, 0.5000000000000000000 ) ;
#55 = DIRECTION ( 'NONE',  ( -0.000000000000000000, -1.000000000000000000, -0.000000000000000000 ) ) ;
#56 = ORIENTED_EDGE ( 'NONE', *, *, #62, .F. ) ;
#57 = DIRECTION ( 'NONE',  ( -3.628583108584753553E-17, 1.000000000000000000, -0.000000000000000000 ) ) ;
#58 = VERTEX_POINT ( 'NONE', #189 ) ;
#59 = AXIS2_PLACEMENT_3D ( 'NONE', #219, #217, #9 ) ;
#60 = CYLINDRICAL_SURFACE ( 'NONE', #306, 0.5000000000000000000 ) ;
#61 = LINE ( 'NONE', #28, #182 ) ;
#62 = EDGE_CURVE ( 'NONE', #236, #29, #258, .T. ) ;
#63 = FILL_AREA_STYLE ('',( #137 ) ) ;
#64 = AXIS2_PLACEMENT_3D ( 'NONE', #289, #55, #26 ) ;
#65 = FILL_AREA_STYLE_COLOUR ( '', #41 ) ;
#66 = COLOUR_RGB ( '',1.000000000000000000, 0.000000000000000000, 0.000000000000000000 ) ;
#67 = MECHANICAL_DESIGN_GEOMETRIC_PRESENTATION_REPRESENTATION (  '', ( #42 ), #86 ) ;
#68 = SURFACE_STYLE_USAGE ( .BOTH. , #296 ) ;
#69 =( LENGTH_UNIT ( ) NAMED_UNIT ( * ) SI_UNIT ( $, .METRE. ) );
#70 = SURFACE_STYLE_USAGE ( .BOTH. , #51 ) ;
#71 = COLOUR_RGB ( '',1.000000000000000000, 0.000000000000000000, 0.000000000000000000 ) ;
#72 = PRESENTATION_LAYER_ASSIGNMENT (  '', '', ( #203 ) ) ;
#73 = FACE_OUTER_BOUND ( 'NONE', #226, .T. ) ;
#74 = DIRECTION ( 'NONE',  ( -0.000000000000000000, -1.000000000000000000, -0.000000000000000000 ) ) ;
#75 = FILL_AREA_STYLE ('',( #153 ) ) ;
#76 = PRODUCT_DEFINITION ( 'UNKNOWN', '', #186, #95 ) ;
#77 = FACE_OUTER_BOUND ( 'NONE', #169, .T. ) ;
#78 = STYLED_ITEM ( 'NONE', ( #276 ), #32 ) ;
#79 = STYLED_ITEM ( 'NONE', ( #122 ), #185 ) ;
#80 = DIRECTION ( 'NONE',  ( 0.000000000000000000, 0.000000000000000000, -1.000000000000000000 ) ) ;
#81 = CARTESIAN_POINT ( 'NONE',  ( 0.5000000000000000000, 2.625000000000000000, 6.123233995736767268E-17 ) ) ;
#82 = ADVANCED_BREP_SHAPE_REPRESENTATION ( '03767', ( #185, #181, #230 ), #103 ) ;
#83 = CARTESIAN_POINT ( 'NONE',  ( 0.000000000000000000, 0.000000000000000000, 0.000000000000000000 ) ) ;
#84 = ORIENTED_EDGE ( 'NONE', *, *, #290, .T. ) ;
#85 = MECHANICAL_DESIGN_GEOMETRIC_PRESENTATION_REPRESENTATION (  '', ( #252 ), #165 ) ;
#86 =( GEOMETRIC_REPRESENTATION_CONTEXT ( 3 ) GLOBAL_UNCERTAINTY_ASSIGNED_CONTEXT ( ( #297 ) ) GLOBAL_UNIT_ASSIGNED_CONTEXT ( ( #116, #273, #11 ) ) REPRESENTATION_CONTEXT ( 'NONE', 'WORKASPACE' ) );
#87 = DIRECTION ( 'NONE',  ( -0.000000000000000000, -1.000000000000000000, -0.000000000000000000 ) ) ;
#88 =( NAMED_UNIT ( * ) PLANE_ANGLE_UNIT ( ) SI_UNIT ( $, .RADIAN. ) );
#89 = MECHANICAL_DESIGN_GEOMETRIC_PRESENTATION_REPRESENTATION (  '', ( #253 ), #107 ) ;
#90 =( NAMED_UNIT ( * ) PLANE_ANGLE_UNIT ( ) SI_UNIT ( $, .RADIAN. ) );
#91 = SURFACE_STYLE_USAGE ( .BOTH. , #278 ) ;
#92 = ORIENTED_EDGE ( 'NONE', *, *, #209, .F. ) ;
#93 =( LENGTH_UNIT ( ) NAMED_UNIT ( * ) SI_UNIT ( $, .METRE. ) );
#94 = EDGE_CURVE ( 'NONE', #234, #266, #162, .T. ) ;
#95 = PRODUCT_DEFINITION_CONTEXT ( 'detailed design', #225, 'design' ) ;
#96 = AXIS2_PLACEMENT_3D ( 'NONE', #305, #239, #240 ) ;
#97 = ORIENTED_EDGE ( 'NONE', *, *, #191, .T. ) ;
#98 = ORIENTED_EDGE ( 'NONE', *, *, #260, .T. ) ;
#99 = AXIS2_PLACEMENT_3D ( 'NONE', #35, #231, #270 ) ;
#100 = PRESENTATION_STYLE_ASSIGNMENT (( #206 ) ) ;
#101 = FACE_OUTER_BOUND ( 'NONE', #190, .T. ) ;
#102 = ORIENTED_EDGE ( 'NONE', *, *, #94, .T. ) ;
#103 =( GEOMETRIC_REPRESENTATION_CONTEXT ( 3 ) GLOBAL_UNCERTAINTY_ASSIGNED_CONTEXT ( ( #208 ) ) GLOBAL_UNIT_ASSIGNED_CONTEXT ( ( #13, #88, #243 ) ) REPRESENTATION_CONTEXT ( 'NONE', 'WORKASPACE' ) );
#104 = DIRECTION ( 'NONE',  ( -1.000000000000000000, 0.000000000000000000, 0.000000000000000000 ) ) ;
#105 = LENGTH_MEASURE_WITH_UNIT ( LENGTH_MEASURE( 0.02539999999999999897 ), #254 );
#106 = LINE ( 'NONE', #301, #215 ) ;
#107 =( GEOMETRIC_REPRESENTATION_CONTEXT ( 3 ) GLOBAL_UNCERTAINTY_ASSIGNED_CONTEXT ( ( #274 ) ) GLOBAL_UNIT_ASSIGNED_CONTEXT ( ( #282, #238, #24 ) ) REPRESENTATION_CONTEXT ( 'NONE', 'WORKASPACE' ) );
#108 = PLANE ( 'NONE',  #18 ) ;
#109 = DIRECTION ( 'NONE',  ( -1.000000000000000000, 0.000000000000000000, 0.000000000000000000 ) ) ;
#110 =( CONVERSION_BASED_UNIT ( 'INCH', #167 ) LENGTH_UNIT ( ) NAMED_UNIT ( #37 ) );
#111 =( GEOMETRIC_REPRESENTATION_CONTEXT ( 3 ) GLOBAL_UNCERTAINTY_ASSIGNED_CONTEXT ( ( #284 ) ) GLOBAL_UNIT_ASSIGNED_CONTEXT ( ( #213, #90, #180 ) ) REPRESENTATION_CONTEXT ( 'NONE', 'WORKASPACE' ) );
#112 =( NAMED_UNIT ( * ) SI_UNIT ( $, .STERADIAN. ) SOLID_ANGLE_UNIT ( ) );
#113 = PRODUCT_CONTEXT ( 'NONE', #157, 'mechanical' ) ;
#114 = VERTEX_POINT ( 'NONE', #138 ) ;
#115 = CARTESIAN_POINT ( 'NONE',  ( -0.5000000000000000000, 2.625000000000000000, 0.000000000000000000 ) ) ;
#116 =( CONVERSION_BASED_UNIT ( 'INCH', #31 ) LENGTH_UNIT ( ) NAMED_UNIT ( #170 ) );
#117 = CARTESIAN_POINT ( 'NONE',  ( 0.4999999999999999445, 6.000000000000000888, 6.123233995736767268E-17 ) ) ;
#118 = CARTESIAN_POINT ( 'NONE',  ( 0.5000000000000000000, 6.000000000000000888, 0.000000000000000000 ) ) ;
#119 = CIRCLE ( 'NONE', #135, 0.5000000000000001110 ) ;
#120 = DIRECTION ( 'NONE',  ( 0.000000000000000000, 0.000000000000000000, -1.000000000000000000 ) ) ;
#121 = LENGTH_MEASURE_WITH_UNIT ( LENGTH_MEASURE( 0.02539999999999999897 ), #148 );
#122 = PRESENTATION_STYLE_ASSIGNMENT (( #68 ) ) ;
#123 = VECTOR ( 'NONE', #257, 39.37007874015748143 ) ;
#124 = DIRECTION ( 'NONE',  ( 0.000000000000000000, 0.000000000000000000, -1.000000000000000000 ) ) ;
#125 = COLOUR_RGB ( '',1.000000000000000000, 0.000000000000000000, 0.000000000000000000 ) ;
#126 = ORIENTED_EDGE ( 'NONE', *, *, #191, .F. ) ;
#127 = PRODUCT ( '03767', '03767', '', ( #113 ) ) ;
#128 = SURFACE_STYLE_USAGE ( .BOTH. , #174 ) ;
#129 = EDGE_LOOP ( 'NONE', ( #47, #98, #43, #132 ) ) ;
#130 = LENGTH_MEASURE_WITH_UNIT ( LENGTH_MEASURE( 0.02539999999999999897 ), #93 );
#131 = AXIS2_PLACEMENT_3D ( 'NONE', #143, #244, #286 ) ;
#132 = ORIENTED_EDGE ( 'NONE', *, *, #201, .F. ) ;
#133 = ADVANCED_FACE ( 'NONE', ( #246 ), #34, .F. ) ;
#134 = DIRECTION ( 'NONE',  ( 0.000000000000000000, 0.000000000000000000, -1.000000000000000000 ) ) ;
#135 = AXIS2_PLACEMENT_3D ( 'NONE', #30, #184, #158 ) ;
#136 = DIRECTION ( 'NONE',  ( -1.000000000000000000, -3.628583108584753553E-17, 0.000000000000000000 ) ) ;
#137 = FILL_AREA_STYLE_COLOUR ( '', #193 ) ;
#138 = CARTESIAN_POINT ( 'NONE',  ( 0.000000000000000000, 0.000000000000000000, -0.5000000000000000000 ) ) ;
#139 = ORIENTED_EDGE ( 'NONE', *, *, #242, .T. ) ;
#140 = ORIENTED_EDGE ( 'NONE', *, *, #290, .F. ) ;
#141 = PRESENTATION_LAYER_ASSIGNMENT (  '', '', ( #79 ) ) ;
#142 = DIRECTION ( 'NONE',  ( 1.000000000000000000, 0.000000000000000000, 0.000000000000000000 ) ) ;
#143 = CARTESIAN_POINT ( 'NONE',  ( 0.000000000000000000, 0.000000000000000000, 0.000000000000000000 ) ) ;
#144 =( NAMED_UNIT ( * ) PLANE_ANGLE_UNIT ( ) SI_UNIT ( $, .RADIAN. ) );
#145 = EDGE_LOOP ( 'NONE', ( #140, #4, #97, #255 ) ) ;
#146 = AXIS2_PLACEMENT_3D ( 'NONE', #267, #168, #136 ) ;
#147 = UNCERTAINTY_MEASURE_WITH_UNIT (LENGTH_MEASURE( 1.000000000000000082E-05 ), #152, 'distance_accuracy_value', 'NONE');
#148 =( LENGTH_UNIT ( ) NAMED_UNIT ( * ) SI_UNIT ( $, .METRE. ) );
#149 = FILL_AREA_STYLE ('',( #65 ) ) ;
#150 = SURFACE_SIDE_STYLE ('',( #19 ) ) ;
#151 = PRESENTATION_STYLE_ASSIGNMENT (( #70 ) ) ;
#152 =( CONVERSION_BASED_UNIT ( 'INCH', #303 ) LENGTH_UNIT ( ) NAMED_UNIT ( #8 ) );
#153 = FILL_AREA_STYLE_COLOUR ( '', #66 ) ;
#154 = CARTESIAN_POINT ( 'NONE',  ( 0.000000000000000000, 0.000000000000000000, 0.000000000000000000 ) ) ;
#155 = AXIS2_PLACEMENT_3D ( 'NONE', #309, #1, #197 ) ;
#156 = CARTESIAN_POINT ( 'NONE',  ( -0.5000000000000002220, 6.000000000000000888, 0.000000000000000000 ) ) ;
#157 = APPLICATION_CONTEXT ( 'automotive_design' ) ;
#158 = DIRECTION ( 'NONE',  ( -1.000000000000000000, 0.000000000000000000, 0.000000000000000000 ) ) ;
#159 = ADVANCED_FACE ( 'NONE', ( #44 ), #60, .T. ) ;
#160 = CARTESIAN_POINT ( 'NONE',  ( 1.516480271171051896E-32, 2.625000000000000000, 0.000000000000000000 ) ) ;
#161 =( NAMED_UNIT ( * ) SI_UNIT ( $, .STERADIAN. ) SOLID_ANGLE_UNIT ( ) );
#162 = LINE ( 'NONE', #117, #304 ) ;
#163 = AXIS2_PLACEMENT_3D ( 'NONE', #118, #227, #52 ) ;
#164 = ORIENTED_EDGE ( 'NONE', *, *, #233, .T. ) ;
#165 =( GEOMETRIC_REPRESENTATION_CONTEXT ( 3 ) GLOBAL_UNCERTAINTY_ASSIGNED_CONTEXT ( ( #221 ) ) GLOBAL_UNIT_ASSIGNED_CONTEXT ( ( #222, #144, #172 ) ) REPRESENTATION_CONTEXT ( 'NONE', 'WORKASPACE' ) );
#166 = EDGE_CURVE ( 'NONE', #58, #195, #288, .T. ) ;
#167 = LENGTH_MEASURE_WITH_UNIT ( LENGTH_MEASURE( 0.02539999999999999897 ), #69 );
#168 = DIRECTION ( 'NONE',  ( -3.628583108584753553E-17, 1.000000000000000000, 0.000000000000000000 ) ) ;
#169 = EDGE_LOOP ( 'NONE', ( #171, #302 ) ) ;
#170 = DIMENSIONAL_EXPONENTS ( 1.000000000000000000, 0.000000000000000000, 0.000000000000000000, 0.000000000000000000, 0.000000000000000000, 0.000000000000000000, 0.000000000000000000 ) ;
#171 = ORIENTED_EDGE ( 'NONE', *, *, #242, .F. ) ;
#172 =( NAMED_UNIT ( * ) SI_UNIT ( $, .STERADIAN. ) SOLID_ANGLE_UNIT ( ) );
#173 = FILL_AREA_STYLE_COLOUR ( '', #71 ) ;
#174 = SURFACE_SIDE_STYLE ('',( #298 ) ) ;
#175 = FILL_AREA_STYLE_COLOUR ( '', #125 ) ;
#176 = SURFACE_STYLE_FILL_AREA ( #149 ) ;
#177 = CYLINDRICAL_SURFACE ( 'NONE', #64, 0.5000000000000000000 ) ;
#178 = DIRECTION ( 'NONE',  ( 0.000000000000000000, 1.000000000000000000, 0.000000000000000000 ) ) ;
#179 = EDGE_CURVE ( 'NONE', #195, #58, #50, .T. ) ;
#180 =( NAMED_UNIT ( * ) SI_UNIT ( $, .STERADIAN. ) SOLID_ANGLE_UNIT ( ) );
#181 = MANIFOLD_SOLID_BREP ( 'Revolve - Tool Body (Straight Shanked)', #202 ) ;
#182 = VECTOR ( 'NONE', #292, 39.37007874015748143 ) ;
#183 = PLANE ( 'NONE',  #131 ) ;
#184 = DIRECTION ( 'NONE',  ( -3.628583108584753553E-17, 1.000000000000000000, -0.000000000000000000 ) ) ;
#185 = MANIFOLD_SOLID_BREP ( 'Revolve - Cutting Edge', #211 ) ;
#186 = PRODUCT_DEFINITION_FORMATION_WITH_SPECIFIED_SOURCE ( 'ANY', '', #127, .NOT_KNOWN. ) ;
#187 = CARTESIAN_POINT ( 'NONE',  ( 0.5000000000000000000, 6.000000000000000888, 6.123233995736767268E-17 ) ) ;
#188 = APPLICATION_PROTOCOL_DEFINITION ( 'draft international standard', 'automotive_design', 1998, #225 ) ;
#189 = CARTESIAN_POINT ( 'NONE',  ( 6.123233995736766036E-17, 2.625000000000000000, 0.5000000000000000000 ) ) ;
#190 = EDGE_LOOP ( 'NONE', ( #2, #84, #92, #126 ) ) ;
#191 = EDGE_CURVE ( 'NONE', #195, #114, #106, .T. ) ;
#192 = DIMENSIONAL_EXPONENTS ( 1.000000000000000000, 0.000000000000000000, 0.000000000000000000, 0.000000000000000000, 0.000000000000000000, 0.000000000000000000, 0.000000000000000000 ) ;
#193 = COLOUR_RGB ( '',0.7921568627450980005, 0.8196078431372548767, 0.9333333333333333481 ) ;
#194 = CIRCLE ( 'NONE', #241, 0.5000000000000000000 ) ;
#195 = VERTEX_POINT ( 'NONE', #38 ) ;
#196 = SHAPE_DEFINITION_REPRESENTATION ( #10, #82 ) ;
#197 = DIRECTION ( 'NONE',  ( -1.000000000000000000, 0.000000000000000000, 0.000000000000000000 ) ) ;
#198 = DIMENSIONAL_EXPONENTS ( 1.000000000000000000, 0.000000000000000000, 0.000000000000000000, 0.000000000000000000, 0.000000000000000000, 0.000000000000000000, 0.000000000000000000 ) ;
#199 = FILL_AREA_STYLE ('',( #36 ) ) ;
#200 = DIRECTION ( 'NONE',  ( -0.000000000000000000, -1.000000000000000000, -0.000000000000000000 ) ) ;
#201 = EDGE_CURVE ( 'NONE', #266, #29, #264, .T. ) ;
#202 = CLOSED_SHELL ( 'NONE', ( #12, #46, #251, #133 ) ) ;
#203 = STYLED_ITEM ( 'NONE', ( #151 ), #224 ) ;
#204 = SURFACE_STYLE_FILL_AREA ( #199 ) ;
#205 = DIMENSIONAL_EXPONENTS ( 1.000000000000000000, 0.000000000000000000, 0.000000000000000000, 0.000000000000000000, 0.000000000000000000, 0.000000000000000000, 0.000000000000000000 ) ;
#206 = SURFACE_STYLE_USAGE ( .BOTH. , #33 ) ;
#207 = FILL_AREA_STYLE ('',( #173 ) ) ;
#208 = UNCERTAINTY_MEASURE_WITH_UNIT (LENGTH_MEASURE( 1.000000000000000082E-05 ), #13, 'distance_accuracy_value', 'NONE');
#209 = EDGE_CURVE ( 'NONE', #114, #287, #228, .T. ) ;
#210 = ORIENTED_EDGE ( 'NONE', *, *, #179, .F. ) ;
#211 = CLOSED_SHELL ( 'NONE', ( #32, #218, #159, #224 ) ) ;
#212 = ORIENTED_EDGE ( 'NONE', *, *, #209, .T. ) ;
#213 =( CONVERSION_BASED_UNIT ( 'INCH', #121 ) LENGTH_UNIT ( ) NAMED_UNIT ( #205 ) );
#214 = PRESENTATION_LAYER_ASSIGNMENT (  '', '', ( #252 ) ) ;
#215 = VECTOR ( 'NONE', #300, 39.37007874015748143 ) ;
#216 = CARTESIAN_POINT ( 'NONE',  ( 0.000000000000000000, 2.625000000000000000, 0.000000000000000000 ) ) ;
#217 = DIRECTION ( 'NONE',  ( -3.628583108584753553E-17, 1.000000000000000000, -0.000000000000000000 ) ) ;
#218 = ADVANCED_FACE ( 'NONE', ( #73 ), #108, .T. ) ;
#219 = CARTESIAN_POINT ( 'NONE',  ( -1.224646799147354440E-16, 6.000000000000000888, 0.000000000000000000 ) ) ;
#220 = MECHANICAL_DESIGN_GEOMETRIC_PRESENTATION_REPRESENTATION (  '', ( #79 ), #111 ) ;
#221 = UNCERTAINTY_MEASURE_WITH_UNIT (LENGTH_MEASURE( 1.000000000000000082E-05 ), #222, 'distance_accuracy_value', 'NONE');
#222 =( CONVERSION_BASED_UNIT ( 'INCH', #105 ) LENGTH_UNIT ( ) NAMED_UNIT ( #192 ) );
#223 = PLANE ( 'NONE',  #146 ) ;
#224 = ADVANCED_FACE ( 'NONE', ( #285 ), #183, .T. ) ;
#225 = APPLICATION_CONTEXT ( 'automotive_design' ) ;
#226 = EDGE_LOOP ( 'NONE', ( #210, #291 ) ) ;
#227 = DIRECTION ( 'NONE',  ( 3.628583108584753553E-17, -1.000000000000000000, 0.000000000000000000 ) ) ;
#228 = CIRCLE ( 'NONE', #293, 0.5000000000000000000 ) ;
#229 = LENGTH_MEASURE_WITH_UNIT ( LENGTH_MEASURE( 0.02539999999999999897 ), #268 );
#230 = AXIS2_PLACEMENT_3D ( 'NONE', #3, #261, #142 ) ;
#231 = DIRECTION ( 'NONE',  ( -0.000000000000000000, -1.000000000000000000, -0.000000000000000000 ) ) ;
#232 = EDGE_LOOP ( 'NONE', ( #212, #16 ) ) ;
#233 = EDGE_CURVE ( 'NONE', #29, #266, #119, .T. ) ;
#234 = VERTEX_POINT ( 'NONE', #81 ) ;
#235 = FILL_AREA_STYLE ('',( #175 ) ) ;
#236 = VERTEX_POINT ( 'NONE', #115 ) ;
#237 =( GEOMETRIC_REPRESENTATION_CONTEXT ( 3 ) GLOBAL_UNCERTAINTY_ASSIGNED_CONTEXT ( ( #21 ) ) GLOBAL_UNIT_ASSIGNED_CONTEXT ( ( #110, #265, #161 ) ) REPRESENTATION_CONTEXT ( 'NONE', 'WORKASPACE' ) );
#238 =( NAMED_UNIT ( * ) PLANE_ANGLE_UNIT ( ) SI_UNIT ( $, .RADIAN. ) );
#239 = DIRECTION ( 'NONE',  ( -3.628583108584753553E-17, 1.000000000000000000, -0.000000000000000000 ) ) ;
#240 = DIRECTION ( 'NONE',  ( -1.000000000000000000, 0.000000000000000000, 0.000000000000000000 ) ) ;
#241 = AXIS2_PLACEMENT_3D ( 'NONE', #160, #27, #109 ) ;
#242 = EDGE_CURVE ( 'NONE', #236, #234, #194, .T. ) ;
#243 =( NAMED_UNIT ( * ) SI_UNIT ( $, .STERADIAN. ) SOLID_ANGLE_UNIT ( ) );
#244 = DIRECTION ( 'NONE',  ( 0.000000000000000000, -1.000000000000000000, -0.000000000000000000 ) ) ;
#245 = SURFACE_STYLE_FILL_AREA ( #63 ) ;
#246 = FACE_OUTER_BOUND ( 'NONE', #247, .T. ) ;
#247 = EDGE_LOOP ( 'NONE', ( #164, #280 ) ) ;
#248 = CARTESIAN_POINT ( 'NONE',  ( 0.000000000000000000, 0.000000000000000000, 0.000000000000000000 ) ) ;
#249 = PRESENTATION_LAYER_ASSIGNMENT (  '', '', ( #78 ) ) ;
#250 = FACE_OUTER_BOUND ( 'NONE', #272, .T. ) ;
#251 = ADVANCED_FACE ( 'NONE', ( #271 ), #259, .T. ) ;
#252 = STYLED_ITEM ( 'NONE', ( #307 ), #159 ) ;
#253 = STYLED_ITEM ( 'NONE', ( #277 ), #218 ) ;
#254 =( LENGTH_UNIT ( ) NAMED_UNIT ( * ) SI_UNIT ( $, .METRE. ) );
#255 = ORIENTED_EDGE ( 'NONE', *, *, #39, .F. ) ;
#256 = PRESENTATION_LAYER_ASSIGNMENT (  '', '', ( #253 ) ) ;
#257 = DIRECTION ( 'NONE',  ( -3.628583108584753553E-17, 1.000000000000000000, -0.000000000000000000 ) ) ;
#258 = LINE ( 'NONE', #156, #123 ) ;
#259 = CYLINDRICAL_SURFACE ( 'NONE', #59, 0.5000000000000001110 ) ;
#260 = EDGE_CURVE ( 'NONE', #234, #236, #299, .T. ) ;
#261 = DIRECTION ( 'NONE',  ( 0.000000000000000000, 0.000000000000000000, 1.000000000000000000 ) ) ;
#262 = DIMENSIONAL_EXPONENTS ( 1.000000000000000000, 0.000000000000000000, 0.000000000000000000, 0.000000000000000000, 0.000000000000000000, 0.000000000000000000, 0.000000000000000000 ) ;
#263 = AXIS2_PLACEMENT_3D ( 'NONE', #83, #87, #80 ) ;
#264 = CIRCLE ( 'NONE', #96, 0.5000000000000001110 ) ;
#265 =( NAMED_UNIT ( * ) PLANE_ANGLE_UNIT ( ) SI_UNIT ( $, .RADIAN. ) );
#266 = VERTEX_POINT ( 'NONE', #187 ) ;
#267 = CARTESIAN_POINT ( 'NONE',  ( 3.291653843976647826E-34, 2.625000000000000000, 0.000000000000000000 ) ) ;
#268 =( LENGTH_UNIT ( ) NAMED_UNIT ( * ) SI_UNIT ( $, .METRE. ) );
#269 = AXIS2_PLACEMENT_3D ( 'NONE', #6, #15, #120 ) ;
#270 = DIRECTION ( 'NONE',  ( 0.000000000000000000, 0.000000000000000000, -1.000000000000000000 ) ) ;
#271 = FACE_OUTER_BOUND ( 'NONE', #129, .T. ) ;
#272 = EDGE_LOOP ( 'NONE', ( #139, #102, #294, #56 ) ) ;
#273 =( NAMED_UNIT ( * ) PLANE_ANGLE_UNIT ( ) SI_UNIT ( $, .RADIAN. ) );
#274 = UNCERTAINTY_MEASURE_WITH_UNIT (LENGTH_MEASURE( 1.000000000000000082E-05 ), #282, 'distance_accuracy_value', 'NONE');
#275 = PRESENTATION_LAYER_ASSIGNMENT (  '', '', ( #42 ) ) ;
#276 = PRESENTATION_STYLE_ASSIGNMENT (( #128 ) ) ;
#277 = PRESENTATION_STYLE_ASSIGNMENT (( #17 ) ) ;
#278 = SURFACE_SIDE_STYLE ('',( #176 ) ) ;
#279 = SURFACE_STYLE_FILL_AREA ( #75 ) ;
#280 = ORIENTED_EDGE ( 'NONE', *, *, #201, .T. ) ;
#281 = MECHANICAL_DESIGN_GEOMETRIC_PRESENTATION_REPRESENTATION (  '', ( #78 ), #237 ) ;
#282 =( CONVERSION_BASED_UNIT ( 'INCH', #130 ) LENGTH_UNIT ( ) NAMED_UNIT ( #198 ) );
#283 =( GEOMETRIC_REPRESENTATION_CONTEXT ( 3 ) GLOBAL_UNCERTAINTY_ASSIGNED_CONTEXT ( ( #147 ) ) GLOBAL_UNIT_ASSIGNED_CONTEXT ( ( #152, #22, #112 ) ) REPRESENTATION_CONTEXT ( 'NONE', 'WORKASPACE' ) );
#284 = UNCERTAINTY_MEASURE_WITH_UNIT (LENGTH_MEASURE( 1.000000000000000082E-05 ), #213, 'distance_accuracy_value', 'NONE');
#285 = FACE_OUTER_BOUND ( 'NONE', #232, .T. ) ;
#286 = DIRECTION ( 'NONE',  ( 0.000000000000000000, 0.000000000000000000, -1.000000000000000000 ) ) ;
#287 = VERTEX_POINT ( 'NONE', #53 ) ;
#288 = CIRCLE ( 'NONE', #99, 0.5000000000000000000 ) ;
#289 = CARTESIAN_POINT ( 'NONE',  ( 0.000000000000000000, 0.000000000000000000, 0.000000000000000000 ) ) ;
#290 = EDGE_CURVE ( 'NONE', #58, #287, #61, .T. ) ;
#291 = ORIENTED_EDGE ( 'NONE', *, *, #166, .F. ) ;
#292 = DIRECTION ( 'NONE',  ( -0.000000000000000000, -1.000000000000000000, -0.000000000000000000 ) ) ;
#293 = AXIS2_PLACEMENT_3D ( 'NONE', #154, #74, #134 ) ;
#294 = ORIENTED_EDGE ( 'NONE', *, *, #233, .F. ) ;
#295 = CYLINDRICAL_SURFACE ( 'NONE', #23, 0.5000000000000001110 ) ;
#296 = SURFACE_SIDE_STYLE ('',( #204 ) ) ;
#297 = UNCERTAINTY_MEASURE_WITH_UNIT (LENGTH_MEASURE( 1.000000000000000082E-05 ), #116, 'distance_accuracy_value', 'NONE');
#298 = SURFACE_STYLE_FILL_AREA ( #207 ) ;
#299 = CIRCLE ( 'NONE', #155, 0.5000000000000000000 ) ;
#300 = DIRECTION ( 'NONE',  ( -0.000000000000000000, -1.000000000000000000, -0.000000000000000000 ) ) ;
#301 = CARTESIAN_POINT ( 'NONE',  ( 0.000000000000000000, 0.000000000000000000, -0.5000000000000000000 ) ) ;
#302 = ORIENTED_EDGE ( 'NONE', *, *, #260, .F. ) ;
#303 = LENGTH_MEASURE_WITH_UNIT ( LENGTH_MEASURE( 0.02539999999999999897 ), #48 );
#304 = VECTOR ( 'NONE', #57, 39.37007874015748143 ) ;
#305 = CARTESIAN_POINT ( 'NONE',  ( -1.224646799147354440E-16, 6.000000000000000888, 0.000000000000000000 ) ) ;
#306 = AXIS2_PLACEMENT_3D ( 'NONE', #248, #200, #124 ) ;
#307 = PRESENTATION_STYLE_ASSIGNMENT (( #91 ) ) ;
#308 = DIRECTION ( 'NONE',  ( 0.000000000000000000, -0.000000000000000000, 1.000000000000000000 ) ) ;
#309 = CARTESIAN_POINT ( 'NONE',  ( 1.516480271171051896E-32, 2.625000000000000000, 0.000000000000000000 ) ) ;
ENDSEC;
END-ISO-10303-21;
