ISO-10303-21;
HEADER;
FILE_DESCRIPTION (( 'STEP AP214' ),
    '1' );
FILE_NAME ('59696.STEP',
    '2023-07-24T15:53:34',
    ( '' ),
    ( '' ),
    'SwSTEP 2.0',
    'SolidWorks 2023',
    '' );
FILE_SCHEMA (( 'AUTOMOTIVE_DESIGN' ));
ENDSEC;

DATA;
#1 = VERTEX_POINT ( 'NONE', #213 ) ;
#2 = COLOUR_RGB ( '',1.000000000000000000, 0.000000000000000000, 0.000000000000000000 ) ;
#3 = SURFACE_SIDE_STYLE ('',( #68 ) ) ;
#4 = ORIENTED_EDGE ( 'NONE', *, *, #111, .T. ) ;
#5 = AXIS2_PLACEMENT_3D ( 'NONE', #15, #281, #153 ) ;
#6 = PRESENTATION_STYLE_ASSIGNMENT (( #31 ) ) ;
#7 = DIRECTION ( 'NONE',  ( 0.000000000000000000, 0.000000000000000000, -1.000000000000000000 ) ) ;
#8 = EDGE_CURVE ( 'NONE', #22, #182, #99, .T. ) ;
#9 = ADVANCED_FACE ( 'NONE', ( #35 ), #267, .F. ) ;
#10 = CARTESIAN_POINT ( 'NONE',  ( -3.999999999999996447, 63.00000000000000000, 0.000000000000000000 ) ) ;
#11 =( NAMED_UNIT ( * ) SI_UNIT ( $, .STERADIAN. ) SOLID_ANGLE_UNIT ( ) );
#12 = CARTESIAN_POINT ( 'NONE',  ( 0.000000000000000000, 0.000000000000000000, 0.000000000000000000 ) ) ;
#13 = DIRECTION ( 'NONE',  ( 0.000000000000000000, 0.000000000000000000, -1.000000000000000000 ) ) ;
#14 = DIRECTION ( 'NONE',  ( 0.000000000000000000, 0.000000000000000000, -1.000000000000000000 ) ) ;
#15 = CARTESIAN_POINT ( 'NONE',  ( 0.000000000000000000, 12.00000000000000000, 0.000000000000000000 ) ) ;
#16 = AXIS2_PLACEMENT_3D ( 'NONE', #140, #163, #112 ) ;
#17 = CARTESIAN_POINT ( 'NONE',  ( -4.000000000000000000, 11.99999999999999645, 0.000000000000000000 ) ) ;
#18 = CIRCLE ( 'NONE', #205, 4.000000000000000000 ) ;
#19 = FACE_OUTER_BOUND ( 'NONE', #45, .T. ) ;
#20 = VERTEX_POINT ( 'NONE', #17 ) ;
#21 =( GEOMETRIC_REPRESENTATION_CONTEXT ( 3 ) GLOBAL_UNCERTAINTY_ASSIGNED_CONTEXT ( ( #274 ) ) GLOBAL_UNIT_ASSIGNED_CONTEXT ( ( #240, #183, #158 ) ) REPRESENTATION_CONTEXT ( 'NONE', 'WORKASPACE' ) );
#22 = VERTEX_POINT ( 'NONE', #191 ) ;
#23 = ORIENTED_EDGE ( 'NONE', *, *, #111, .F. ) ;
#24 = MECHANICAL_DESIGN_GEOMETRIC_PRESENTATION_REPRESENTATION (  '', ( #131 ), #167 ) ;
#25 = UNCERTAINTY_MEASURE_WITH_UNIT (LENGTH_MEASURE( 1.000000000000000082E-05 ), #105, 'distance_accuracy_value', 'NONE');
#26 = ORIENTED_EDGE ( 'NONE', *, *, #247, .T. ) ;
#27 = AXIS2_PLACEMENT_3D ( 'NONE', #12, #127, #14 ) ;
#28 = VECTOR ( 'NONE', #171, 1000.000000000000000 ) ;
#29 = VERTEX_POINT ( 'NONE', #78 ) ;
#30 = ORIENTED_EDGE ( 'NONE', *, *, #181, .F. ) ;
#31 = SURFACE_STYLE_USAGE ( .BOTH. , #66 ) ;
#32 = DIRECTION ( 'NONE',  ( 0.000000000000000000, 0.000000000000000000, -1.000000000000000000 ) ) ;
#33 =( NAMED_UNIT ( * ) SI_UNIT ( $, .STERADIAN. ) SOLID_ANGLE_UNIT ( ) );
#34 = FACE_OUTER_BOUND ( 'NONE', #235, .T. ) ;
#35 = FACE_OUTER_BOUND ( 'NONE', #72, .T. ) ;
#36 = DIRECTION ( 'NONE',  ( -0.000000000000000000, -1.000000000000000000, -0.000000000000000000 ) ) ;
#37 = AXIS2_PLACEMENT_3D ( 'NONE', #169, #147, #32 ) ;
#38 =( LENGTH_UNIT ( ) NAMED_UNIT ( * ) SI_UNIT ( .MILLI., .METRE. ) );
#39 = EDGE_CURVE ( 'NONE', #20, #275, #100, .T. ) ;
#40 = CIRCLE ( 'NONE', #130, 3.999999999999998224 ) ;
#41 = CARTESIAN_POINT ( 'NONE',  ( 4.898587196589412829E-16, 0.000000000000000000, 4.000000000000000000 ) ) ;
#42 = EDGE_CURVE ( 'NONE', #1, #275, #40, .T. ) ;
#43 = AXIS2_PLACEMENT_3D ( 'NONE', #201, #286, #178 ) ;
#44 = DIRECTION ( 'NONE',  ( 0.000000000000000000, 0.000000000000000000, 1.000000000000000000 ) ) ;
#45 = EDGE_LOOP ( 'NONE', ( #208, #256, #227, #65 ) ) ;
#46 = FILL_AREA_STYLE ('',( #237 ) ) ;
#47 = UNCERTAINTY_MEASURE_WITH_UNIT (LENGTH_MEASURE( 1.000000000000000082E-05 ), #212, 'distance_accuracy_value', 'NONE');
#48 = SURFACE_STYLE_FILL_AREA ( #46 ) ;
#49 = PRODUCT_CONTEXT ( 'NONE', #264, 'mechanical' ) ;
#50 = CARTESIAN_POINT ( 'NONE',  ( 0.000000000000000000, 12.00000000000000000, 0.000000000000000000 ) ) ;
#51 = ORIENTED_EDGE ( 'NONE', *, *, #39, .F. ) ;
#52 = PRODUCT ( '59696', '59696', '', ( #49 ) ) ;
#53 = STYLED_ITEM ( 'NONE', ( #149 ), #206 ) ;
#54 = FACE_OUTER_BOUND ( 'NONE', #210, .T. ) ;
#55 =( GEOMETRIC_REPRESENTATION_CONTEXT ( 3 ) GLOBAL_UNCERTAINTY_ASSIGNED_CONTEXT ( ( #207 ) ) GLOBAL_UNIT_ASSIGNED_CONTEXT ( ( #125, #221, #33 ) ) REPRESENTATION_CONTEXT ( 'NONE', 'WORKASPACE' ) );
#56 = DIRECTION ( 'NONE',  ( -0.000000000000000000, -1.000000000000000000, -0.000000000000000000 ) ) ;
#57 = SURFACE_STYLE_USAGE ( .BOTH. , #225 ) ;
#58 = DIRECTION ( 'NONE',  ( -1.000000000000000000, 0.000000000000000000, 0.000000000000000000 ) ) ;
#59 = EDGE_CURVE ( 'NONE', #232, #29, #134, .T. ) ;
#60 = COLOUR_RGB ( '',1.000000000000000000, 0.000000000000000000, 0.000000000000000000 ) ;
#61 = CARTESIAN_POINT ( 'NONE',  ( -3.999999999999997335, 63.00000000000000000, 0.000000000000000000 ) ) ;
#62 = VECTOR ( 'NONE', #56, 1000.000000000000000 ) ;
#63 = COLOUR_RGB ( '',0.7921568627450980005, 0.8196078431372548767, 0.9333333333333333481 ) ;
#64 = AXIS2_PLACEMENT_3D ( 'NONE', #142, #238, #174 ) ;
#65 = ORIENTED_EDGE ( 'NONE', *, *, #42, .F. ) ;
#66 = SURFACE_SIDE_STYLE ('',( #48 ) ) ;
#67 = ORIENTED_EDGE ( 'NONE', *, *, #230, .F. ) ;
#68 = SURFACE_STYLE_FILL_AREA ( #93 ) ;
#69 = APPLICATION_PROTOCOL_DEFINITION ( 'draft international standard', 'automotive_design', 1998, #264 ) ;
#70 = STYLED_ITEM ( 'NONE', ( #6 ), #224 ) ;
#71 = PLANE ( 'NONE',  #285 ) ;
#72 = EDGE_LOOP ( 'NONE', ( #259, #260 ) ) ;
#73 = COLOUR_RGB ( '',1.000000000000000000, 0.000000000000000000, 0.000000000000000000 ) ;
#74 = DIRECTION ( 'NONE',  ( 2.881521880346712812E-17, 1.000000000000000000, -0.000000000000000000 ) ) ;
#75 = PRESENTATION_LAYER_ASSIGNMENT (  '', '', ( #288 ) ) ;
#76 = EDGE_CURVE ( 'NONE', #232, #182, #102, .T. ) ;
#77 = DIRECTION ( 'NONE',  ( 2.881521880346712812E-17, 1.000000000000000000, -0.000000000000000000 ) ) ;
#78 = CARTESIAN_POINT ( 'NONE',  ( 0.000000000000000000, 12.00000000000000000, -4.000000000000000000 ) ) ;
#79 =( GEOMETRIC_REPRESENTATION_CONTEXT ( 3 ) GLOBAL_UNCERTAINTY_ASSIGNED_CONTEXT ( ( #159 ) ) GLOBAL_UNIT_ASSIGNED_CONTEXT ( ( #166, #186, #187 ) ) REPRESENTATION_CONTEXT ( 'NONE', 'WORKASPACE' ) );
#80 = SURFACE_STYLE_USAGE ( .BOTH. , #194 ) ;
#81 = CARTESIAN_POINT ( 'NONE',  ( 0.000000000000000000, 11.99999999999999645, 0.000000000000000000 ) ) ;
#82 = CYLINDRICAL_SURFACE ( 'NONE', #120, 4.000000000000000000 ) ;
#83 =( NAMED_UNIT ( * ) PLANE_ANGLE_UNIT ( ) SI_UNIT ( $, .RADIAN. ) );
#84 = PRESENTATION_LAYER_ASSIGNMENT (  '', '', ( #53 ) ) ;
#85 = SURFACE_STYLE_FILL_AREA ( #86 ) ;
#86 = FILL_AREA_STYLE ('',( #254 ) ) ;
#87 = SURFACE_SIDE_STYLE ('',( #85 ) ) ;
#88 = PRESENTATION_LAYER_ASSIGNMENT (  '', '', ( #104 ) ) ;
#89 = UNCERTAINTY_MEASURE_WITH_UNIT (LENGTH_MEASURE( 1.000000000000000082E-05 ), #38, 'distance_accuracy_value', 'NONE');
#90 = VECTOR ( 'NONE', #246, 1000.000000000000000 ) ;
#91 = EDGE_LOOP ( 'NONE', ( #270, #157 ) ) ;
#92 = ORIENTED_EDGE ( 'NONE', *, *, #247, .F. ) ;
#93 = FILL_AREA_STYLE ('',( #261 ) ) ;
#94 = ORIENTED_EDGE ( 'NONE', *, *, #59, .F. ) ;
#95 = CLOSED_SHELL ( 'NONE', ( #164, #255, #197, #9 ) ) ;
#96 = CYLINDRICAL_SURFACE ( 'NONE', #188, 4.000000000000000000 ) ;
#97 = CARTESIAN_POINT ( 'NONE',  ( 1.469576158976823750E-15, 63.00000000000000000, 0.000000000000000000 ) ) ;
#98 = EDGE_CURVE ( 'NONE', #275, #1, #219, .T. ) ;
#99 = CIRCLE ( 'NONE', #64, 4.000000000000000000 ) ;
#100 = LINE ( 'NONE', #61, #90 ) ;
#101 = SURFACE_STYLE_FILL_AREA ( #122 ) ;
#102 = LINE ( 'NONE', #41, #280 ) ;
#103 = EDGE_CURVE ( 'NONE', #135, #1, #222, .T. ) ;
#104 = STYLED_ITEM ( 'NONE', ( #257 ), #229 ) ;
#105 =( LENGTH_UNIT ( ) NAMED_UNIT ( * ) SI_UNIT ( .MILLI., .METRE. ) );
#106 = CARTESIAN_POINT ( 'NONE',  ( 4.000000000000000888, 63.00000000000000000, 4.898587196589411843E-16 ) ) ;
#107 = CYLINDRICAL_SURFACE ( 'NONE', #43, 3.999999999999999112 ) ;
#108 =( LENGTH_UNIT ( ) NAMED_UNIT ( * ) SI_UNIT ( .MILLI., .METRE. ) );
#109 = ORIENTED_EDGE ( 'NONE', *, *, #98, .F. ) ;
#110 = DIRECTION ( 'NONE',  ( -0.000000000000000000, -1.000000000000000000, -0.000000000000000000 ) ) ;
#111 = EDGE_CURVE ( 'NONE', #29, #22, #193, .T. ) ;
#112 = DIRECTION ( 'NONE',  ( 0.000000000000000000, -0.000000000000000000, 1.000000000000000000 ) ) ;
#113 = PRODUCT_DEFINITION_CONTEXT ( 'detailed design', #239, 'design' ) ;
#114 = EDGE_LOOP ( 'NONE', ( #92, #94 ) ) ;
#115 = ORIENTED_EDGE ( 'NONE', *, *, #156, .T. ) ;
#116 = AXIS2_PLACEMENT_3D ( 'NONE', #81, #265, #150 ) ;
#117 = SURFACE_STYLE_USAGE ( .BOTH. , #3 ) ;
#118 = ORIENTED_EDGE ( 'NONE', *, *, #103, .T. ) ;
#119 = SURFACE_STYLE_FILL_AREA ( #279 ) ;
#120 = AXIS2_PLACEMENT_3D ( 'NONE', #218, #284, #13 ) ;
#121 = FILL_AREA_STYLE_COLOUR ( '', #2 ) ;
#122 = FILL_AREA_STYLE ('',( #121 ) ) ;
#123 = CARTESIAN_POINT ( 'NONE',  ( 4.000000000000000000, 11.99999999999999645, 4.898587196589411843E-16 ) ) ;
#124 = ADVANCED_FACE ( 'NONE', ( #170 ), #82, .T. ) ;
#125 =( LENGTH_UNIT ( ) NAMED_UNIT ( * ) SI_UNIT ( .MILLI., .METRE. ) );
#126 = CARTESIAN_POINT ( 'NONE',  ( 4.000000000000000000, 63.00000000000000000, 0.000000000000000000 ) ) ;
#127 = DIRECTION ( 'NONE',  ( 0.000000000000000000, -1.000000000000000000, -0.000000000000000000 ) ) ;
#128 = SHAPE_DEFINITION_REPRESENTATION ( #161, #199 ) ;
#129 =( NAMED_UNIT ( * ) PLANE_ANGLE_UNIT ( ) SI_UNIT ( $, .RADIAN. ) );
#130 = AXIS2_PLACEMENT_3D ( 'NONE', #97, #251, #58 ) ;
#131 = STYLED_ITEM ( 'NONE', ( #220 ), #124 ) ;
#132 =( NAMED_UNIT ( * ) PLANE_ANGLE_UNIT ( ) SI_UNIT ( $, .RADIAN. ) );
#133 = PRESENTATION_STYLE_ASSIGNMENT (( #175 ) ) ;
#134 = CIRCLE ( 'NONE', #5, 4.000000000000000000 ) ;
#135 = VERTEX_POINT ( 'NONE', #123 ) ;
#136 = EDGE_LOOP ( 'NONE', ( #115, #118, #109, #51 ) ) ;
#137 = MECHANICAL_DESIGN_GEOMETRIC_PRESENTATION_REPRESENTATION (  '', ( #177 ), #55 ) ;
#138 = CARTESIAN_POINT ( 'NONE',  ( 0.000000000000000000, 0.000000000000000000, 0.000000000000000000 ) ) ;
#139 = UNCERTAINTY_MEASURE_WITH_UNIT (LENGTH_MEASURE( 1.000000000000000082E-05 ), #108, 'distance_accuracy_value', 'NONE');
#140 = CARTESIAN_POINT ( 'NONE',  ( 0.000000000000000000, 12.00000000000000000, 0.000000000000000000 ) ) ;
#141 = ORIENTED_EDGE ( 'NONE', *, *, #8, .F. ) ;
#142 = CARTESIAN_POINT ( 'NONE',  ( 0.000000000000000000, 0.000000000000000000, 0.000000000000000000 ) ) ;
#143 = CARTESIAN_POINT ( 'NONE',  ( 0.000000000000000000, 11.99999999999999645, 0.000000000000000000 ) ) ;
#144 = CARTESIAN_POINT ( 'NONE',  ( 1.469576158976823750E-15, 63.00000000000000000, 0.000000000000000000 ) ) ;
#145 = DIRECTION ( 'NONE',  ( -1.000000000000000000, 0.000000000000000000, 0.000000000000000000 ) ) ;
#146 = CIRCLE ( 'NONE', #116, 4.000000000000000000 ) ;
#147 = DIRECTION ( 'NONE',  ( -0.000000000000000000, -1.000000000000000000, -0.000000000000000000 ) ) ;
#148 = FILL_AREA_STYLE ('',( #198 ) ) ;
#149 = PRESENTATION_STYLE_ASSIGNMENT (( #80 ) ) ;
#150 = DIRECTION ( 'NONE',  ( -1.000000000000000000, 0.000000000000000000, 0.000000000000000000 ) ) ;
#151 = PLANE ( 'NONE',  #27 ) ;
#152 = PRESENTATION_LAYER_ASSIGNMENT (  '', '', ( #177 ) ) ;
#153 = DIRECTION ( 'NONE',  ( 0.000000000000000000, 0.000000000000000000, -1.000000000000000000 ) ) ;
#154 = ORIENTED_EDGE ( 'NONE', *, *, #76, .F. ) ;
#155 = MECHANICAL_DESIGN_GEOMETRIC_PRESENTATION_REPRESENTATION (  '', ( #70 ), #21 ) ;
#156 = EDGE_CURVE ( 'NONE', #20, #135, #146, .T. ) ;
#157 = ORIENTED_EDGE ( 'NONE', *, *, #181, .T. ) ;
#158 =( NAMED_UNIT ( * ) SI_UNIT ( $, .STERADIAN. ) SOLID_ANGLE_UNIT ( ) );
#159 = UNCERTAINTY_MEASURE_WITH_UNIT (LENGTH_MEASURE( 1.000000000000000082E-05 ), #166, 'distance_accuracy_value', 'NONE');
#160 = DIRECTION ( 'NONE',  ( 2.881521880346712812E-17, 1.000000000000000000, -0.000000000000000000 ) ) ;
#161 = PRODUCT_DEFINITION_SHAPE ( 'NONE', 'NONE',  #165 ) ;
#162 = EDGE_LOOP ( 'NONE', ( #154, #211, #4, #30 ) ) ;
#163 = DIRECTION ( 'NONE',  ( 0.000000000000000000, 1.000000000000000000, 0.000000000000000000 ) ) ;
#164 = ADVANCED_FACE ( 'NONE', ( #248 ), #107, .T. ) ;
#165 = PRODUCT_DEFINITION ( 'UNKNOWN', '', #180, #113 ) ;
#166 =( LENGTH_UNIT ( ) NAMED_UNIT ( * ) SI_UNIT ( .MILLI., .METRE. ) );
#167 =( GEOMETRIC_REPRESENTATION_CONTEXT ( 3 ) GLOBAL_UNCERTAINTY_ASSIGNED_CONTEXT ( ( #89 ) ) GLOBAL_UNIT_ASSIGNED_CONTEXT ( ( #38, #129, #242 ) ) REPRESENTATION_CONTEXT ( 'NONE', 'WORKASPACE' ) );
#168 = PRESENTATION_STYLE_ASSIGNMENT (( #283 ) ) ;
#169 = CARTESIAN_POINT ( 'NONE',  ( 0.000000000000000000, 0.000000000000000000, 0.000000000000000000 ) ) ;
#170 = FACE_OUTER_BOUND ( 'NONE', #162, .T. ) ;
#171 = DIRECTION ( 'NONE',  ( 2.881521880346712812E-17, 1.000000000000000000, -0.000000000000000000 ) ) ;
#172 = AXIS2_PLACEMENT_3D ( 'NONE', #138, #44, #204 ) ;
#173 = CYLINDRICAL_SURFACE ( 'NONE', #278, 3.999999999999999112 ) ;
#174 = DIRECTION ( 'NONE',  ( 0.000000000000000000, 0.000000000000000000, -1.000000000000000000 ) ) ;
#175 = SURFACE_STYLE_USAGE ( .BOTH. , #87 ) ;
#176 = DIRECTION ( 'NONE',  ( -2.881521880346712812E-17, -1.000000000000000000, 0.000000000000000000 ) ) ;
#177 = STYLED_ITEM ( 'NONE', ( #168 ), #200 ) ;
#178 = DIRECTION ( 'NONE',  ( -1.000000000000000000, 0.000000000000000000, 0.000000000000000000 ) ) ;
#179 = CLOSED_SHELL ( 'NONE', ( #206, #214, #124, #200 ) ) ;
#180 = PRODUCT_DEFINITION_FORMATION_WITH_SPECIFIED_SOURCE ( 'ANY', '', #52, .NOT_KNOWN. ) ;
#181 = EDGE_CURVE ( 'NONE', #182, #22, #184, .T. ) ;
#182 = VERTEX_POINT ( 'NONE', #192 ) ;
#183 =( NAMED_UNIT ( * ) PLANE_ANGLE_UNIT ( ) SI_UNIT ( $, .RADIAN. ) );
#184 = CIRCLE ( 'NONE', #37, 4.000000000000000000 ) ;
#185 = ORIENTED_EDGE ( 'NONE', *, *, #76, .T. ) ;
#186 =( NAMED_UNIT ( * ) PLANE_ANGLE_UNIT ( ) SI_UNIT ( $, .RADIAN. ) );
#187 =( NAMED_UNIT ( * ) SI_UNIT ( $, .STERADIAN. ) SOLID_ANGLE_UNIT ( ) );
#188 = AXIS2_PLACEMENT_3D ( 'NONE', #287, #110, #203 ) ;
#189 =( GEOMETRIC_REPRESENTATION_CONTEXT ( 3 ) GLOBAL_UNCERTAINTY_ASSIGNED_CONTEXT ( ( #47 ) ) GLOBAL_UNIT_ASSIGNED_CONTEXT ( ( #212, #244, #11 ) ) REPRESENTATION_CONTEXT ( 'NONE', 'WORKASPACE' ) );
#190 = FILL_AREA_STYLE_COLOUR ( '', #272 ) ;
#191 = CARTESIAN_POINT ( 'NONE',  ( 0.000000000000000000, 0.000000000000000000, -4.000000000000000000 ) ) ;
#192 = CARTESIAN_POINT ( 'NONE',  ( 4.898587196589412829E-16, 0.000000000000000000, 4.000000000000000000 ) ) ;
#193 = LINE ( 'NONE', #263, #62 ) ;
#194 = SURFACE_SIDE_STYLE ('',( #101 ) ) ;
#195 = SURFACE_STYLE_FILL_AREA ( #148 ) ;
#196 = MECHANICAL_DESIGN_GEOMETRIC_PRESENTATION_REPRESENTATION (  '', ( #288 ), #233 ) ;
#197 = ADVANCED_FACE ( 'NONE', ( #19 ), #173, .T. ) ;
#198 = FILL_AREA_STYLE_COLOUR ( '', #73 ) ;
#199 = ADVANCED_BREP_SHAPE_REPRESENTATION ( '59696', ( #224, #229, #172 ), #189 ) ;
#200 = ADVANCED_FACE ( 'NONE', ( #216 ), #151, .T. ) ;
#201 = CARTESIAN_POINT ( 'NONE',  ( 1.469576158976823750E-15, 63.00000000000000000, 0.000000000000000000 ) ) ;
#202 = COLOUR_RGB ( '',0.7921568627450980005, 0.8196078431372548767, 0.9333333333333333481 ) ;
#203 = DIRECTION ( 'NONE',  ( 0.000000000000000000, 0.000000000000000000, -1.000000000000000000 ) ) ;
#204 = DIRECTION ( 'NONE',  ( 1.000000000000000000, 0.000000000000000000, 0.000000000000000000 ) ) ;
#205 = AXIS2_PLACEMENT_3D ( 'NONE', #50, #215, #7 ) ;
#206 = ADVANCED_FACE ( 'NONE', ( #34 ), #96, .T. ) ;
#207 = UNCERTAINTY_MEASURE_WITH_UNIT (LENGTH_MEASURE( 1.000000000000000082E-05 ), #125, 'distance_accuracy_value', 'NONE');
#208 = ORIENTED_EDGE ( 'NONE', *, *, #103, .F. ) ;
#209 = AXIS2_PLACEMENT_3D ( 'NONE', #249, #77, #145 ) ;
#210 = EDGE_LOOP ( 'NONE', ( #226, #67 ) ) ;
#211 = ORIENTED_EDGE ( 'NONE', *, *, #59, .T. ) ;
#212 =( LENGTH_UNIT ( ) NAMED_UNIT ( * ) SI_UNIT ( .MILLI., .METRE. ) );
#213 = CARTESIAN_POINT ( 'NONE',  ( 4.000000000000000000, 63.00000000000000000, 4.898587196589411843E-16 ) ) ;
#214 = ADVANCED_FACE ( 'NONE', ( #269 ), #231, .T. ) ;
#215 = DIRECTION ( 'NONE',  ( -0.000000000000000000, -1.000000000000000000, -0.000000000000000000 ) ) ;
#216 = FACE_OUTER_BOUND ( 'NONE', #91, .T. ) ;
#217 = MECHANICAL_DESIGN_GEOMETRIC_PRESENTATION_REPRESENTATION (  '', ( #53 ), #243 ) ;
#218 = CARTESIAN_POINT ( 'NONE',  ( 0.000000000000000000, 0.000000000000000000, 0.000000000000000000 ) ) ;
#219 = CIRCLE ( 'NONE', #209, 3.999999999999998224 ) ;
#220 = PRESENTATION_STYLE_ASSIGNMENT (( #57 ) ) ;
#221 =( NAMED_UNIT ( * ) PLANE_ANGLE_UNIT ( ) SI_UNIT ( $, .RADIAN. ) );
#222 = LINE ( 'NONE', #106, #28 ) ;
#223 = APPLICATION_PROTOCOL_DEFINITION ( 'draft international standard', 'automotive_design', 1998, #239 ) ;
#224 = MANIFOLD_SOLID_BREP ( 'Revolve - Cutting Edge', #179 ) ;
#225 = SURFACE_SIDE_STYLE ('',( #195 ) ) ;
#226 = ORIENTED_EDGE ( 'NONE', *, *, #156, .F. ) ;
#227 = ORIENTED_EDGE ( 'NONE', *, *, #39, .T. ) ;
#228 = MECHANICAL_DESIGN_GEOMETRIC_PRESENTATION_REPRESENTATION (  '', ( #104 ), #79 ) ;
#229 = MANIFOLD_SOLID_BREP ( 'Revolve - Tool Body (Straight Shanked)', #95 ) ;
#230 = EDGE_CURVE ( 'NONE', #135, #20, #268, .T. ) ;
#231 = PLANE ( 'NONE',  #16 ) ;
#232 = VERTEX_POINT ( 'NONE', #276 ) ;
#233 =( GEOMETRIC_REPRESENTATION_CONTEXT ( 3 ) GLOBAL_UNCERTAINTY_ASSIGNED_CONTEXT ( ( #139 ) ) GLOBAL_UNIT_ASSIGNED_CONTEXT ( ( #108, #83, #273 ) ) REPRESENTATION_CONTEXT ( 'NONE', 'WORKASPACE' ) );
#234 = CARTESIAN_POINT ( 'NONE',  ( 1.660633669383370983E-33, 12.00000000000000000, 0.000000000000000000 ) ) ;
#235 = EDGE_LOOP ( 'NONE', ( #26, #185, #141, #23 ) ) ;
#236 = DIRECTION ( 'NONE',  ( -1.000000000000000000, 2.881521880346712812E-17, 0.000000000000000000 ) ) ;
#237 = FILL_AREA_STYLE_COLOUR ( '', #202 ) ;
#238 = DIRECTION ( 'NONE',  ( -0.000000000000000000, -1.000000000000000000, -0.000000000000000000 ) ) ;
#239 = APPLICATION_CONTEXT ( 'automotive_design' ) ;
#240 =( LENGTH_UNIT ( ) NAMED_UNIT ( * ) SI_UNIT ( .MILLI., .METRE. ) );
#241 = SURFACE_SIDE_STYLE ('',( #119 ) ) ;
#242 =( NAMED_UNIT ( * ) SI_UNIT ( $, .STERADIAN. ) SOLID_ANGLE_UNIT ( ) );
#243 =( GEOMETRIC_REPRESENTATION_CONTEXT ( 3 ) GLOBAL_UNCERTAINTY_ASSIGNED_CONTEXT ( ( #25 ) ) GLOBAL_UNIT_ASSIGNED_CONTEXT ( ( #105, #132, #252 ) ) REPRESENTATION_CONTEXT ( 'NONE', 'WORKASPACE' ) );
#244 =( NAMED_UNIT ( * ) PLANE_ANGLE_UNIT ( ) SI_UNIT ( $, .RADIAN. ) );
#245 = DIRECTION ( 'NONE',  ( 2.881521880346712812E-17, 1.000000000000000000, -0.000000000000000000 ) ) ;
#246 = DIRECTION ( 'NONE',  ( 2.881521880346712812E-17, 1.000000000000000000, -0.000000000000000000 ) ) ;
#247 = EDGE_CURVE ( 'NONE', #29, #232, #18, .T. ) ;
#248 = FACE_OUTER_BOUND ( 'NONE', #136, .T. ) ;
#249 = CARTESIAN_POINT ( 'NONE',  ( 1.469576158976823750E-15, 63.00000000000000000, 0.000000000000000000 ) ) ;
#250 = PRESENTATION_LAYER_ASSIGNMENT (  '', '', ( #70 ) ) ;
#251 = DIRECTION ( 'NONE',  ( 2.881521880346712812E-17, 1.000000000000000000, -0.000000000000000000 ) ) ;
#252 =( NAMED_UNIT ( * ) SI_UNIT ( $, .STERADIAN. ) SOLID_ANGLE_UNIT ( ) );
#253 = AXIS2_PLACEMENT_3D ( 'NONE', #143, #74, #258 ) ;
#254 = FILL_AREA_STYLE_COLOUR ( '', #60 ) ;
#255 = ADVANCED_FACE ( 'NONE', ( #54 ), #71, .F. ) ;
#256 = ORIENTED_EDGE ( 'NONE', *, *, #230, .T. ) ;
#257 = PRESENTATION_STYLE_ASSIGNMENT (( #117 ) ) ;
#258 = DIRECTION ( 'NONE',  ( -1.000000000000000000, 0.000000000000000000, 0.000000000000000000 ) ) ;
#259 = ORIENTED_EDGE ( 'NONE', *, *, #98, .T. ) ;
#260 = ORIENTED_EDGE ( 'NONE', *, *, #42, .T. ) ;
#261 = FILL_AREA_STYLE_COLOUR ( '', #63 ) ;
#262 = DIRECTION ( 'NONE',  ( -1.000000000000000000, 0.000000000000000000, 0.000000000000000000 ) ) ;
#263 = CARTESIAN_POINT ( 'NONE',  ( 0.000000000000000000, 0.000000000000000000, -4.000000000000000000 ) ) ;
#264 = APPLICATION_CONTEXT ( 'automotive_design' ) ;
#265 = DIRECTION ( 'NONE',  ( 2.881521880346712812E-17, 1.000000000000000000, -0.000000000000000000 ) ) ;
#266 = AXIS2_PLACEMENT_3D ( 'NONE', #126, #176, #282 ) ;
#267 = PLANE ( 'NONE',  #266 ) ;
#268 = CIRCLE ( 'NONE', #253, 4.000000000000000000 ) ;
#269 = FACE_OUTER_BOUND ( 'NONE', #114, .T. ) ;
#270 = ORIENTED_EDGE ( 'NONE', *, *, #8, .T. ) ;
#271 = PRESENTATION_LAYER_ASSIGNMENT (  '', '', ( #131 ) ) ;
#272 = COLOUR_RGB ( '',1.000000000000000000, 0.000000000000000000, 0.000000000000000000 ) ;
#273 =( NAMED_UNIT ( * ) SI_UNIT ( $, .STERADIAN. ) SOLID_ANGLE_UNIT ( ) );
#274 = UNCERTAINTY_MEASURE_WITH_UNIT (LENGTH_MEASURE( 1.000000000000000082E-05 ), #240, 'distance_accuracy_value', 'NONE');
#275 = VERTEX_POINT ( 'NONE', #10 ) ;
#276 = CARTESIAN_POINT ( 'NONE',  ( 4.898587196589412829E-16, 12.00000000000000000, 4.000000000000000000 ) ) ;
#277 = PRODUCT_RELATED_PRODUCT_CATEGORY ( 'part', '', ( #52 ) ) ;
#278 = AXIS2_PLACEMENT_3D ( 'NONE', #144, #245, #262 ) ;
#279 = FILL_AREA_STYLE ('',( #190 ) ) ;
#280 = VECTOR ( 'NONE', #36, 1000.000000000000000 ) ;
#281 = DIRECTION ( 'NONE',  ( -0.000000000000000000, -1.000000000000000000, -0.000000000000000000 ) ) ;
#282 = DIRECTION ( 'NONE',  ( 1.000000000000000000, -2.881521880346712812E-17, 0.000000000000000000 ) ) ;
#283 = SURFACE_STYLE_USAGE ( .BOTH. , #241 ) ;
#284 = DIRECTION ( 'NONE',  ( -0.000000000000000000, -1.000000000000000000, -0.000000000000000000 ) ) ;
#285 = AXIS2_PLACEMENT_3D ( 'NONE', #234, #160, #236 ) ;
#286 = DIRECTION ( 'NONE',  ( 2.881521880346712812E-17, 1.000000000000000000, -0.000000000000000000 ) ) ;
#287 = CARTESIAN_POINT ( 'NONE',  ( 0.000000000000000000, 0.000000000000000000, 0.000000000000000000 ) ) ;
#288 = STYLED_ITEM ( 'NONE', ( #133 ), #214 ) ;
ENDSEC;
END-ISO-10303-21;
