ISO-10303-21;
HEADER;
FILE_DESCRIPTION (( 'STEP AP214' ),
    '1' );
FILE_NAME ('17662.STEP',
    '2023-06-30T21:54:56',
    ( '' ),
    ( '' ),
    'SwSTEP 2.0',
    'SolidWorks 2023',
    '' );
FILE_SCHEMA (( 'AUTOMOTIVE_DESIGN' ));
ENDSEC;

DATA;
#1 = SPHERICAL_SURFACE ( 'NONE', #328, 0.3750000000000001110 ) ;
#2 = AXIS2_PLACEMENT_3D ( 'NONE', #51, #11, #324 ) ;
#3 = DIRECTION ( 'NONE',  ( 0.000000000000000000, 0.000000000000000000, 1.000000000000000000 ) ) ;
#4 = CARTESIAN_POINT ( 'NONE',  ( 0.000000000000000000, 0.3750000000000001110, -0.3750000000000001110 ) ) ;
#5 = CARTESIAN_POINT ( 'NONE',  ( -4.592425496802575451E-17, 0.3750000000000000555, 0.000000000000000000 ) ) ;
#6 = FACE_OUTER_BOUND ( 'NONE', #66, .T. ) ;
#7 = CARTESIAN_POINT ( 'NONE',  ( -4.592425496802575451E-17, 0.3750000000000000555, 0.000000000000000000 ) ) ;
#8 = DIRECTION ( 'NONE',  ( 0.000000000000000000, 0.000000000000000000, -1.000000000000000000 ) ) ;
#9 = ORIENTED_EDGE ( 'NONE', *, *, #63, .F. ) ;
#10 = VECTOR ( 'NONE', #87, 39.37007874015748143 ) ;
#11 = DIRECTION ( 'NONE',  ( -1.740287556683080860E-16, 1.000000000000000000, -0.000000000000000000 ) ) ;
#12 =( GEOMETRIC_REPRESENTATION_CONTEXT ( 3 ) GLOBAL_UNCERTAINTY_ASSIGNED_CONTEXT ( ( #114 ) ) GLOBAL_UNIT_ASSIGNED_CONTEXT ( ( #227, #33, #230 ) ) REPRESENTATION_CONTEXT ( 'NONE', 'WORKASPACE' ) );
#13 = VERTEX_POINT ( 'NONE', #306 ) ;
#14 = DIRECTION ( 'NONE',  ( 1.000000000000000000, 0.000000000000000000, 0.000000000000000000 ) ) ;
#15 =( NAMED_UNIT ( * ) PLANE_ANGLE_UNIT ( ) SI_UNIT ( $, .RADIAN. ) );
#16 = VERTEX_POINT ( 'NONE', #304 ) ;
#17 =( NAMED_UNIT ( * ) PLANE_ANGLE_UNIT ( ) SI_UNIT ( $, .RADIAN. ) );
#18 = DIMENSIONAL_EXPONENTS ( 1.000000000000000000, 0.000000000000000000, 0.000000000000000000, 0.000000000000000000, 0.000000000000000000, 0.000000000000000000, 0.000000000000000000 ) ;
#19 = SPHERICAL_SURFACE ( 'NONE', #277, 0.3750000000000001110 ) ;
#20 = DIRECTION ( 'NONE',  ( -1.740287556683080860E-16, 1.000000000000000000, -0.000000000000000000 ) ) ;
#21 = CARTESIAN_POINT ( 'NONE',  ( -0.3750000000000001110, 0.3750000000000001110, 4.592425496802575451E-17 ) ) ;
#22 = PRODUCT_RELATED_PRODUCT_CATEGORY ( 'part', '', ( #341 ) ) ;
#23 = CARTESIAN_POINT ( 'NONE',  ( 0.000000000000000000, 0.3750000000000001110, 0.000000000000000000 ) ) ;
#24 = DIRECTION ( 'NONE',  ( -1.740287556683080860E-16, 1.000000000000000000, -0.000000000000000000 ) ) ;
#25 = EDGE_LOOP ( 'NONE', ( #174, #362, #274, #224 ) ) ;
#26 = UNCERTAINTY_MEASURE_WITH_UNIT (LENGTH_MEASURE( 1.000000000000000082E-05 ), #146, 'distance_accuracy_value', 'NONE');
#27 = VECTOR ( 'NONE', #264, 39.37007874015748143 ) ;
#28 = AXIS2_PLACEMENT_3D ( 'NONE', #7, #83, #300 ) ;
#29 = EDGE_CURVE ( 'NONE', #16, #52, #278, .T. ) ;
#30 = DIRECTION ( 'NONE',  ( -0.000000000000000000, -1.000000000000000000, -0.000000000000000000 ) ) ;
#31 = LINE ( 'NONE', #366, #10 ) ;
#32 = DIRECTION ( 'NONE',  ( -0.000000000000000000, -1.000000000000000000, -0.000000000000000000 ) ) ;
#33 =( NAMED_UNIT ( * ) PLANE_ANGLE_UNIT ( ) SI_UNIT ( $, .RADIAN. ) );
#34 = EDGE_LOOP ( 'NONE', ( #313, #55, #164, #287 ) ) ;
#35 = MECHANICAL_DESIGN_GEOMETRIC_PRESENTATION_REPRESENTATION (  '', ( #62 ), #297 ) ;
#36 =( GEOMETRIC_REPRESENTATION_CONTEXT ( 3 ) GLOBAL_UNCERTAINTY_ASSIGNED_CONTEXT ( ( #106 ) ) GLOBAL_UNIT_ASSIGNED_CONTEXT ( ( #310, #169, #208 ) ) REPRESENTATION_CONTEXT ( 'NONE', 'WORKASPACE' ) );
#37 = DIRECTION ( 'NONE',  ( 0.000000000000000000, -0.000000000000000000, 1.000000000000000000 ) ) ;
#38 = DIRECTION ( 'NONE',  ( -0.000000000000000000, -1.000000000000000000, -0.000000000000000000 ) ) ;
#39 = DIRECTION ( 'NONE',  ( 0.000000000000000000, 0.000000000000000000, -1.000000000000000000 ) ) ;
#40 = PRESENTATION_LAYER_ASSIGNMENT (  '', '', ( #217 ) ) ;
#41 = FACE_OUTER_BOUND ( 'NONE', #69, .T. ) ;
#42 =( NAMED_UNIT ( * ) PLANE_ANGLE_UNIT ( ) SI_UNIT ( $, .RADIAN. ) );
#43 = FACE_OUTER_BOUND ( 'NONE', #25, .T. ) ;
#44 = PRODUCT_CONTEXT ( 'NONE', #99, 'mechanical' ) ;
#45 = DIMENSIONAL_EXPONENTS ( 1.000000000000000000, 0.000000000000000000, 0.000000000000000000, 0.000000000000000000, 0.000000000000000000, 0.000000000000000000, 0.000000000000000000 ) ;
#46 = AXIS2_PLACEMENT_3D ( 'NONE', #107, #219, #333 ) ;
#47 = LENGTH_MEASURE_WITH_UNIT ( LENGTH_MEASURE( 0.02539999999999999897 ), #361 );
#48 = LENGTH_MEASURE_WITH_UNIT ( LENGTH_MEASURE( 0.02539999999999999897 ), #160 );
#49 = DIMENSIONAL_EXPONENTS ( 1.000000000000000000, 0.000000000000000000, 0.000000000000000000, 0.000000000000000000, 0.000000000000000000, 0.000000000000000000, 0.000000000000000000 ) ;
#50 = ORIENTED_EDGE ( 'NONE', *, *, #129, .F. ) ;
#51 = CARTESIAN_POINT ( 'NONE',  ( -1.224646799147352468E-16, 4.000000000000000000, 0.000000000000000000 ) ) ;
#52 = VERTEX_POINT ( 'NONE', #251 ) ;
#53 = DIMENSIONAL_EXPONENTS ( 1.000000000000000000, 0.000000000000000000, 0.000000000000000000, 0.000000000000000000, 0.000000000000000000, 0.000000000000000000, 0.000000000000000000 ) ;
#54 = UNCERTAINTY_MEASURE_WITH_UNIT (LENGTH_MEASURE( 1.000000000000000082E-05 ), #187, 'distance_accuracy_value', 'NONE');
#55 = ORIENTED_EDGE ( 'NONE', *, *, #63, .T. ) ;
#56 = AXIS2_PLACEMENT_3D ( 'NONE', #357, #185, #156 ) ;
#57 = SHAPE_DEFINITION_REPRESENTATION ( #288, #93 ) ;
#58 = COLOUR_RGB ( '',0.7921568627450980005, 0.8196078431372548767, 0.9333333333333333481 ) ;
#59 = FACE_OUTER_BOUND ( 'NONE', #198, .T. ) ;
#60 = DIRECTION ( 'NONE',  ( 0.000000000000000000, 0.000000000000000000, -1.000000000000000000 ) ) ;
#61 =( LENGTH_UNIT ( ) NAMED_UNIT ( * ) SI_UNIT ( $, .METRE. ) );
#62 = STYLED_ITEM ( 'NONE', ( #273 ), #178 ) ;
#63 = EDGE_CURVE ( 'NONE', #371, #343, #317, .T. ) ;
#64 = ORIENTED_EDGE ( 'NONE', *, *, #250, .F. ) ;
#65 = FILL_AREA_STYLE ('',( #201 ) ) ;
#66 = EDGE_LOOP ( 'NONE', ( #79, #89 ) ) ;
#67 = EDGE_CURVE ( 'NONE', #16, #105, #124, .T. ) ;
#68 = PRESENTATION_STYLE_ASSIGNMENT (( #96 ) ) ;
#69 = EDGE_LOOP ( 'NONE', ( #319, #132, #64, #134, #213 ) ) ;
#70 = PRESENTATION_LAYER_ASSIGNMENT (  '', '', ( #339 ) ) ;
#71 = DIRECTION ( 'NONE',  ( 0.000000000000000000, 1.000000000000000000, 0.000000000000000000 ) ) ;
#72 = SURFACE_SIDE_STYLE ('',( #235 ) ) ;
#73 = ORIENTED_EDGE ( 'NONE', *, *, #283, .F. ) ;
#74 = DIRECTION ( 'NONE',  ( 1.000000000000000000, 1.740287556683080860E-16, 0.000000000000000000 ) ) ;
#75 = SURFACE_STYLE_USAGE ( .BOTH. , #173 ) ;
#76 = SURFACE_SIDE_STYLE ('',( #186 ) ) ;
#77 = CARTESIAN_POINT ( 'NONE',  ( 0.3750000000000001110, 0.3750000000000001110, 0.000000000000000000 ) ) ;
#78 = EDGE_CURVE ( 'NONE', #105, #161, #31, .T. ) ;
#79 = ORIENTED_EDGE ( 'NONE', *, *, #183, .T. ) ;
#80 = DIRECTION ( 'NONE',  ( -1.000000000000000000, 0.000000000000000000, 0.000000000000000000 ) ) ;
#81 = EDGE_CURVE ( 'NONE', #343, #207, #253, .T. ) ;
#82 = DIRECTION ( 'NONE',  ( 0.000000000000000000, 0.000000000000000000, -1.000000000000000000 ) ) ;
#83 = DIRECTION ( 'NONE',  ( 1.224646799147353207E-16, -0.000000000000000000, 1.000000000000000000 ) ) ;
#84 = DIRECTION ( 'NONE',  ( -0.000000000000000000, -1.000000000000000000, -0.000000000000000000 ) ) ;
#85 = STYLED_ITEM ( 'NONE', ( #118 ), #267 ) ;
#86 = PRESENTATION_LAYER_ASSIGNMENT (  '', '', ( #85 ) ) ;
#87 = DIRECTION ( 'NONE',  ( -1.740287556683080860E-16, 1.000000000000000000, -0.000000000000000000 ) ) ;
#88 =( LENGTH_UNIT ( ) NAMED_UNIT ( * ) SI_UNIT ( $, .METRE. ) );
#89 = ORIENTED_EDGE ( 'NONE', *, *, #195, .T. ) ;
#90 = MECHANICAL_DESIGN_GEOMETRIC_PRESENTATION_REPRESENTATION (  '', ( #85 ), #12 ) ;
#91 = LINE ( 'NONE', #373, #27 ) ;
#92 = ADVANCED_FACE ( 'NONE', ( #141 ), #367, .F. ) ;
#93 = ADVANCED_BREP_SHAPE_REPRESENTATION ( '17662', ( #356, #363, #303 ), #370 ) ;
#94 = SURFACE_SIDE_STYLE ('',( #265 ) ) ;
#95 = PRESENTATION_STYLE_ASSIGNMENT (( #205 ) ) ;
#96 = SURFACE_STYLE_USAGE ( .BOTH. , #94 ) ;
#97 = DIRECTION ( 'NONE',  ( 0.000000000000000000, 0.000000000000000000, -1.000000000000000000 ) ) ;
#98 = AXIS2_PLACEMENT_3D ( 'NONE', #342, #368, #335 ) ;
#99 = APPLICATION_CONTEXT ( 'automotive_design' ) ;
#100 = ORIENTED_EDGE ( 'NONE', *, *, #29, .F. ) ;
#101 =( NAMED_UNIT ( * ) SI_UNIT ( $, .STERADIAN. ) SOLID_ANGLE_UNIT ( ) );
#102 = ADVANCED_FACE ( 'NONE', ( #59 ), #167, .T. ) ;
#103 = ORIENTED_EDGE ( 'NONE', *, *, #195, .F. ) ;
#104 = CARTESIAN_POINT ( 'NONE',  ( -4.592425496802575451E-17, 0.3750000000000000555, 0.000000000000000000 ) ) ;
#105 = VERTEX_POINT ( 'NONE', #203 ) ;
#106 = UNCERTAINTY_MEASURE_WITH_UNIT (LENGTH_MEASURE( 1.000000000000000082E-05 ), #310, 'distance_accuracy_value', 'NONE');
#107 = CARTESIAN_POINT ( 'NONE',  ( 2.908536147974963713E-16, 1.625000000000000000, 0.000000000000000000 ) ) ;
#108 = LENGTH_MEASURE_WITH_UNIT ( LENGTH_MEASURE( 0.02539999999999999897 ), #88 );
#109 = FILL_AREA_STYLE ('',( #280 ) ) ;
#110 = CLOSED_SHELL ( 'NONE', ( #238, #92, #338, #314 ) ) ;
#111 =( GEOMETRIC_REPRESENTATION_CONTEXT ( 3 ) GLOBAL_UNCERTAINTY_ASSIGNED_CONTEXT ( ( #301 ) ) GLOBAL_UNIT_ASSIGNED_CONTEXT ( ( #147, #245, #101 ) ) REPRESENTATION_CONTEXT ( 'NONE', 'WORKASPACE' ) );
#112 = CYLINDRICAL_SURFACE ( 'NONE', #255, 0.3749999999999999445 ) ;
#113 = CARTESIAN_POINT ( 'NONE',  ( 0.3749999999999996669, 4.000000000000000000, 4.592425496802572370E-17 ) ) ;
#114 = UNCERTAINTY_MEASURE_WITH_UNIT (LENGTH_MEASURE( 1.000000000000000082E-05 ), #227, 'distance_accuracy_value', 'NONE');
#115 = SURFACE_STYLE_USAGE ( .BOTH. , #260 ) ;
#116 = CARTESIAN_POINT ( 'NONE',  ( -0.3750000000000002220, 4.000000000000000000, 0.000000000000000000 ) ) ;
#117 = COLOUR_RGB ( '',1.000000000000000000, 0.000000000000000000, 0.000000000000000000 ) ;
#118 = PRESENTATION_STYLE_ASSIGNMENT (( #225 ) ) ;
#119 = AXIS2_PLACEMENT_3D ( 'NONE', #350, #126, #151 ) ;
#120 = EDGE_CURVE ( 'NONE', #192, #343, #232, .T. ) ;
#121 =( LENGTH_UNIT ( ) NAMED_UNIT ( * ) SI_UNIT ( $, .METRE. ) );
#122 = FACE_OUTER_BOUND ( 'NONE', #275, .T. ) ;
#123 = CARTESIAN_POINT ( 'NONE',  ( 0.000000000000000000, 0.3750000000000001110, 0.000000000000000000 ) ) ;
#124 = CIRCLE ( 'NONE', #234, 0.3749999999999995559 ) ;
#125 = CARTESIAN_POINT ( 'NONE',  ( 0.000000000000000000, 0.000000000000000000, 0.000000000000000000 ) ) ;
#126 = DIRECTION ( 'NONE',  ( -1.740287556683080860E-16, 1.000000000000000000, -0.000000000000000000 ) ) ;
#127 = CARTESIAN_POINT ( 'NONE',  ( 0.000000000000000000, 1.625000000000000000, -0.3749999999999998335 ) ) ;
#128 = VECTOR ( 'NONE', #143, 39.37007874015748143 ) ;
#129 = EDGE_CURVE ( 'NONE', #330, #171, #91, .T. ) ;
#130 = CYLINDRICAL_SURFACE ( 'NONE', #302, 0.3749999999999998335 ) ;
#131 = CARTESIAN_POINT ( 'NONE',  ( 0.000000000000000000, 0.000000000000000000, 0.000000000000000000 ) ) ;
#132 = ORIENTED_EDGE ( 'NONE', *, *, #129, .T. ) ;
#133 = MECHANICAL_DESIGN_GEOMETRIC_PRESENTATION_REPRESENTATION (  '', ( #355 ), #159 ) ;
#134 = ORIENTED_EDGE ( 'NONE', *, *, #81, .F. ) ;
#135 = DIRECTION ( 'NONE',  ( -1.740287556683080860E-16, 1.000000000000000000, -0.000000000000000000 ) ) ;
#136 = SURFACE_STYLE_USAGE ( .BOTH. , #256 ) ;
#137 = SURFACE_STYLE_FILL_AREA ( #200 ) ;
#138 = AXIS2_PLACEMENT_3D ( 'NONE', #352, #329, #80 ) ;
#139 = SURFACE_STYLE_FILL_AREA ( #109 ) ;
#140 = CIRCLE ( 'NONE', #268, 0.3749999999999998335 ) ;
#141 = FACE_OUTER_BOUND ( 'NONE', #189, .T. ) ;
#142 = EDGE_CURVE ( 'NONE', #171, #371, #229, .T. ) ;
#143 = DIRECTION ( 'NONE',  ( -0.000000000000000000, -1.000000000000000000, -0.000000000000000000 ) ) ;
#144 = MECHANICAL_DESIGN_GEOMETRIC_PRESENTATION_REPRESENTATION (  '', ( #163 ), #36 ) ;
#145 = ORIENTED_EDGE ( 'NONE', *, *, #149, .F. ) ;
#146 =( CONVERSION_BASED_UNIT ( 'INCH', #289 ) LENGTH_UNIT ( ) NAMED_UNIT ( #45 ) );
#147 =( CONVERSION_BASED_UNIT ( 'INCH', #316 ) LENGTH_UNIT ( ) NAMED_UNIT ( #323 ) );
#148 = FILL_AREA_STYLE_COLOUR ( '', #58 ) ;
#149 = EDGE_CURVE ( 'NONE', #207, #13, #249, .T. ) ;
#150 = DIRECTION ( 'NONE',  ( -1.000000000000000000, 0.000000000000000000, 0.000000000000000000 ) ) ;
#151 = DIRECTION ( 'NONE',  ( -1.000000000000000000, 0.000000000000000000, 0.000000000000000000 ) ) ;
#152 = COLOUR_RGB ( '',1.000000000000000000, 0.000000000000000000, 0.000000000000000000 ) ;
#153 = CIRCLE ( 'NONE', #223, 0.3749999999999995559 ) ;
#154 =( NAMED_UNIT ( * ) SI_UNIT ( $, .STERADIAN. ) SOLID_ANGLE_UNIT ( ) );
#155 =( LENGTH_UNIT ( ) NAMED_UNIT ( * ) SI_UNIT ( $, .METRE. ) );
#156 = DIRECTION ( 'NONE',  ( 0.000000000000000000, 0.000000000000000000, -1.000000000000000000 ) ) ;
#157 = APPLICATION_PROTOCOL_DEFINITION ( 'draft international standard', 'automotive_design', 1998, #99 ) ;
#158 = PRESENTATION_LAYER_ASSIGNMENT (  '', '', ( #193 ) ) ;
#159 =( GEOMETRIC_REPRESENTATION_CONTEXT ( 3 ) GLOBAL_UNCERTAINTY_ASSIGNED_CONTEXT ( ( #191 ) ) GLOBAL_UNIT_ASSIGNED_CONTEXT ( ( #176, #42, #270 ) ) REPRESENTATION_CONTEXT ( 'NONE', 'WORKASPACE' ) );
#160 =( LENGTH_UNIT ( ) NAMED_UNIT ( * ) SI_UNIT ( $, .METRE. ) );
#161 = VERTEX_POINT ( 'NONE', #116 ) ;
#162 = MECHANICAL_DESIGN_GEOMETRIC_PRESENTATION_REPRESENTATION (  '', ( #193 ), #311 ) ;
#163 = STYLED_ITEM ( 'NONE', ( #286 ), #276 ) ;
#164 = ORIENTED_EDGE ( 'NONE', *, *, #81, .T. ) ;
#165 = PRODUCT_DEFINITION_CONTEXT ( 'detailed design', #206, 'design' ) ;
#166 = CARTESIAN_POINT ( 'NONE',  ( 0.000000000000000000, 0.3750000000000001110, 0.000000000000000000 ) ) ;
#167 = PLANE ( 'NONE',  #266 ) ;
#168 = LENGTH_MEASURE_WITH_UNIT ( LENGTH_MEASURE( 0.02539999999999999897 ), #61 );
#169 =( NAMED_UNIT ( * ) PLANE_ANGLE_UNIT ( ) SI_UNIT ( $, .RADIAN. ) );
#170 = ADVANCED_FACE ( 'NONE', ( #41 ), #349, .T. ) ;
#171 = VERTEX_POINT ( 'NONE', #215 ) ;
#172 = DIRECTION ( 'NONE',  ( 1.000000000000000000, 0.000000000000000000, 0.000000000000000000 ) ) ;
#173 = SURFACE_SIDE_STYLE ('',( #320 ) ) ;
#174 = ORIENTED_EDGE ( 'NONE', *, *, #298, .T. ) ;
#175 = VECTOR ( 'NONE', #20, 39.37007874015748143 ) ;
#176 =( CONVERSION_BASED_UNIT ( 'INCH', #240 ) LENGTH_UNIT ( ) NAMED_UNIT ( #271 ) );
#177 = ORIENTED_EDGE ( 'NONE', *, *, #372, .T. ) ;
#178 = ADVANCED_FACE ( 'NONE', ( #296 ), #19, .T. ) ;
#179 = CARTESIAN_POINT ( 'NONE',  ( 4.592425496802572986E-17, 1.625000000000000000, 0.3749999999999998335 ) ) ;
#180 = CARTESIAN_POINT ( 'NONE',  ( 0.000000000000000000, 0.000000000000000000, -0.3749999999999999445 ) ) ;
#181 = FILL_AREA_STYLE ('',( #269 ) ) ;
#182 = CLOSED_SHELL ( 'NONE', ( #178, #170, #102, #276, #267 ) ) ;
#183 = EDGE_CURVE ( 'NONE', #161, #52, #292, .T. ) ;
#184 = CARTESIAN_POINT ( 'NONE',  ( 0.000000000000000000, 0.000000000000000000, 0.000000000000000000 ) ) ;
#185 = DIRECTION ( 'NONE',  ( -0.000000000000000000, -1.000000000000000000, -0.000000000000000000 ) ) ;
#186 = SURFACE_STYLE_FILL_AREA ( #359 ) ;
#187 =( CONVERSION_BASED_UNIT ( 'INCH', #48 ) LENGTH_UNIT ( ) NAMED_UNIT ( #49 ) );
#188 =( GEOMETRIC_REPRESENTATION_CONTEXT ( 3 ) GLOBAL_UNCERTAINTY_ASSIGNED_CONTEXT ( ( #307 ) ) GLOBAL_UNIT_ASSIGNED_CONTEXT ( ( #221, #309, #284 ) ) REPRESENTATION_CONTEXT ( 'NONE', 'WORKASPACE' ) );
#189 = EDGE_LOOP ( 'NONE', ( #216, #226 ) ) ;
#190 = DIRECTION ( 'NONE',  ( 0.000000000000000000, 0.000000000000000000, 1.000000000000000000 ) ) ;
#191 = UNCERTAINTY_MEASURE_WITH_UNIT (LENGTH_MEASURE( 1.000000000000000082E-05 ), #176, 'distance_accuracy_value', 'NONE');
#192 = VERTEX_POINT ( 'NONE', #127 ) ;
#193 = STYLED_ITEM ( 'NONE', ( #261 ), #170 ) ;
#194 = EDGE_LOOP ( 'NONE', ( #327, #177, #145, #326 ) ) ;
#195 = EDGE_CURVE ( 'NONE', #52, #161, #321, .T. ) ;
#196 = LENGTH_MEASURE_WITH_UNIT ( LENGTH_MEASURE( 0.02539999999999999897 ), #121 );
#197 = AXIS2_PLACEMENT_3D ( 'NONE', #5, #236, #150 ) ;
#198 = EDGE_LOOP ( 'NONE', ( #73, #299 ) ) ;
#199 = COLOUR_RGB ( '',0.7921568627450980005, 0.8196078431372548767, 0.9333333333333333481 ) ;
#200 = FILL_AREA_STYLE ('',( #252 ) ) ;
#201 = FILL_AREA_STYLE_COLOUR ( '', #337 ) ;
#202 = SURFACE_SIDE_STYLE ('',( #137 ) ) ;
#203 = CARTESIAN_POINT ( 'NONE',  ( -0.3749999999999992784, 1.625000000000000000, 0.000000000000000000 ) ) ;
#204 = AXIS2_PLACEMENT_3D ( 'NONE', #184, #295, #8 ) ;
#205 = SURFACE_STYLE_USAGE ( .BOTH. , #72 ) ;
#206 = APPLICATION_CONTEXT ( 'automotive_design' ) ;
#207 = VERTEX_POINT ( 'NONE', #77 ) ;
#208 =( NAMED_UNIT ( * ) SI_UNIT ( $, .STERADIAN. ) SOLID_ANGLE_UNIT ( ) );
#209 = EDGE_CURVE ( 'NONE', #330, #192, #210, .T. ) ;
#210 = CIRCLE ( 'NONE', #56, 0.3749999999999998335 ) ;
#211 = ORIENTED_EDGE ( 'NONE', *, *, #78, .T. ) ;
#212 =( CONVERSION_BASED_UNIT ( 'INCH', #47 ) LENGTH_UNIT ( ) NAMED_UNIT ( #53 ) );
#213 = ORIENTED_EDGE ( 'NONE', *, *, #120, .F. ) ;
#214 = DIMENSIONAL_EXPONENTS ( 1.000000000000000000, 0.000000000000000000, 0.000000000000000000, 0.000000000000000000, 0.000000000000000000, 0.000000000000000000, 0.000000000000000000 ) ;
#215 = CARTESIAN_POINT ( 'NONE',  ( 4.592425496802576068E-17, 0.3750000000000001110, 0.3750000000000001110 ) ) ;
#216 = ORIENTED_EDGE ( 'NONE', *, *, #298, .F. ) ;
#217 = STYLED_ITEM ( 'NONE', ( #332 ), #102 ) ;
#218 = DIRECTION ( 'NONE',  ( 0.000000000000000000, 0.000000000000000000, 1.000000000000000000 ) ) ;
#219 = DIRECTION ( 'NONE',  ( -1.740287556683080860E-16, 1.000000000000000000, 0.000000000000000000 ) ) ;
#220 =( NAMED_UNIT ( * ) SI_UNIT ( $, .STERADIAN. ) SOLID_ANGLE_UNIT ( ) );
#221 =( CONVERSION_BASED_UNIT ( 'INCH', #108 ) LENGTH_UNIT ( ) NAMED_UNIT ( #18 ) );
#222 = MECHANICAL_DESIGN_GEOMETRIC_PRESENTATION_REPRESENTATION (  '', ( #217 ), #188 ) ;
#223 = AXIS2_PLACEMENT_3D ( 'NONE', #345, #233, #294 ) ;
#224 = ORIENTED_EDGE ( 'NONE', *, *, #78, .F. ) ;
#225 = SURFACE_STYLE_USAGE ( .BOTH. , #202 ) ;
#226 = ORIENTED_EDGE ( 'NONE', *, *, #67, .F. ) ;
#227 =( CONVERSION_BASED_UNIT ( 'INCH', #196 ) LENGTH_UNIT ( ) NAMED_UNIT ( #214 ) );
#228 = CARTESIAN_POINT ( 'NONE',  ( -1.224646799147352714E-16, 4.000000000000000000, 0.000000000000000000 ) ) ;
#229 = CIRCLE ( 'NONE', #281, 0.3750000000000001110 ) ;
#230 =( NAMED_UNIT ( * ) SI_UNIT ( $, .STERADIAN. ) SOLID_ANGLE_UNIT ( ) );
#231 = FILL_AREA_STYLE ('',( #334 ) ) ;
#232 = LINE ( 'NONE', #180, #128 ) ;
#233 = DIRECTION ( 'NONE',  ( -1.740287556683080860E-16, 1.000000000000000000, -0.000000000000000000 ) ) ;
#234 = AXIS2_PLACEMENT_3D ( 'NONE', #285, #135, #336 ) ;
#235 = SURFACE_STYLE_FILL_AREA ( #181 ) ;
#236 = DIRECTION ( 'NONE',  ( 0.000000000000000000, 0.000000000000000000, -1.000000000000000000 ) ) ;
#237 = PLANE ( 'NONE',  #347 ) ;
#238 = ADVANCED_FACE ( 'NONE', ( #43 ), #130, .T. ) ;
#239 = DIRECTION ( 'NONE',  ( 1.000000000000000000, 0.000000000000000000, 0.000000000000000000 ) ) ;
#240 = LENGTH_MEASURE_WITH_UNIT ( LENGTH_MEASURE( 0.02539999999999999897 ), #242 );
#241 = SURFACE_STYLE_USAGE ( .BOTH. , #76 ) ;
#242 =( LENGTH_UNIT ( ) NAMED_UNIT ( * ) SI_UNIT ( $, .METRE. ) );
#243 = CIRCLE ( 'NONE', #98, 0.3750000000000001110 ) ;
#244 = EDGE_LOOP ( 'NONE', ( #50, #360, #248, #9, #358 ) ) ;
#245 =( NAMED_UNIT ( * ) PLANE_ANGLE_UNIT ( ) SI_UNIT ( $, .RADIAN. ) );
#246 =( NAMED_UNIT ( * ) SI_UNIT ( $, .STERADIAN. ) SOLID_ANGLE_UNIT ( ) );
#247 = ORIENTED_EDGE ( 'NONE', *, *, #67, .T. ) ;
#248 = ORIENTED_EDGE ( 'NONE', *, *, #120, .T. ) ;
#249 = CIRCLE ( 'NONE', #197, 0.3750000000000001110 ) ;
#250 = EDGE_CURVE ( 'NONE', #207, #171, #243, .T. ) ;
#251 = CARTESIAN_POINT ( 'NONE',  ( 0.3749999999999999445, 4.000000000000000000, 4.592425496802574219E-17 ) ) ;
#252 = FILL_AREA_STYLE_COLOUR ( '', #354 ) ;
#253 = CIRCLE ( 'NONE', #346, 0.3750000000000001110 ) ;
#254 = AXIS2_PLACEMENT_3D ( 'NONE', #166, #84, #82 ) ;
#255 = AXIS2_PLACEMENT_3D ( 'NONE', #125, #353, #97 ) ;
#256 = SURFACE_SIDE_STYLE ('',( #139 ) ) ;
#257 = UNCERTAINTY_MEASURE_WITH_UNIT (LENGTH_MEASURE( 1.000000000000000082E-05 ), #212, 'distance_accuracy_value', 'NONE');
#258 = FACE_OUTER_BOUND ( 'NONE', #244, .T. ) ;
#259 = FACE_OUTER_BOUND ( 'NONE', #34, .T. ) ;
#260 = SURFACE_SIDE_STYLE ('',( #308 ) ) ;
#261 = PRESENTATION_STYLE_ASSIGNMENT (( #75 ) ) ;
#262 = CIRCLE ( 'NONE', #28, 0.3750000000000001110 ) ;
#263 = DIRECTION ( 'NONE',  ( 1.740287556683080860E-16, -1.000000000000000000, 0.000000000000000000 ) ) ;
#264 = DIRECTION ( 'NONE',  ( -0.000000000000000000, -1.000000000000000000, -0.000000000000000000 ) ) ;
#265 = SURFACE_STYLE_FILL_AREA ( #291 ) ;
#266 = AXIS2_PLACEMENT_3D ( 'NONE', #340, #71, #37 ) ;
#267 = ADVANCED_FACE ( 'NONE', ( #259 ), #1, .T. ) ;
#268 = AXIS2_PLACEMENT_3D ( 'NONE', #272, #38, #290 ) ;
#269 = FILL_AREA_STYLE_COLOUR ( '', #199 ) ;
#270 =( NAMED_UNIT ( * ) SI_UNIT ( $, .STERADIAN. ) SOLID_ANGLE_UNIT ( ) );
#271 = DIMENSIONAL_EXPONENTS ( 1.000000000000000000, 0.000000000000000000, 0.000000000000000000, 0.000000000000000000, 0.000000000000000000, 0.000000000000000000, 0.000000000000000000 ) ;
#272 = CARTESIAN_POINT ( 'NONE',  ( 0.000000000000000000, 1.625000000000000000, 0.000000000000000000 ) ) ;
#273 = PRESENTATION_STYLE_ASSIGNMENT (( #241 ) ) ;
#274 = ORIENTED_EDGE ( 'NONE', *, *, #183, .F. ) ;
#275 = EDGE_LOOP ( 'NONE', ( #100, #247, #211, #103 ) ) ;
#276 = ADVANCED_FACE ( 'NONE', ( #258 ), #112, .T. ) ;
#277 = AXIS2_PLACEMENT_3D ( 'NONE', #104, #218, #239 ) ;
#278 = LINE ( 'NONE', #113, #175 ) ;
#279 = CARTESIAN_POINT ( 'NONE',  ( -4.592425496802575451E-17, 0.3750000000000000555, 0.000000000000000000 ) ) ;
#280 = FILL_AREA_STYLE_COLOUR ( '', #117 ) ;
#281 = AXIS2_PLACEMENT_3D ( 'NONE', #123, #32, #39 ) ;
#282 = PRODUCT_DEFINITION_FORMATION_WITH_SPECIFIED_SOURCE ( 'ANY', '', #341, .NOT_KNOWN. ) ;
#283 = EDGE_CURVE ( 'NONE', #192, #330, #140, .T. ) ;
#284 =( NAMED_UNIT ( * ) SI_UNIT ( $, .STERADIAN. ) SOLID_ANGLE_UNIT ( ) );
#285 = CARTESIAN_POINT ( 'NONE',  ( 2.908536147974964206E-16, 1.625000000000000000, 0.000000000000000000 ) ) ;
#286 = PRESENTATION_STYLE_ASSIGNMENT (( #115 ) ) ;
#287 = ORIENTED_EDGE ( 'NONE', *, *, #149, .T. ) ;
#288 = PRODUCT_DEFINITION_SHAPE ( 'NONE', 'NONE',  #365 ) ;
#289 = LENGTH_MEASURE_WITH_UNIT ( LENGTH_MEASURE( 0.02539999999999999897 ), #315 );
#290 = DIRECTION ( 'NONE',  ( 0.000000000000000000, 0.000000000000000000, -1.000000000000000000 ) ) ;
#291 = FILL_AREA_STYLE ('',( #148 ) ) ;
#292 = CIRCLE ( 'NONE', #138, 0.3750000000000001110 ) ;
#293 = PRESENTATION_LAYER_ASSIGNMENT (  '', '', ( #163 ) ) ;
#294 = DIRECTION ( 'NONE',  ( -1.000000000000000000, 0.000000000000000000, 0.000000000000000000 ) ) ;
#295 = DIRECTION ( 'NONE',  ( -0.000000000000000000, -1.000000000000000000, -0.000000000000000000 ) ) ;
#296 = FACE_OUTER_BOUND ( 'NONE', #194, .T. ) ;
#297 =( GEOMETRIC_REPRESENTATION_CONTEXT ( 3 ) GLOBAL_UNCERTAINTY_ASSIGNED_CONTEXT ( ( #257 ) ) GLOBAL_UNIT_ASSIGNED_CONTEXT ( ( #212, #15, #246 ) ) REPRESENTATION_CONTEXT ( 'NONE', 'WORKASPACE' ) );
#298 = EDGE_CURVE ( 'NONE', #105, #16, #153, .T. ) ;
#299 = ORIENTED_EDGE ( 'NONE', *, *, #209, .F. ) ;
#300 = DIRECTION ( 'NONE',  ( 1.000000000000000000, 0.000000000000000000, -1.224646799147353207E-16 ) ) ;
#301 = UNCERTAINTY_MEASURE_WITH_UNIT (LENGTH_MEASURE( 1.000000000000000082E-05 ), #147, 'distance_accuracy_value', 'NONE');
#302 = AXIS2_PLACEMENT_3D ( 'NONE', #228, #24, #305 ) ;
#303 = AXIS2_PLACEMENT_3D ( 'NONE', #131, #190, #14 ) ;
#304 = CARTESIAN_POINT ( 'NONE',  ( 0.3749999999999998335, 1.625000000000000000, 4.592425496802572986E-17 ) ) ;
#305 = DIRECTION ( 'NONE',  ( -1.000000000000000000, 0.000000000000000000, 0.000000000000000000 ) ) ;
#306 = CARTESIAN_POINT ( 'NONE',  ( -2.296212748401287109E-17, -6.829619984160658046E-17, 0.000000000000000000 ) ) ;
#307 = UNCERTAINTY_MEASURE_WITH_UNIT (LENGTH_MEASURE( 1.000000000000000082E-05 ), #221, 'distance_accuracy_value', 'NONE');
#308 = SURFACE_STYLE_FILL_AREA ( #231 ) ;
#309 =( NAMED_UNIT ( * ) PLANE_ANGLE_UNIT ( ) SI_UNIT ( $, .RADIAN. ) );
#310 =( CONVERSION_BASED_UNIT ( 'INCH', #168 ) LENGTH_UNIT ( ) NAMED_UNIT ( #351 ) );
#311 =( GEOMETRIC_REPRESENTATION_CONTEXT ( 3 ) GLOBAL_UNCERTAINTY_ASSIGNED_CONTEXT ( ( #26 ) ) GLOBAL_UNIT_ASSIGNED_CONTEXT ( ( #146, #344, #154 ) ) REPRESENTATION_CONTEXT ( 'NONE', 'WORKASPACE' ) );
#312 = PRESENTATION_LAYER_ASSIGNMENT (  '', '', ( #355 ) ) ;
#313 = ORIENTED_EDGE ( 'NONE', *, *, #372, .F. ) ;
#314 = ADVANCED_FACE ( 'NONE', ( #6 ), #237, .F. ) ;
#315 =( LENGTH_UNIT ( ) NAMED_UNIT ( * ) SI_UNIT ( $, .METRE. ) );
#316 = LENGTH_MEASURE_WITH_UNIT ( LENGTH_MEASURE( 0.02539999999999999897 ), #155 );
#317 = CIRCLE ( 'NONE', #254, 0.3750000000000001110 ) ;
#318 = CARTESIAN_POINT ( 'NONE',  ( 0.3749999999999999445, 4.000000000000000000, 0.000000000000000000 ) ) ;
#319 = ORIENTED_EDGE ( 'NONE', *, *, #283, .T. ) ;
#320 = SURFACE_STYLE_FILL_AREA ( #65 ) ;
#321 = CIRCLE ( 'NONE', #2, 0.3750000000000001110 ) ;
#322 = MECHANICAL_DESIGN_GEOMETRIC_PRESENTATION_REPRESENTATION (  '', ( #339 ), #111 ) ;
#323 = DIMENSIONAL_EXPONENTS ( 1.000000000000000000, 0.000000000000000000, 0.000000000000000000, 0.000000000000000000, 0.000000000000000000, 0.000000000000000000, 0.000000000000000000 ) ;
#324 = DIRECTION ( 'NONE',  ( -1.000000000000000000, 0.000000000000000000, 0.000000000000000000 ) ) ;
#325 = FILL_AREA_STYLE_COLOUR ( '', #152 ) ;
#326 = ORIENTED_EDGE ( 'NONE', *, *, #250, .T. ) ;
#327 = ORIENTED_EDGE ( 'NONE', *, *, #142, .T. ) ;
#328 = AXIS2_PLACEMENT_3D ( 'NONE', #279, #3, #172 ) ;
#329 = DIRECTION ( 'NONE',  ( -1.740287556683080860E-16, 1.000000000000000000, -0.000000000000000000 ) ) ;
#330 = VERTEX_POINT ( 'NONE', #179 ) ;
#331 = APPLICATION_PROTOCOL_DEFINITION ( 'draft international standard', 'automotive_design', 1998, #206 ) ;
#332 = PRESENTATION_STYLE_ASSIGNMENT (( #136 ) ) ;
#333 = DIRECTION ( 'NONE',  ( -1.000000000000000000, -1.740287556683080860E-16, 0.000000000000000000 ) ) ;
#334 = FILL_AREA_STYLE_COLOUR ( '', #364 ) ;
#335 = DIRECTION ( 'NONE',  ( 0.000000000000000000, 0.000000000000000000, -1.000000000000000000 ) ) ;
#336 = DIRECTION ( 'NONE',  ( -1.000000000000000000, 0.000000000000000000, 0.000000000000000000 ) ) ;
#337 = COLOUR_RGB ( '',1.000000000000000000, 0.000000000000000000, 0.000000000000000000 ) ;
#338 = ADVANCED_FACE ( 'NONE', ( #122 ), #348, .T. ) ;
#339 = STYLED_ITEM ( 'NONE', ( #95 ), #363 ) ;
#340 = CARTESIAN_POINT ( 'NONE',  ( 0.000000000000000000, 1.625000000000000000, 0.000000000000000000 ) ) ;
#341 = PRODUCT ( '17662', '17662', '', ( #44 ) ) ;
#342 = CARTESIAN_POINT ( 'NONE',  ( 0.000000000000000000, 0.3750000000000001110, 0.000000000000000000 ) ) ;
#343 = VERTEX_POINT ( 'NONE', #4 ) ;
#344 =( NAMED_UNIT ( * ) PLANE_ANGLE_UNIT ( ) SI_UNIT ( $, .RADIAN. ) );
#345 = CARTESIAN_POINT ( 'NONE',  ( 2.908536147974964206E-16, 1.625000000000000000, 0.000000000000000000 ) ) ;
#346 = AXIS2_PLACEMENT_3D ( 'NONE', #23, #30, #60 ) ;
#347 = AXIS2_PLACEMENT_3D ( 'NONE', #318, #263, #74 ) ;
#348 = CYLINDRICAL_SURFACE ( 'NONE', #119, 0.3749999999999998335 ) ;
#349 = CYLINDRICAL_SURFACE ( 'NONE', #204, 0.3749999999999999445 ) ;
#350 = CARTESIAN_POINT ( 'NONE',  ( -1.224646799147352714E-16, 4.000000000000000000, 0.000000000000000000 ) ) ;
#351 = DIMENSIONAL_EXPONENTS ( 1.000000000000000000, 0.000000000000000000, 0.000000000000000000, 0.000000000000000000, 0.000000000000000000, 0.000000000000000000, 0.000000000000000000 ) ;
#352 = CARTESIAN_POINT ( 'NONE',  ( -1.224646799147352468E-16, 4.000000000000000000, 0.000000000000000000 ) ) ;
#353 = DIRECTION ( 'NONE',  ( -0.000000000000000000, -1.000000000000000000, -0.000000000000000000 ) ) ;
#354 = COLOUR_RGB ( '',1.000000000000000000, 0.000000000000000000, 0.000000000000000000 ) ;
#355 = STYLED_ITEM ( 'NONE', ( #68 ), #356 ) ;
#356 = MANIFOLD_SOLID_BREP ( 'Revolve - Cutting Edge', #182 ) ;
#357 = CARTESIAN_POINT ( 'NONE',  ( 0.000000000000000000, 1.625000000000000000, 0.000000000000000000 ) ) ;
#358 = ORIENTED_EDGE ( 'NONE', *, *, #142, .F. ) ;
#359 = FILL_AREA_STYLE ('',( #325 ) ) ;
#360 = ORIENTED_EDGE ( 'NONE', *, *, #209, .T. ) ;
#361 =( LENGTH_UNIT ( ) NAMED_UNIT ( * ) SI_UNIT ( $, .METRE. ) );
#362 = ORIENTED_EDGE ( 'NONE', *, *, #29, .T. ) ;
#363 = MANIFOLD_SOLID_BREP ( 'Revolve - Tool Body (Straight Shanked)', #110 ) ;
#364 = COLOUR_RGB ( '',1.000000000000000000, 0.000000000000000000, 0.000000000000000000 ) ;
#365 = PRODUCT_DEFINITION ( 'UNKNOWN', '', #282, #165 ) ;
#366 = CARTESIAN_POINT ( 'NONE',  ( -0.3749999999999999445, 4.000000000000000000, 0.000000000000000000 ) ) ;
#367 = PLANE ( 'NONE',  #46 ) ;
#368 = DIRECTION ( 'NONE',  ( -0.000000000000000000, -1.000000000000000000, -0.000000000000000000 ) ) ;
#369 = PRESENTATION_LAYER_ASSIGNMENT (  '', '', ( #62 ) ) ;
#370 =( GEOMETRIC_REPRESENTATION_CONTEXT ( 3 ) GLOBAL_UNCERTAINTY_ASSIGNED_CONTEXT ( ( #54 ) ) GLOBAL_UNIT_ASSIGNED_CONTEXT ( ( #187, #17, #220 ) ) REPRESENTATION_CONTEXT ( 'NONE', 'WORKASPACE' ) );
#371 = VERTEX_POINT ( 'NONE', #21 ) ;
#372 = EDGE_CURVE ( 'NONE', #371, #13, #262, .T. ) ;
#373 = CARTESIAN_POINT ( 'NONE',  ( 4.592425496802573602E-17, 0.000000000000000000, 0.3749999999999999445 ) ) ;
ENDSEC;
END-ISO-10303-21;
