ISO-10303-21;
HEADER;
FILE_DESCRIPTION (( 'STEP AP214' ),
    '1' );
FILE_NAME ('17015.STEP',
    '2023-06-30T21:51:41',
    ( '' ),
    ( '' ),
    'SwSTEP 2.0',
    'SolidWorks 2023',
    '' );
FILE_SCHEMA (( 'AUTOMOTIVE_DESIGN' ));
ENDSEC;

DATA;
#1 =( LENGTH_UNIT ( ) NAMED_UNIT ( * ) SI_UNIT ( $, .METRE. ) );
#2 = STYLED_ITEM ( 'NONE', ( #288 ), #290 ) ;
#3 = EDGE_CURVE ( 'NONE', #115, #64, #338, .T. ) ;
#4 = PLANE ( 'NONE',  #103 ) ;
#5 = CARTESIAN_POINT ( 'NONE',  ( 0.06249999999999996531, 0.06250000000000001388, 0.000000000000000000 ) ) ;
#6 = SURFACE_SIDE_STYLE ('',( #196 ) ) ;
#7 = DIRECTION ( 'NONE',  ( 1.224646799147353207E-16, -0.000000000000000000, 1.000000000000000000 ) ) ;
#8 = SURFACE_STYLE_USAGE ( .BOTH. , #119 ) ;
#9 = DIRECTION ( 'NONE',  ( -0.000000000000000000, -1.000000000000000000, -0.000000000000000000 ) ) ;
#10 = AXIS2_PLACEMENT_3D ( 'NONE', #266, #96, #328 ) ;
#11 = DIRECTION ( 'NONE',  ( 0.000000000000000000, 1.000000000000000000, 0.000000000000000000 ) ) ;
#12 = CARTESIAN_POINT ( 'NONE',  ( -0.06249999999999921590, 1.500000000000000444, 0.000000000000000000 ) ) ;
#13 = DIRECTION ( 'NONE',  ( -1.000000000000000000, 0.000000000000000000, 0.000000000000000000 ) ) ;
#14 = PRESENTATION_STYLE_ASSIGNMENT (( #121 ) ) ;
#15 =( CONVERSION_BASED_UNIT ( 'INCH', #326 ) LENGTH_UNIT ( ) NAMED_UNIT ( #366 ) );
#16 = DIRECTION ( 'NONE',  ( 0.000000000000000000, 0.000000000000000000, -1.000000000000000000 ) ) ;
#17 = VERTEX_POINT ( 'NONE', #260 ) ;
#18 = ORIENTED_EDGE ( 'NONE', *, *, #125, .F. ) ;
#19 = LINE ( 'NONE', #296, #52 ) ;
#20 = DIRECTION ( 'NONE',  ( -0.000000000000000000, -1.000000000000000000, -0.000000000000000000 ) ) ;
#21 = STYLED_ITEM ( 'NONE', ( #144 ), #186 ) ;
#22 = DIRECTION ( 'NONE',  ( 1.205760955613527713E-16, -1.000000000000000000, 0.000000000000000000 ) ) ;
#23 = PRODUCT ( '17015', '17015', '', ( #40 ) ) ;
#24 = CIRCLE ( 'NONE', #280, 0.06249999999999995143 ) ;
#25 = CIRCLE ( 'NONE', #39, 0.06249999999999997918 ) ;
#26 = UNCERTAINTY_MEASURE_WITH_UNIT (LENGTH_MEASURE( 1.000000000000000082E-05 ), #309, 'distance_accuracy_value', 'NONE');
#27 = DIRECTION ( 'NONE',  ( -1.000000000000000000, 0.000000000000000000, 0.000000000000000000 ) ) ;
#28 = CARTESIAN_POINT ( 'NONE',  ( 0.06249999999999986816, 1.500000000000000444, 7.654042494670897456E-18 ) ) ;
#29 = FILL_AREA_STYLE_COLOUR ( '', #213 ) ;
#30 = COLOUR_RGB ( '',1.000000000000000000, 0.000000000000000000, 0.000000000000000000 ) ;
#31 = FACE_OUTER_BOUND ( 'NONE', #277, .T. ) ;
#32 = CARTESIAN_POINT ( 'NONE',  ( 0.000000000000000000, 0.06250000000000001388, 0.000000000000000000 ) ) ;
#33 = SURFACE_SIDE_STYLE ('',( #91 ) ) ;
#34 = ORIENTED_EDGE ( 'NONE', *, *, #155, .F. ) ;
#35 = LINE ( 'NONE', #291, #82 ) ;
#36 = MANIFOLD_SOLID_BREP ( 'Revolve - Tool Body (Straight Shanked)', #98 ) ;
#37 = PRESENTATION_LAYER_ASSIGNMENT (  '', '', ( #21 ) ) ;
#38 = SPHERICAL_SURFACE ( 'NONE', #48, 0.06249999999999997918 ) ;
#39 = AXIS2_PLACEMENT_3D ( 'NONE', #342, #7, #281 ) ;
#40 = PRODUCT_CONTEXT ( 'NONE', #175, 'mechanical' ) ;
#41 = CARTESIAN_POINT ( 'NONE',  ( -0.06249999999999996531, 0.06250000000000001388, 7.654042494670952923E-18 ) ) ;
#42 = AXIS2_PLACEMENT_3D ( 'NONE', #57, #253, #111 ) ;
#43 =( GEOMETRIC_REPRESENTATION_CONTEXT ( 3 ) GLOBAL_UNCERTAINTY_ASSIGNED_CONTEXT ( ( #307 ) ) GLOBAL_UNIT_ASSIGNED_CONTEXT ( ( #53, #62, #310 ) ) REPRESENTATION_CONTEXT ( 'NONE', 'WORKASPACE' ) );
#44 = ORIENTED_EDGE ( 'NONE', *, *, #51, .T. ) ;
#45 = CARTESIAN_POINT ( 'NONE',  ( -7.654042494670957545E-18, 0.06250000000000001388, 0.000000000000000000 ) ) ;
#46 = CARTESIAN_POINT ( 'NONE',  ( 3.673940397442059375E-16, 1.500000000000000444, 0.000000000000000000 ) ) ;
#47 = DIRECTION ( 'NONE',  ( 1.000000000000000000, 0.000000000000000000, 0.000000000000000000 ) ) ;
#48 = AXIS2_PLACEMENT_3D ( 'NONE', #182, #262, #204 ) ;
#49 =( GEOMETRIC_REPRESENTATION_CONTEXT ( 3 ) GLOBAL_UNCERTAINTY_ASSIGNED_CONTEXT ( ( #312 ) ) GLOBAL_UNIT_ASSIGNED_CONTEXT ( ( #314, #118, #147 ) ) REPRESENTATION_CONTEXT ( 'NONE', 'WORKASPACE' ) );
#50 =( NAMED_UNIT ( * ) PLANE_ANGLE_UNIT ( ) SI_UNIT ( $, .RADIAN. ) );
#51 = EDGE_CURVE ( 'NONE', #100, #360, #56, .T. ) ;
#52 = VECTOR ( 'NONE', #269, 39.37007874015748143 ) ;
#53 =( CONVERSION_BASED_UNIT ( 'INCH', #319 ) LENGTH_UNIT ( ) NAMED_UNIT ( #256 ) );
#54 = FACE_OUTER_BOUND ( 'NONE', #71, .T. ) ;
#55 = EDGE_CURVE ( 'NONE', #164, #243, #25, .T. ) ;
#56 = LINE ( 'NONE', #28, #252 ) ;
#57 = CARTESIAN_POINT ( 'NONE',  ( 5.181141591958969140E-16, 0.2500000000000000555, 0.000000000000000000 ) ) ;
#58 = DIRECTION ( 'NONE',  ( 0.000000000000000000, 0.000000000000000000, -1.000000000000000000 ) ) ;
#59 = STYLED_ITEM ( 'NONE', ( #14 ), #163 ) ;
#60 = EDGE_CURVE ( 'NONE', #320, #301, #203, .T. ) ;
#61 = CARTESIAN_POINT ( 'NONE',  ( -3.827021247335479543E-18, 3.414809992080329023E-17, 0.000000000000000000 ) ) ;
#62 =( NAMED_UNIT ( * ) PLANE_ANGLE_UNIT ( ) SI_UNIT ( $, .RADIAN. ) );
#63 = STYLED_ITEM ( 'NONE', ( #88 ), #36 ) ;
#64 = VERTEX_POINT ( 'NONE', #5 ) ;
#65 = DIRECTION ( 'NONE',  ( 0.000000000000000000, 0.000000000000000000, -1.000000000000000000 ) ) ;
#66 = PRESENTATION_LAYER_ASSIGNMENT (  '', '', ( #364 ) ) ;
#67 =( NAMED_UNIT ( * ) PLANE_ANGLE_UNIT ( ) SI_UNIT ( $, .RADIAN. ) );
#68 = EDGE_CURVE ( 'NONE', #360, #301, #294, .T. ) ;
#69 = FILL_AREA_STYLE_COLOUR ( '', #340 ) ;
#70 = APPLICATION_PROTOCOL_DEFINITION ( 'draft international standard', 'automotive_design', 1998, #175 ) ;
#71 = EDGE_LOOP ( 'NONE', ( #332, #298 ) ) ;
#72 =( GEOMETRIC_REPRESENTATION_CONTEXT ( 3 ) GLOBAL_UNCERTAINTY_ASSIGNED_CONTEXT ( ( #165 ) ) GLOBAL_UNIT_ASSIGNED_CONTEXT ( ( #15, #270, #358 ) ) REPRESENTATION_CONTEXT ( 'NONE', 'WORKASPACE' ) );
#73 = ORIENTED_EDGE ( 'NONE', *, *, #370, .F. ) ;
#74 = EDGE_CURVE ( 'NONE', #17, #239, #113, .T. ) ;
#75 = DIRECTION ( 'NONE',  ( -1.000000000000000000, 0.000000000000000000, 0.000000000000000000 ) ) ;
#76 = DIMENSIONAL_EXPONENTS ( 1.000000000000000000, 0.000000000000000000, 0.000000000000000000, 0.000000000000000000, 0.000000000000000000, 0.000000000000000000, 0.000000000000000000 ) ;
#77 = PRESENTATION_LAYER_ASSIGNMENT (  '', '', ( #240 ) ) ;
#78 = CIRCLE ( 'NONE', #220, 0.06249999999999995143 ) ;
#79 = ORIENTED_EDGE ( 'NONE', *, *, #136, .F. ) ;
#80 = DIRECTION ( 'NONE',  ( -1.000000000000000000, -1.205760955613527713E-16, 0.000000000000000000 ) ) ;
#81 = CIRCLE ( 'NONE', #331, 0.06249999999999997918 ) ;
#82 = VECTOR ( 'NONE', #9, 39.37007874015748143 ) ;
#83 = ORIENTED_EDGE ( 'NONE', *, *, #74, .F. ) ;
#84 = PLANE ( 'NONE',  #297 ) ;
#85 = DIRECTION ( 'NONE',  ( -0.000000000000000000, -1.000000000000000000, -0.000000000000000000 ) ) ;
#86 = ORIENTED_EDGE ( 'NONE', *, *, #136, .T. ) ;
#87 = CARTESIAN_POINT ( 'NONE',  ( 5.181141591958969140E-16, 0.2500000000000000555, 0.000000000000000000 ) ) ;
#88 = PRESENTATION_STYLE_ASSIGNMENT (( #174 ) ) ;
#89 = MECHANICAL_DESIGN_GEOMETRIC_PRESENTATION_REPRESENTATION (  '', ( #21 ), #217 ) ;
#90 = AXIS2_PLACEMENT_3D ( 'NONE', #131, #159, #244 ) ;
#91 = SURFACE_STYLE_FILL_AREA ( #356 ) ;
#92 = ADVANCED_FACE ( 'NONE', ( #199 ), #361, .T. ) ;
#93 = DIRECTION ( 'NONE',  ( 0.000000000000000000, 0.000000000000000000, 1.000000000000000000 ) ) ;
#94 = MECHANICAL_DESIGN_GEOMETRIC_PRESENTATION_REPRESENTATION (  '', ( #364 ), #149 ) ;
#95 = ORIENTED_EDGE ( 'NONE', *, *, #3, .F. ) ;
#96 = DIRECTION ( 'NONE',  ( -0.000000000000000000, -1.000000000000000000, -0.000000000000000000 ) ) ;
#97 = DIRECTION ( 'NONE',  ( -1.205760955613527713E-16, 1.000000000000000000, -0.000000000000000000 ) ) ;
#98 = CLOSED_SHELL ( 'NONE', ( #341, #223, #368, #192 ) ) ;
#99 = CYLINDRICAL_SURFACE ( 'NONE', #90, 0.06249999999999950734 ) ;
#100 = VERTEX_POINT ( 'NONE', #272 ) ;
#101 = AXIS2_PLACEMENT_3D ( 'NONE', #46, #185, #218 ) ;
#102 = LENGTH_MEASURE_WITH_UNIT ( LENGTH_MEASURE( 0.02539999999999999897 ), #202 );
#103 = AXIS2_PLACEMENT_3D ( 'NONE', #261, #22, #222 ) ;
#104 = SURFACE_STYLE_USAGE ( .BOTH. , #143 ) ;
#105 = SURFACE_STYLE_FILL_AREA ( #187 ) ;
#106 = COLOUR_RGB ( '',0.7921568627450980005, 0.8196078431372548767, 0.9333333333333333481 ) ;
#107 = UNCERTAINTY_MEASURE_WITH_UNIT (LENGTH_MEASURE( 1.000000000000000082E-05 ), #214, 'distance_accuracy_value', 'NONE');
#108 = ORIENTED_EDGE ( 'NONE', *, *, #68, .F. ) ;
#109 = AXIS2_PLACEMENT_3D ( 'NONE', #45, #93, #151 ) ;
#110 = AXIS2_PLACEMENT_3D ( 'NONE', #181, #124, #47 ) ;
#111 = DIRECTION ( 'NONE',  ( -1.000000000000000000, 0.000000000000000000, 0.000000000000000000 ) ) ;
#112 = DIRECTION ( 'NONE',  ( -0.000000000000000000, -1.000000000000000000, -0.000000000000000000 ) ) ;
#113 = CIRCLE ( 'NONE', #116, 0.06249999999999995143 ) ;
#114 = DIRECTION ( 'NONE',  ( -1.205760955613527713E-16, 1.000000000000000000, -0.000000000000000000 ) ) ;
#115 = VERTEX_POINT ( 'NONE', #120 ) ;
#116 = AXIS2_PLACEMENT_3D ( 'NONE', #139, #85, #232 ) ;
#117 = FILL_AREA_STYLE ('',( #180 ) ) ;
#118 =( NAMED_UNIT ( * ) PLANE_ANGLE_UNIT ( ) SI_UNIT ( $, .RADIAN. ) );
#119 = SURFACE_SIDE_STYLE ('',( #241 ) ) ;
#120 = CARTESIAN_POINT ( 'NONE',  ( 0.000000000000000000, 0.06250000000000001388, -0.06249999999999995143 ) ) ;
#121 = SURFACE_STYLE_USAGE ( .BOTH. , #156 ) ;
#122 = EDGE_CURVE ( 'NONE', #164, #115, #325, .T. ) ;
#123 = SURFACE_STYLE_FILL_AREA ( #237 ) ;
#124 = DIRECTION ( 'NONE',  ( 0.000000000000000000, 0.000000000000000000, 1.000000000000000000 ) ) ;
#125 = EDGE_CURVE ( 'NONE', #301, #360, #245, .T. ) ;
#126 = DIRECTION ( 'NONE',  ( -0.000000000000000000, -1.000000000000000000, -0.000000000000000000 ) ) ;
#127 = LENGTH_MEASURE_WITH_UNIT ( LENGTH_MEASURE( 0.02539999999999999897 ), #317 );
#128 = DIMENSIONAL_EXPONENTS ( 1.000000000000000000, 0.000000000000000000, 0.000000000000000000, 0.000000000000000000, 0.000000000000000000, 0.000000000000000000, 0.000000000000000000 ) ;
#129 = ORIENTED_EDGE ( 'NONE', *, *, #122, .F. ) ;
#130 =( LENGTH_UNIT ( ) NAMED_UNIT ( * ) SI_UNIT ( $, .METRE. ) );
#131 = CARTESIAN_POINT ( 'NONE',  ( 3.673940397442059375E-16, 1.500000000000000444, 0.000000000000000000 ) ) ;
#132 = STYLED_ITEM ( 'NONE', ( #171 ), #92 ) ;
#133 = SURFACE_STYLE_USAGE ( .BOTH. , #6 ) ;
#134 = DIMENSIONAL_EXPONENTS ( 1.000000000000000000, 0.000000000000000000, 0.000000000000000000, 0.000000000000000000, 0.000000000000000000, 0.000000000000000000, 0.000000000000000000 ) ;
#135 =( NAMED_UNIT ( * ) PLANE_ANGLE_UNIT ( ) SI_UNIT ( $, .RADIAN. ) );
#136 = EDGE_CURVE ( 'NONE', #239, #359, #19, .T. ) ;
#137 = EDGE_LOOP ( 'NONE', ( #79, #347, #350, #129, #229 ) ) ;
#138 = COLOUR_RGB ( '',1.000000000000000000, 0.000000000000000000, 0.000000000000000000 ) ;
#139 = CARTESIAN_POINT ( 'NONE',  ( 0.000000000000000000, 0.2500000000000000555, 0.000000000000000000 ) ) ;
#140 = EDGE_LOOP ( 'NONE', ( #293, #168, #235, #108 ) ) ;
#141 =( LENGTH_UNIT ( ) NAMED_UNIT ( * ) SI_UNIT ( $, .METRE. ) );
#142 = AXIS2_PLACEMENT_3D ( 'NONE', #292, #158, #209 ) ;
#143 = SURFACE_SIDE_STYLE ('',( #313 ) ) ;
#144 = PRESENTATION_STYLE_ASSIGNMENT (( #247 ) ) ;
#145 = UNCERTAINTY_MEASURE_WITH_UNIT (LENGTH_MEASURE( 1.000000000000000082E-05 ), #274, 'distance_accuracy_value', 'NONE');
#146 = ORIENTED_EDGE ( 'NONE', *, *, #231, .T. ) ;
#147 =( NAMED_UNIT ( * ) SI_UNIT ( $, .STERADIAN. ) SOLID_ANGLE_UNIT ( ) );
#148 = LENGTH_MEASURE_WITH_UNIT ( LENGTH_MEASURE( 0.02539999999999999897 ), #206 );
#149 =( GEOMETRIC_REPRESENTATION_CONTEXT ( 3 ) GLOBAL_UNCERTAINTY_ASSIGNED_CONTEXT ( ( #226 ) ) GLOBAL_UNIT_ASSIGNED_CONTEXT ( ( #371, #50, #257 ) ) REPRESENTATION_CONTEXT ( 'NONE', 'WORKASPACE' ) );
#150 = PRESENTATION_LAYER_ASSIGNMENT (  '', '', ( #63 ) ) ;
#151 = DIRECTION ( 'NONE',  ( 1.000000000000000000, 0.000000000000000000, 0.000000000000000000 ) ) ;
#152 = AXIS2_PLACEMENT_3D ( 'NONE', #32, #112, #58 ) ;
#153 = FACE_OUTER_BOUND ( 'NONE', #183, .T. ) ;
#154 = AXIS2_PLACEMENT_3D ( 'NONE', #87, #230, #80 ) ;
#155 = EDGE_CURVE ( 'NONE', #64, #359, #162, .T. ) ;
#156 = SURFACE_SIDE_STYLE ('',( #123 ) ) ;
#157 = ORIENTED_EDGE ( 'NONE', *, *, #231, .F. ) ;
#158 = DIRECTION ( 'NONE',  ( -0.000000000000000000, -1.000000000000000000, -0.000000000000000000 ) ) ;
#159 = DIRECTION ( 'NONE',  ( -1.205760955613527713E-16, 1.000000000000000000, -0.000000000000000000 ) ) ;
#160 = EDGE_CURVE ( 'NONE', #100, #320, #179, .T. ) ;
#161 = APPLICATION_PROTOCOL_DEFINITION ( 'draft international standard', 'automotive_design', 1998, #193 ) ;
#162 = CIRCLE ( 'NONE', #10, 0.06249999999999995143 ) ;
#163 = MANIFOLD_SOLID_BREP ( 'Revolve - Cutting Edge', #316 ) ;
#164 = VERTEX_POINT ( 'NONE', #41 ) ;
#165 = UNCERTAINTY_MEASURE_WITH_UNIT (LENGTH_MEASURE( 1.000000000000000082E-05 ), #15, 'distance_accuracy_value', 'NONE');
#166 = ADVANCED_BREP_SHAPE_REPRESENTATION ( '17015', ( #163, #36, #110 ), #344 ) ;
#167 = CARTESIAN_POINT ( 'NONE',  ( -0.06249999999999913958, 1.500000000000000444, 0.000000000000000000 ) ) ;
#168 = ORIENTED_EDGE ( 'NONE', *, *, #160, .T. ) ;
#169 = LENGTH_MEASURE_WITH_UNIT ( LENGTH_MEASURE( 0.02539999999999999897 ), #141 );
#170 = PRODUCT_DEFINITION_CONTEXT ( 'detailed design', #193, 'design' ) ;
#171 = PRESENTATION_STYLE_ASSIGNMENT (( #104 ) ) ;
#172 =( NAMED_UNIT ( * ) SI_UNIT ( $, .STERADIAN. ) SOLID_ANGLE_UNIT ( ) );
#173 = MECHANICAL_DESIGN_GEOMETRIC_PRESENTATION_REPRESENTATION (  '', ( #132 ), #357 ) ;
#174 = SURFACE_STYLE_USAGE ( .BOTH. , #373 ) ;
#175 = APPLICATION_CONTEXT ( 'automotive_design' ) ;
#176 = CYLINDRICAL_SURFACE ( 'NONE', #300, 0.06249999999999995143 ) ;
#177 = FILL_AREA_STYLE_COLOUR ( '', #30 ) ;
#178 = PRODUCT_DEFINITION ( 'UNKNOWN', '', #246, #170 ) ;
#179 = CIRCLE ( 'NONE', #263, 0.06249999999999942407 ) ;
#180 = FILL_AREA_STYLE_COLOUR ( '', #138 ) ;
#181 = CARTESIAN_POINT ( 'NONE',  ( 0.000000000000000000, 0.000000000000000000, 0.000000000000000000 ) ) ;
#182 = CARTESIAN_POINT ( 'NONE',  ( -7.654042494670957545E-18, 0.06250000000000001388, 0.000000000000000000 ) ) ;
#183 = EDGE_LOOP ( 'NONE', ( #215, #86, #34, #95, #355 ) ) ;
#184 = EDGE_LOOP ( 'NONE', ( #146, #44, #18, #194 ) ) ;
#185 = DIRECTION ( 'NONE',  ( -1.205760955613527713E-16, 1.000000000000000000, -0.000000000000000000 ) ) ;
#186 = ADVANCED_FACE ( 'NONE', ( #153 ), #302, .T. ) ;
#187 = FILL_AREA_STYLE ('',( #69 ) ) ;
#188 = ORIENTED_EDGE ( 'NONE', *, *, #198, .T. ) ;
#189 =( GEOMETRIC_REPRESENTATION_CONTEXT ( 3 ) GLOBAL_UNCERTAINTY_ASSIGNED_CONTEXT ( ( #254 ) ) GLOBAL_UNIT_ASSIGNED_CONTEXT ( ( #353, #67, #236 ) ) REPRESENTATION_CONTEXT ( 'NONE', 'WORKASPACE' ) );
#190 = AXIS2_PLACEMENT_3D ( 'NONE', #324, #97, #75 ) ;
#191 = EDGE_LOOP ( 'NONE', ( #365, #255, #201, #188 ) ) ;
#192 = ADVANCED_FACE ( 'NONE', ( #54 ), #4, .F. ) ;
#193 = APPLICATION_CONTEXT ( 'automotive_design' ) ;
#194 = ORIENTED_EDGE ( 'NONE', *, *, #60, .F. ) ;
#195 = MECHANICAL_DESIGN_GEOMETRIC_PRESENTATION_REPRESENTATION (  '', ( #59 ), #72 ) ;
#196 = SURFACE_STYLE_FILL_AREA ( #305 ) ;
#197 = CARTESIAN_POINT ( 'NONE',  ( 7.654042494670951382E-18, 0.2500000000000000555, 0.06249999999999995143 ) ) ;
#198 = EDGE_CURVE ( 'NONE', #64, #243, #81, .T. ) ;
#199 = FACE_OUTER_BOUND ( 'NONE', #191, .T. ) ;
#200 = LENGTH_MEASURE_WITH_UNIT ( LENGTH_MEASURE( 0.02539999999999999897 ), #295 );
#201 = ORIENTED_EDGE ( 'NONE', *, *, #3, .T. ) ;
#202 =( LENGTH_UNIT ( ) NAMED_UNIT ( * ) SI_UNIT ( $, .METRE. ) );
#203 = LINE ( 'NONE', #167, #372 ) ;
#204 = DIRECTION ( 'NONE',  ( 1.000000000000000000, 0.000000000000000000, 0.000000000000000000 ) ) ;
#205 = EDGE_LOOP ( 'NONE', ( #285, #333, #267, #346 ) ) ;
#206 =( LENGTH_UNIT ( ) NAMED_UNIT ( * ) SI_UNIT ( $, .METRE. ) );
#207 = DIRECTION ( 'NONE',  ( -0.000000000000000000, -1.000000000000000000, -0.000000000000000000 ) ) ;
#208 = PRESENTATION_LAYER_ASSIGNMENT (  '', '', ( #2 ) ) ;
#209 = DIRECTION ( 'NONE',  ( 0.000000000000000000, 0.000000000000000000, -1.000000000000000000 ) ) ;
#210 = ORIENTED_EDGE ( 'NONE', *, *, #160, .F. ) ;
#211 = FILL_AREA_STYLE_COLOUR ( '', #318 ) ;
#212 = FACE_OUTER_BOUND ( 'NONE', #140, .T. ) ;
#213 = COLOUR_RGB ( '',1.000000000000000000, 0.000000000000000000, 0.000000000000000000 ) ;
#214 =( CONVERSION_BASED_UNIT ( 'INCH', #238 ) LENGTH_UNIT ( ) NAMED_UNIT ( #249 ) );
#215 = ORIENTED_EDGE ( 'NONE', *, *, #74, .T. ) ;
#216 = CARTESIAN_POINT ( 'NONE',  ( 0.000000000000000000, 0.2500000000000000555, 0.000000000000000000 ) ) ;
#217 =( GEOMETRIC_REPRESENTATION_CONTEXT ( 3 ) GLOBAL_UNCERTAINTY_ASSIGNED_CONTEXT ( ( #26 ) ) GLOBAL_UNIT_ASSIGNED_CONTEXT ( ( #309, #135, #172 ) ) REPRESENTATION_CONTEXT ( 'NONE', 'WORKASPACE' ) );
#218 = DIRECTION ( 'NONE',  ( -1.000000000000000000, 0.000000000000000000, 0.000000000000000000 ) ) ;
#219 = DIRECTION ( 'NONE',  ( -1.000000000000000000, 0.000000000000000000, 0.000000000000000000 ) ) ;
#220 = AXIS2_PLACEMENT_3D ( 'NONE', #335, #20, #16 ) ;
#221 = FILL_AREA_STYLE_COLOUR ( '', #106 ) ;
#222 = DIRECTION ( 'NONE',  ( 1.000000000000000000, 1.205760955613527713E-16, 0.000000000000000000 ) ) ;
#223 = ADVANCED_FACE ( 'NONE', ( #31 ), #284, .F. ) ;
#224 = COLOUR_RGB ( '',1.000000000000000000, 0.000000000000000000, 0.000000000000000000 ) ;
#225 = CARTESIAN_POINT ( 'NONE',  ( -7.654042494670957545E-18, 0.06250000000000001388, 0.000000000000000000 ) ) ;
#226 = UNCERTAINTY_MEASURE_WITH_UNIT (LENGTH_MEASURE( 1.000000000000000082E-05 ), #371, 'distance_accuracy_value', 'NONE');
#227 = DIRECTION ( 'NONE',  ( -1.205760955613527713E-16, 1.000000000000000000, -0.000000000000000000 ) ) ;
#228 = FILL_AREA_STYLE_COLOUR ( '', #224 ) ;
#229 = ORIENTED_EDGE ( 'NONE', *, *, #367, .F. ) ;
#230 = DIRECTION ( 'NONE',  ( -1.205760955613527713E-16, 1.000000000000000000, 0.000000000000000000 ) ) ;
#231 = EDGE_CURVE ( 'NONE', #320, #100, #369, .T. ) ;
#232 = DIRECTION ( 'NONE',  ( 0.000000000000000000, 0.000000000000000000, -1.000000000000000000 ) ) ;
#233 = FACE_OUTER_BOUND ( 'NONE', #137, .T. ) ;
#234 = CYLINDRICAL_SURFACE ( 'NONE', #190, 0.06249999999999950734 ) ;
#235 = ORIENTED_EDGE ( 'NONE', *, *, #60, .T. ) ;
#236 =( NAMED_UNIT ( * ) SI_UNIT ( $, .STERADIAN. ) SOLID_ANGLE_UNIT ( ) );
#237 = FILL_AREA_STYLE ('',( #211 ) ) ;
#238 = LENGTH_MEASURE_WITH_UNIT ( LENGTH_MEASURE( 0.02539999999999999897 ), #242 );
#239 = VERTEX_POINT ( 'NONE', #197 ) ;
#240 = STYLED_ITEM ( 'NONE', ( #289 ), #330 ) ;
#241 = SURFACE_STYLE_FILL_AREA ( #117 ) ;
#242 =( LENGTH_UNIT ( ) NAMED_UNIT ( * ) SI_UNIT ( $, .METRE. ) );
#243 = VERTEX_POINT ( 'NONE', #61 ) ;
#244 = DIRECTION ( 'NONE',  ( -1.000000000000000000, 0.000000000000000000, 0.000000000000000000 ) ) ;
#245 = CIRCLE ( 'NONE', #101, 0.06249999999999958367 ) ;
#246 = PRODUCT_DEFINITION_FORMATION_WITH_SPECIFIED_SOURCE ( 'ANY', '', #23, .NOT_KNOWN. ) ;
#247 = SURFACE_STYLE_USAGE ( .BOTH. , #348 ) ;
#248 =( NAMED_UNIT ( * ) PLANE_ANGLE_UNIT ( ) SI_UNIT ( $, .RADIAN. ) );
#249 = DIMENSIONAL_EXPONENTS ( 1.000000000000000000, 0.000000000000000000, 0.000000000000000000, 0.000000000000000000, 0.000000000000000000, 0.000000000000000000, 0.000000000000000000 ) ;
#250 = DIMENSIONAL_EXPONENTS ( 1.000000000000000000, 0.000000000000000000, 0.000000000000000000, 0.000000000000000000, 0.000000000000000000, 0.000000000000000000, 0.000000000000000000 ) ;
#251 = SURFACE_STYLE_FILL_AREA ( #258 ) ;
#252 = VECTOR ( 'NONE', #114, 39.37007874015748143 ) ;
#253 = DIRECTION ( 'NONE',  ( -1.205760955613527713E-16, 1.000000000000000000, -0.000000000000000000 ) ) ;
#254 = UNCERTAINTY_MEASURE_WITH_UNIT (LENGTH_MEASURE( 1.000000000000000082E-05 ), #353, 'distance_accuracy_value', 'NONE');
#255 = ORIENTED_EDGE ( 'NONE', *, *, #122, .T. ) ;
#256 = DIMENSIONAL_EXPONENTS ( 1.000000000000000000, 0.000000000000000000, 0.000000000000000000, 0.000000000000000000, 0.000000000000000000, 0.000000000000000000, 0.000000000000000000 ) ;
#257 =( NAMED_UNIT ( * ) SI_UNIT ( $, .STERADIAN. ) SOLID_ANGLE_UNIT ( ) );
#258 = FILL_AREA_STYLE ('',( #221 ) ) ;
#259 = DIRECTION ( 'NONE',  ( 0.000000000000000000, 0.000000000000000000, -1.000000000000000000 ) ) ;
#260 = CARTESIAN_POINT ( 'NONE',  ( 0.000000000000000000, 0.2500000000000000555, -0.06249999999999995143 ) ) ;
#261 = CARTESIAN_POINT ( 'NONE',  ( 0.06249999999999995143, 1.500000000000000444, 0.000000000000000000 ) ) ;
#262 = DIRECTION ( 'NONE',  ( 0.000000000000000000, 0.000000000000000000, 1.000000000000000000 ) ) ;
#263 = AXIS2_PLACEMENT_3D ( 'NONE', #334, #299, #13 ) ;
#264 = SURFACE_STYLE_USAGE ( .BOTH. , #33 ) ;
#265 = ADVANCED_FACE ( 'NONE', ( #345 ), #84, .T. ) ;
#266 = CARTESIAN_POINT ( 'NONE',  ( 0.000000000000000000, 0.06250000000000001388, 0.000000000000000000 ) ) ;
#267 = ORIENTED_EDGE ( 'NONE', *, *, #198, .F. ) ;
#268 = PRODUCT_RELATED_PRODUCT_CATEGORY ( 'part', '', ( #23 ) ) ;
#269 = DIRECTION ( 'NONE',  ( -0.000000000000000000, -1.000000000000000000, -0.000000000000000000 ) ) ;
#270 =( NAMED_UNIT ( * ) PLANE_ANGLE_UNIT ( ) SI_UNIT ( $, .RADIAN. ) );
#271 = EDGE_LOOP ( 'NONE', ( #83, #73 ) ) ;
#272 = CARTESIAN_POINT ( 'NONE',  ( 0.06249999999999993755, 0.2500000000000000555, 7.654042494670900537E-18 ) ) ;
#273 = CARTESIAN_POINT ( 'NONE',  ( 7.654042494670951382E-18, 0.06250000000000001388, 0.06249999999999995143 ) ) ;
#274 =( CONVERSION_BASED_UNIT ( 'INCH', #127 ) LENGTH_UNIT ( ) NAMED_UNIT ( #250 ) );
#275 = PRESENTATION_LAYER_ASSIGNMENT (  '', '', ( #59 ) ) ;
#276 = DIRECTION ( 'NONE',  ( -0.000000000000000000, -1.000000000000000000, -0.000000000000000000 ) ) ;
#277 = EDGE_LOOP ( 'NONE', ( #157, #210 ) ) ;
#278 = AXIS2_PLACEMENT_3D ( 'NONE', #308, #227, #27 ) ;
#279 = DIMENSIONAL_EXPONENTS ( 1.000000000000000000, 0.000000000000000000, 0.000000000000000000, 0.000000000000000000, 0.000000000000000000, 0.000000000000000000, 0.000000000000000000 ) ;
#280 = AXIS2_PLACEMENT_3D ( 'NONE', #216, #126, #327 ) ;
#281 = DIRECTION ( 'NONE',  ( 1.000000000000000000, 0.000000000000000000, -1.224646799147353454E-16 ) ) ;
#282 = DIRECTION ( 'NONE',  ( -1.205760955613527713E-16, 1.000000000000000000, -0.000000000000000000 ) ) ;
#283 = MECHANICAL_DESIGN_GEOMETRIC_PRESENTATION_REPRESENTATION (  '', ( #240 ), #49 ) ;
#284 = PLANE ( 'NONE',  #154 ) ;
#285 = ORIENTED_EDGE ( 'NONE', *, *, #367, .T. ) ;
#286 = CARTESIAN_POINT ( 'NONE',  ( -0.06249999999999890365, 0.2500000000000000555, 0.000000000000000000 ) ) ;
#287 = CARTESIAN_POINT ( 'NONE',  ( 0.000000000000000000, 0.000000000000000000, 0.000000000000000000 ) ) ;
#288 = PRESENTATION_STYLE_ASSIGNMENT (( #8 ) ) ;
#289 = PRESENTATION_STYLE_ASSIGNMENT (( #264 ) ) ;
#290 = ADVANCED_FACE ( 'NONE', ( #354 ), #38, .T. ) ;
#291 = CARTESIAN_POINT ( 'NONE',  ( 0.000000000000000000, 0.000000000000000000, -0.06249999999999995143 ) ) ;
#292 = CARTESIAN_POINT ( 'NONE',  ( 0.000000000000000000, 0.06250000000000001388, 0.000000000000000000 ) ) ;
#293 = ORIENTED_EDGE ( 'NONE', *, *, #51, .F. ) ;
#294 = CIRCLE ( 'NONE', #278, 0.06249999999999958367 ) ;
#295 =( LENGTH_UNIT ( ) NAMED_UNIT ( * ) SI_UNIT ( $, .METRE. ) );
#296 = CARTESIAN_POINT ( 'NONE',  ( 7.654042494670951382E-18, 0.000000000000000000, 0.06249999999999995143 ) ) ;
#297 = AXIS2_PLACEMENT_3D ( 'NONE', #352, #11, #322 ) ;
#298 = ORIENTED_EDGE ( 'NONE', *, *, #68, .T. ) ;
#299 = DIRECTION ( 'NONE',  ( -1.205760955613527713E-16, 1.000000000000000000, -0.000000000000000000 ) ) ;
#300 = AXIS2_PLACEMENT_3D ( 'NONE', #287, #207, #65 ) ;
#301 = VERTEX_POINT ( 'NONE', #12 ) ;
#302 = CYLINDRICAL_SURFACE ( 'NONE', #306, 0.06249999999999995143 ) ;
#303 = SHAPE_DEFINITION_REPRESENTATION ( #363, #166 ) ;
#304 =( NAMED_UNIT ( * ) SI_UNIT ( $, .STERADIAN. ) SOLID_ANGLE_UNIT ( ) );
#305 = FILL_AREA_STYLE ('',( #228 ) ) ;
#306 = AXIS2_PLACEMENT_3D ( 'NONE', #315, #276, #259 ) ;
#307 = UNCERTAINTY_MEASURE_WITH_UNIT (LENGTH_MEASURE( 1.000000000000000082E-05 ), #53, 'distance_accuracy_value', 'NONE');
#308 = CARTESIAN_POINT ( 'NONE',  ( 3.673940397442059375E-16, 1.500000000000000444, 0.000000000000000000 ) ) ;
#309 =( CONVERSION_BASED_UNIT ( 'INCH', #169 ) LENGTH_UNIT ( ) NAMED_UNIT ( #128 ) );
#310 =( NAMED_UNIT ( * ) SI_UNIT ( $, .STERADIAN. ) SOLID_ANGLE_UNIT ( ) );
#311 = DIRECTION ( 'NONE',  ( 0.000000000000000000, 0.000000000000000000, -1.000000000000000000 ) ) ;
#312 = UNCERTAINTY_MEASURE_WITH_UNIT (LENGTH_MEASURE( 1.000000000000000082E-05 ), #314, 'distance_accuracy_value', 'NONE');
#313 = SURFACE_STYLE_FILL_AREA ( #349 ) ;
#314 =( CONVERSION_BASED_UNIT ( 'INCH', #200 ) LENGTH_UNIT ( ) NAMED_UNIT ( #76 ) );
#315 = CARTESIAN_POINT ( 'NONE',  ( 0.000000000000000000, 0.000000000000000000, 0.000000000000000000 ) ) ;
#316 = CLOSED_SHELL ( 'NONE', ( #290, #186, #265, #330, #92 ) ) ;
#317 =( LENGTH_UNIT ( ) NAMED_UNIT ( * ) SI_UNIT ( $, .METRE. ) );
#318 = COLOUR_RGB ( '',0.7921568627450980005, 0.8196078431372548767, 0.9333333333333333481 ) ;
#319 = LENGTH_MEASURE_WITH_UNIT ( LENGTH_MEASURE( 0.02539999999999999897 ), #1 );
#320 = VERTEX_POINT ( 'NONE', #286 ) ;
#321 = MECHANICAL_DESIGN_GEOMETRIC_PRESENTATION_REPRESENTATION (  '', ( #63 ), #43 ) ;
#322 = DIRECTION ( 'NONE',  ( 0.000000000000000000, -0.000000000000000000, 1.000000000000000000 ) ) ;
#323 = FACE_OUTER_BOUND ( 'NONE', #184, .T. ) ;
#324 = CARTESIAN_POINT ( 'NONE',  ( 3.673940397442059375E-16, 1.500000000000000444, 0.000000000000000000 ) ) ;
#325 = CIRCLE ( 'NONE', #142, 0.06249999999999995143 ) ;
#326 = LENGTH_MEASURE_WITH_UNIT ( LENGTH_MEASURE( 0.02539999999999999897 ), #130 );
#327 = DIRECTION ( 'NONE',  ( 0.000000000000000000, 0.000000000000000000, -1.000000000000000000 ) ) ;
#328 = DIRECTION ( 'NONE',  ( 0.000000000000000000, 0.000000000000000000, -1.000000000000000000 ) ) ;
#329 = CARTESIAN_POINT ( 'NONE',  ( 0.06249999999999993755, 1.500000000000000444, 7.654042494670900537E-18 ) ) ;
#330 = ADVANCED_FACE ( 'NONE', ( #233 ), #176, .T. ) ;
#331 = AXIS2_PLACEMENT_3D ( 'NONE', #225, #311, #219 ) ;
#332 = ORIENTED_EDGE ( 'NONE', *, *, #125, .T. ) ;
#333 = ORIENTED_EDGE ( 'NONE', *, *, #55, .T. ) ;
#334 = CARTESIAN_POINT ( 'NONE',  ( 5.181141591958969140E-16, 0.2500000000000000555, 0.000000000000000000 ) ) ;
#335 = CARTESIAN_POINT ( 'NONE',  ( 0.000000000000000000, 0.06250000000000001388, 0.000000000000000000 ) ) ;
#336 = EDGE_CURVE ( 'NONE', #17, #115, #35, .T. ) ;
#337 = PRESENTATION_STYLE_ASSIGNMENT (( #133 ) ) ;
#338 = CIRCLE ( 'NONE', #152, 0.06249999999999995143 ) ;
#339 =( NAMED_UNIT ( * ) SI_UNIT ( $, .STERADIAN. ) SOLID_ANGLE_UNIT ( ) );
#340 = COLOUR_RGB ( '',1.000000000000000000, 0.000000000000000000, 0.000000000000000000 ) ;
#341 = ADVANCED_FACE ( 'NONE', ( #323 ), #234, .T. ) ;
#342 = CARTESIAN_POINT ( 'NONE',  ( -7.654042494670957545E-18, 0.06250000000000001388, 0.000000000000000000 ) ) ;
#343 = PRESENTATION_LAYER_ASSIGNMENT (  '', '', ( #132 ) ) ;
#344 =( GEOMETRIC_REPRESENTATION_CONTEXT ( 3 ) GLOBAL_UNCERTAINTY_ASSIGNED_CONTEXT ( ( #107 ) ) GLOBAL_UNIT_ASSIGNED_CONTEXT ( ( #214, #362, #304 ) ) REPRESENTATION_CONTEXT ( 'NONE', 'WORKASPACE' ) );
#345 = FACE_OUTER_BOUND ( 'NONE', #271, .T. ) ;
#346 = ORIENTED_EDGE ( 'NONE', *, *, #155, .T. ) ;
#347 = ORIENTED_EDGE ( 'NONE', *, *, #370, .T. ) ;
#348 = SURFACE_SIDE_STYLE ('',( #105 ) ) ;
#349 = FILL_AREA_STYLE ('',( #29 ) ) ;
#350 = ORIENTED_EDGE ( 'NONE', *, *, #336, .T. ) ;
#351 = MECHANICAL_DESIGN_GEOMETRIC_PRESENTATION_REPRESENTATION (  '', ( #2 ), #189 ) ;
#352 = CARTESIAN_POINT ( 'NONE',  ( 0.000000000000000000, 0.2500000000000000555, 0.000000000000000000 ) ) ;
#353 =( CONVERSION_BASED_UNIT ( 'INCH', #148 ) LENGTH_UNIT ( ) NAMED_UNIT ( #279 ) );
#354 = FACE_OUTER_BOUND ( 'NONE', #205, .T. ) ;
#355 = ORIENTED_EDGE ( 'NONE', *, *, #336, .F. ) ;
#356 = FILL_AREA_STYLE ('',( #177 ) ) ;
#357 =( GEOMETRIC_REPRESENTATION_CONTEXT ( 3 ) GLOBAL_UNCERTAINTY_ASSIGNED_CONTEXT ( ( #145 ) ) GLOBAL_UNIT_ASSIGNED_CONTEXT ( ( #274, #248, #339 ) ) REPRESENTATION_CONTEXT ( 'NONE', 'WORKASPACE' ) );
#358 =( NAMED_UNIT ( * ) SI_UNIT ( $, .STERADIAN. ) SOLID_ANGLE_UNIT ( ) );
#359 = VERTEX_POINT ( 'NONE', #273 ) ;
#360 = VERTEX_POINT ( 'NONE', #329 ) ;
#361 = SPHERICAL_SURFACE ( 'NONE', #109, 0.06249999999999997918 ) ;
#362 =( NAMED_UNIT ( * ) PLANE_ANGLE_UNIT ( ) SI_UNIT ( $, .RADIAN. ) );
#363 = PRODUCT_DEFINITION_SHAPE ( 'NONE', 'NONE',  #178 ) ;
#364 = STYLED_ITEM ( 'NONE', ( #337 ), #265 ) ;
#365 = ORIENTED_EDGE ( 'NONE', *, *, #55, .F. ) ;
#366 = DIMENSIONAL_EXPONENTS ( 1.000000000000000000, 0.000000000000000000, 0.000000000000000000, 0.000000000000000000, 0.000000000000000000, 0.000000000000000000, 0.000000000000000000 ) ;
#367 = EDGE_CURVE ( 'NONE', #359, #164, #78, .T. ) ;
#368 = ADVANCED_FACE ( 'NONE', ( #212 ), #99, .T. ) ;
#369 = CIRCLE ( 'NONE', #42, 0.06249999999999942407 ) ;
#370 = EDGE_CURVE ( 'NONE', #239, #17, #24, .T. ) ;
#371 =( CONVERSION_BASED_UNIT ( 'INCH', #102 ) LENGTH_UNIT ( ) NAMED_UNIT ( #134 ) );
#372 = VECTOR ( 'NONE', #282, 39.37007874015748143 ) ;
#373 = SURFACE_SIDE_STYLE ('',( #251 ) ) ;
ENDSEC;
END-ISO-10303-21;
