ISO-10303-21;
HEADER;
FILE_DESCRIPTION (( 'STEP AP214' ),
    '1' );
FILE_NAME ('07015.STEP',
    '2023-07-12T13:05:00',
    ( '' ),
    ( '' ),
    'SwSTEP 2.0',
    'SolidWorks 2023',
    '' );
FILE_SCHEMA (( 'AUTOMOTIVE_DESIGN' ));
ENDSEC;

DATA;
#1 = LENGTH_MEASURE_WITH_UNIT ( LENGTH_MEASURE( 0.02539999999999999897 ), #259 );
#2 =( LENGTH_UNIT ( ) NAMED_UNIT ( * ) SI_UNIT ( $, .METRE. ) );
#3 = EDGE_CURVE ( 'NONE', #151, #250, #165, .T. ) ;
#4 = ORIENTED_EDGE ( 'NONE', *, *, #215, .F. ) ;
#5 =( CONVERSION_BASED_UNIT ( 'INCH', #216 ) LENGTH_UNIT ( ) NAMED_UNIT ( #28 ) );
#6 = VERTEX_POINT ( 'NONE', #231 ) ;
#7 = DIRECTION ( 'NONE',  ( -1.215968343562579930E-16, 1.000000000000000000, -0.000000000000000000 ) ) ;
#8 = VERTEX_POINT ( 'NONE', #139 ) ;
#9 = DIMENSIONAL_EXPONENTS ( 1.000000000000000000, 0.000000000000000000, 0.000000000000000000, 0.000000000000000000, 0.000000000000000000, 0.000000000000000000, 0.000000000000000000 ) ;
#10 = EDGE_LOOP ( 'NONE', ( #29, #14, #127, #161 ) ) ;
#11 = FILL_AREA_STYLE_COLOUR ( '', #121 ) ;
#12 = MECHANICAL_DESIGN_GEOMETRIC_PRESENTATION_REPRESENTATION (  '', ( #110 ), #289 ) ;
#13 = ORIENTED_EDGE ( 'NONE', *, *, #119, .T. ) ;
#14 = ORIENTED_EDGE ( 'NONE', *, *, #3, .T. ) ;
#15 = DIRECTION ( 'NONE',  ( -1.000000000000000000, 0.000000000000000000, 0.000000000000000000 ) ) ;
#16 = CARTESIAN_POINT ( 'NONE',  ( 2.096612663664601461E-35, 7.930849885727130235E-19, 0.000000000000000000 ) ) ;
#17 = AXIS2_PLACEMENT_3D ( 'NONE', #211, #53, #59 ) ;
#18 = DIRECTION ( 'NONE',  ( -1.000000000000000000, -1.365923996832135800E-16, 0.000000000000000000 ) ) ;
#19 = LINE ( 'NONE', #286, #143 ) ;
#20 = AXIS2_PLACEMENT_3D ( 'NONE', #181, #48, #192 ) ;
#21 = ADVANCED_FACE ( 'NONE', ( #205 ), #51, .T. ) ;
#22 = FILL_AREA_STYLE_COLOUR ( '', #225 ) ;
#23 = FILL_AREA_STYLE_COLOUR ( '', #106 ) ;
#24 = FACE_OUTER_BOUND ( 'NONE', #36, .T. ) ;
#25 = MECHANICAL_DESIGN_GEOMETRIC_PRESENTATION_REPRESENTATION (  '', ( #169 ), #263 ) ;
#26 = PRESENTATION_STYLE_ASSIGNMENT (( #243 ) ) ;
#27 =( GEOMETRIC_REPRESENTATION_CONTEXT ( 3 ) GLOBAL_UNCERTAINTY_ASSIGNED_CONTEXT ( ( #240 ) ) GLOBAL_UNIT_ASSIGNED_CONTEXT ( ( #175, #108, #154 ) ) REPRESENTATION_CONTEXT ( 'NONE', 'WORKASPACE' ) );
#28 = DIMENSIONAL_EXPONENTS ( 1.000000000000000000, 0.000000000000000000, 0.000000000000000000, 0.000000000000000000, 0.000000000000000000, 0.000000000000000000, 0.000000000000000000 ) ;
#29 = ORIENTED_EDGE ( 'NONE', *, *, #204, .F. ) ;
#30 = PRESENTATION_STYLE_ASSIGNMENT (( #32 ) ) ;
#31 = EDGE_CURVE ( 'NONE', #6, #197, #230, .T. ) ;
#32 = SURFACE_STYLE_USAGE ( .BOTH. , #103 ) ;
#33 = ORIENTED_EDGE ( 'NONE', *, *, #293, .T. ) ;
#34 = ORIENTED_EDGE ( 'NONE', *, *, #196, .F. ) ;
#35 = SURFACE_STYLE_USAGE ( .BOTH. , #83 ) ;
#36 = EDGE_LOOP ( 'NONE', ( #295, #245, #33, #200 ) ) ;
#37 = AXIS2_PLACEMENT_3D ( 'NONE', #283, #76, #102 ) ;
#38 = CARTESIAN_POINT ( 'NONE',  ( 0.1249999999999998335, 2.500000000000000000, 1.530808498934188736E-17 ) ) ;
#39 =( GEOMETRIC_REPRESENTATION_CONTEXT ( 3 ) GLOBAL_UNCERTAINTY_ASSIGNED_CONTEXT ( ( #77 ) ) GLOBAL_UNIT_ASSIGNED_CONTEXT ( ( #5, #94, #307 ) ) REPRESENTATION_CONTEXT ( 'NONE', 'WORKASPACE' ) );
#40 = DIRECTION ( 'NONE',  ( 1.000000000000000000, 1.215968343562579930E-16, 0.000000000000000000 ) ) ;
#41 = FILL_AREA_STYLE ('',( #92 ) ) ;
#42 = DIRECTION ( 'NONE',  ( -1.215968343562579930E-16, 1.000000000000000000, -0.000000000000000000 ) ) ;
#43 = CLOSED_SHELL ( 'NONE', ( #109, #201, #144, #100 ) ) ;
#44 = CARTESIAN_POINT ( 'NONE',  ( 1.449978133535231632E-18, 0.05484827557301415885, 0.000000000000000000 ) ) ;
#45 =( NAMED_UNIT ( * ) PLANE_ANGLE_UNIT ( ) SI_UNIT ( $, .RADIAN. ) );
#46 = AXIS2_PLACEMENT_3D ( 'NONE', #285, #78, #146 ) ;
#47 = APPLICATION_PROTOCOL_DEFINITION ( 'draft international standard', 'automotive_design', 1998, #114 ) ;
#48 = DIRECTION ( 'NONE',  ( -1.215968343562579930E-16, 1.000000000000000000, -0.000000000000000000 ) ) ;
#49 = PRESENTATION_STYLE_ASSIGNMENT (( #122 ) ) ;
#50 = SURFACE_SIDE_STYLE ('',( #262 ) ) ;
#51 = CONICAL_SURFACE ( 'NONE', #179, 0.02999999999999999889, 1.047197551196600074 ) ;
#52 = APPLICATION_CONTEXT ( 'automotive_design' ) ;
#53 = DIRECTION ( 'NONE',  ( 2.643616628575710297E-17, 1.000000000000000000, 0.000000000000000000 ) ) ;
#54 = PRESENTATION_LAYER_ASSIGNMENT (  '', '', ( #174 ) ) ;
#55 =( LENGTH_UNIT ( ) NAMED_UNIT ( * ) SI_UNIT ( $, .METRE. ) );
#56 = PRODUCT_DEFINITION_CONTEXT ( 'detailed design', #52, 'design' ) ;
#57 = EDGE_CURVE ( 'NONE', #65, #151, #79, .T. ) ;
#58 = DIRECTION ( 'NONE',  ( -1.000000000000000000, 0.000000000000000000, 0.000000000000000000 ) ) ;
#59 = DIRECTION ( 'NONE',  ( -1.000000000000000000, 2.643616628575710297E-17, 0.000000000000000000 ) ) ;
#60 = UNCERTAINTY_MEASURE_WITH_UNIT (LENGTH_MEASURE( 1.000000000000000082E-05 ), #167, 'distance_accuracy_value', 'NONE');
#61 = DIMENSIONAL_EXPONENTS ( 1.000000000000000000, 0.000000000000000000, 0.000000000000000000, 0.000000000000000000, 0.000000000000000000, 0.000000000000000000, 0.000000000000000000 ) ;
#62 = PRESENTATION_STYLE_ASSIGNMENT (( #35 ) ) ;
#63 = ORIENTED_EDGE ( 'NONE', *, *, #164, .F. ) ;
#64 =( NAMED_UNIT ( * ) PLANE_ANGLE_UNIT ( ) SI_UNIT ( $, .RADIAN. ) );
#65 = VERTEX_POINT ( 'NONE', #116 ) ;
#66 = CARTESIAN_POINT ( 'NONE',  ( 6.123233995736772199E-17, 2.500000000000000000, 0.000000000000000000 ) ) ;
#67 =( NAMED_UNIT ( * ) PLANE_ANGLE_UNIT ( ) SI_UNIT ( $, .RADIAN. ) );
#68 = EDGE_CURVE ( 'NONE', #6, #272, #135, .T. ) ;
#69 = LENGTH_MEASURE_WITH_UNIT ( LENGTH_MEASURE( 0.02539999999999999897 ), #278 );
#70 = PRESENTATION_STYLE_ASSIGNMENT (( #89 ) ) ;
#71 = AXIS2_PLACEMENT_3D ( 'NONE', #66, #86, #15 ) ;
#72 = DIRECTION ( 'NONE',  ( -1.215968343562579930E-16, 1.000000000000000000, -0.000000000000000000 ) ) ;
#73 = SURFACE_SIDE_STYLE ('',( #296 ) ) ;
#74 =( CONVERSION_BASED_UNIT ( 'INCH', #1 ) LENGTH_UNIT ( ) NAMED_UNIT ( #199 ) );
#75 = FACE_OUTER_BOUND ( 'NONE', #222, .T. ) ;
#76 = DIRECTION ( 'NONE',  ( -2.643616628575710297E-17, -1.000000000000000000, -0.000000000000000000 ) ) ;
#77 = UNCERTAINTY_MEASURE_WITH_UNIT (LENGTH_MEASURE( 1.000000000000000082E-05 ), #5, 'distance_accuracy_value', 'NONE');
#78 = DIRECTION ( 'NONE',  ( 2.643616628575710297E-17, 1.000000000000000000, 0.000000000000000000 ) ) ;
#79 = CIRCLE ( 'NONE', #157, 0.02999999999999999889 ) ;
#80 = CARTESIAN_POINT ( 'NONE',  ( 0.1250000000000000278, 0.05484827557301415885, 1.530808498934191509E-17 ) ) ;
#81 = ORIENTED_EDGE ( 'NONE', *, *, #164, .T. ) ;
#82 = COLOUR_RGB ( '',0.7921568627450980005, 0.8196078431372548767, 0.9333333333333333481 ) ;
#83 = SURFACE_SIDE_STYLE ('',( #244 ) ) ;
#84 = EDGE_LOOP ( 'NONE', ( #274, #13 ) ) ;
#85 = LENGTH_MEASURE_WITH_UNIT ( LENGTH_MEASURE( 0.02539999999999999897 ), #280 );
#86 = DIRECTION ( 'NONE',  ( -1.215968343562579930E-16, 1.000000000000000000, -0.000000000000000000 ) ) ;
#87 = VECTOR ( 'NONE', #113, 39.37007874015748854 ) ;
#88 = AXIS2_PLACEMENT_3D ( 'NONE', #44, #236, #284 ) ;
#89 = SURFACE_STYLE_USAGE ( .BOTH. , #256 ) ;
#90 = MECHANICAL_DESIGN_GEOMETRIC_PRESENTATION_REPRESENTATION (  '', ( #160 ), #226 ) ;
#91 = SURFACE_STYLE_FILL_AREA ( #41 ) ;
#92 = FILL_AREA_STYLE_COLOUR ( '', #124 ) ;
#93 = ORIENTED_EDGE ( 'NONE', *, *, #281, .T. ) ;
#94 =( NAMED_UNIT ( * ) PLANE_ANGLE_UNIT ( ) SI_UNIT ( $, .RADIAN. ) );
#95 = AXIS2_PLACEMENT_3D ( 'NONE', #176, #133, #149 ) ;
#96 =( NAMED_UNIT ( * ) SI_UNIT ( $, .STERADIAN. ) SOLID_ANGLE_UNIT ( ) );
#97 = LENGTH_MEASURE_WITH_UNIT ( LENGTH_MEASURE( 0.02539999999999999897 ), #183 );
#98 = FILL_AREA_STYLE ('',( #166 ) ) ;
#99 = VECTOR ( 'NONE', #269, 39.37007874015748854 ) ;
#100 = ADVANCED_FACE ( 'NONE', ( #118 ), #206, .F. ) ;
#101 = CARTESIAN_POINT ( 'NONE',  ( -0.1249999999999998335, 2.500000000000000000, 0.000000000000000000 ) ) ;
#102 = DIRECTION ( 'NONE',  ( 1.000000000000000000, -2.643616628575710297E-17, 0.000000000000000000 ) ) ;
#103 = SURFACE_SIDE_STYLE ('',( #214 ) ) ;
#104 = CIRCLE ( 'NONE', #268, 0.1249999999999999029 ) ;
#105 = ORIENTED_EDGE ( 'NONE', *, *, #68, .T. ) ;
#106 = COLOUR_RGB ( '',0.7921568627450980005, 0.8196078431372548767, 0.9333333333333333481 ) ;
#107 = LINE ( 'NONE', #271, #99 ) ;
#108 =( NAMED_UNIT ( * ) PLANE_ANGLE_UNIT ( ) SI_UNIT ( $, .RADIAN. ) );
#109 = ADVANCED_FACE ( 'NONE', ( #227 ), #298, .T. ) ;
#110 = STYLED_ITEM ( 'NONE', ( #26 ), #229 ) ;
#111 = CARTESIAN_POINT ( 'NONE',  ( 3.585550491684345597E-16, 0.05484827557301410333, 0.000000000000000000 ) ) ;
#112 = PRESENTATION_STYLE_ASSIGNMENT (( #294 ) ) ;
#113 = DIRECTION ( 'NONE',  ( 0.8660254037844397068, 0.4999999999999979461, 1.060575238724908024E-16 ) ) ;
#114 = APPLICATION_CONTEXT ( 'automotive_design' ) ;
#115 = DIRECTION ( 'NONE',  ( -1.000000000000000000, 0.000000000000000000, 0.000000000000000000 ) ) ;
#116 = CARTESIAN_POINT ( 'NONE',  ( -0.02999999999999999889, 1.586169977145426047E-18, 0.000000000000000000 ) ) ;
#117 = DIRECTION ( 'NONE',  ( -1.000000000000000000, 2.643616628575710297E-17, 0.000000000000000000 ) ) ;
#118 = FACE_OUTER_BOUND ( 'NONE', #84, .T. ) ;
#119 = EDGE_CURVE ( 'NONE', #197, #217, #104, .T. ) ;
#120 = PLANE ( 'NONE',  #46 ) ;
#121 = COLOUR_RGB ( '',1.000000000000000000, 0.000000000000000000, 0.000000000000000000 ) ;
#122 = SURFACE_STYLE_USAGE ( .BOTH. , #145 ) ;
#123 = CARTESIAN_POINT ( 'NONE',  ( 3.585550491684345597E-16, 0.05484827557301413109, 0.000000000000000000 ) ) ;
#124 = COLOUR_RGB ( '',1.000000000000000000, 0.000000000000000000, 0.000000000000000000 ) ;
#125 = FILL_AREA_STYLE ('',( #247 ) ) ;
#126 = DIRECTION ( 'NONE',  ( -1.215968343562579930E-16, 1.000000000000000000, -0.000000000000000000 ) ) ;
#127 = ORIENTED_EDGE ( 'NONE', *, *, #215, .T. ) ;
#128 =( GEOMETRIC_REPRESENTATION_CONTEXT ( 3 ) GLOBAL_UNCERTAINTY_ASSIGNED_CONTEXT ( ( #60 ) ) GLOBAL_UNIT_ASSIGNED_CONTEXT ( ( #167, #45, #96 ) ) REPRESENTATION_CONTEXT ( 'NONE', 'WORKASPACE' ) );
#129 = VECTOR ( 'NONE', #232, 39.37007874015748143 ) ;
#130 = ORIENTED_EDGE ( 'NONE', *, *, #31, .T. ) ;
#131 = MECHANICAL_DESIGN_GEOMETRIC_PRESENTATION_REPRESENTATION (  '', ( #174 ), #39 ) ;
#132 = DIMENSIONAL_EXPONENTS ( 1.000000000000000000, 0.000000000000000000, 0.000000000000000000, 0.000000000000000000, 0.000000000000000000, 0.000000000000000000, 0.000000000000000000 ) ;
#133 = DIRECTION ( 'NONE',  ( -2.643616628575710297E-17, -1.000000000000000000, 0.000000000000000000 ) ) ;
#134 = ORIENTED_EDGE ( 'NONE', *, *, #31, .F. ) ;
#135 = CIRCLE ( 'NONE', #276, 0.1249999999999996114 ) ;
#136 = CARTESIAN_POINT ( 'NONE',  ( 0.1249999999999999584, 2.500000000000000000, 0.000000000000000000 ) ) ;
#137 =( CONVERSION_BASED_UNIT ( 'INCH', #97 ) LENGTH_UNIT ( ) NAMED_UNIT ( #61 ) );
#138 = DIRECTION ( 'NONE',  ( 1.000000000000000000, -2.643616628575710297E-17, 0.000000000000000000 ) ) ;
#139 = CARTESIAN_POINT ( 'NONE',  ( -0.1250000000000000278, 0.05484827557301415885, 0.000000000000000000 ) ) ;
#140 = CONICAL_SURFACE ( 'NONE', #17, 0.02999999999999999889, 1.047197551196600074 ) ;
#141 = DIRECTION ( 'NONE',  ( -2.643616628575710297E-17, -1.000000000000000000, -0.000000000000000000 ) ) ;
#142 =( NAMED_UNIT ( * ) PLANE_ANGLE_UNIT ( ) SI_UNIT ( $, .RADIAN. ) );
#143 = VECTOR ( 'NONE', #72, 39.37007874015748143 ) ;
#144 = ADVANCED_FACE ( 'NONE', ( #203 ), #299, .T. ) ;
#145 = SURFACE_SIDE_STYLE ('',( #147 ) ) ;
#146 = DIRECTION ( 'NONE',  ( -1.000000000000000000, 2.643616628575710297E-17, 0.000000000000000000 ) ) ;
#147 = SURFACE_STYLE_FILL_AREA ( #98 ) ;
#148 = STYLED_ITEM ( 'NONE', ( #49 ), #191 ) ;
#149 = DIRECTION ( 'NONE',  ( 1.000000000000000000, -2.643616628575710297E-17, 0.000000000000000000 ) ) ;
#150 = UNCERTAINTY_MEASURE_WITH_UNIT (LENGTH_MEASURE( 1.000000000000000082E-05 ), #156, 'distance_accuracy_value', 'NONE');
#151 = VERTEX_POINT ( 'NONE', #239 ) ;
#152 = DIMENSIONAL_EXPONENTS ( 1.000000000000000000, 0.000000000000000000, 0.000000000000000000, 0.000000000000000000, 0.000000000000000000, 0.000000000000000000, 0.000000000000000000 ) ;
#153 = PLANE ( 'NONE',  #95 ) ;
#154 =( NAMED_UNIT ( * ) SI_UNIT ( $, .STERADIAN. ) SOLID_ANGLE_UNIT ( ) );
#155 = SHAPE_DEFINITION_REPRESENTATION ( #162, #305 ) ;
#156 =( CONVERSION_BASED_UNIT ( 'INCH', #69 ) LENGTH_UNIT ( ) NAMED_UNIT ( #132 ) );
#157 = AXIS2_PLACEMENT_3D ( 'NONE', #16, #141, #138 ) ;
#158 =( CONVERSION_BASED_UNIT ( 'INCH', #85 ) LENGTH_UNIT ( ) NAMED_UNIT ( #9 ) );
#159 =( NAMED_UNIT ( * ) SI_UNIT ( $, .STERADIAN. ) SOLID_ANGLE_UNIT ( ) );
#160 = STYLED_ITEM ( 'NONE', ( #112 ), #302 ) ;
#161 = ORIENTED_EDGE ( 'NONE', *, *, #293, .F. ) ;
#162 = PRODUCT_DEFINITION_SHAPE ( 'NONE', 'NONE',  #306 ) ;
#163 = PRESENTATION_LAYER_ASSIGNMENT (  '', '', ( #169 ) ) ;
#164 = EDGE_CURVE ( 'NONE', #272, #217, #19, .T. ) ;
#165 = LINE ( 'NONE', #303, #87 ) ;
#166 = FILL_AREA_STYLE_COLOUR ( '', #309 ) ;
#167 =( CONVERSION_BASED_UNIT ( 'INCH', #173 ) LENGTH_UNIT ( ) NAMED_UNIT ( #152 ) );
#168 = CARTESIAN_POINT ( 'NONE',  ( 0.000000000000000000, 0.000000000000000000, 0.000000000000000000 ) ) ;
#169 = STYLED_ITEM ( 'NONE', ( #70 ), #21 ) ;
#170 = DIRECTION ( 'NONE',  ( -1.215968343562579930E-16, 1.000000000000000000, 0.000000000000000000 ) ) ;
#171 = CIRCLE ( 'NONE', #242, 0.1250000000000000000 ) ;
#172 = DIRECTION ( 'NONE',  ( -2.643616628575710297E-17, -1.000000000000000000, -0.000000000000000000 ) ) ;
#173 = LENGTH_MEASURE_WITH_UNIT ( LENGTH_MEASURE( 0.02539999999999999897 ), #2 );
#174 = STYLED_ITEM ( 'NONE', ( #30 ), #300 ) ;
#175 =( CONVERSION_BASED_UNIT ( 'INCH', #290 ) LENGTH_UNIT ( ) NAMED_UNIT ( #249 ) );
#176 = CARTESIAN_POINT ( 'NONE',  ( 1.048306331832300731E-35, 3.965424942863565117E-19, 0.000000000000000000 ) ) ;
#177 = EDGE_LOOP ( 'NONE', ( #34, #4 ) ) ;
#178 = CARTESIAN_POINT ( 'NONE',  ( 6.123233995736772199E-17, 2.500000000000000000, 0.000000000000000000 ) ) ;
#179 = AXIS2_PLACEMENT_3D ( 'NONE', #254, #228, #117 ) ;
#180 = CLOSED_SHELL ( 'NONE', ( #21, #191, #229, #297 ) ) ;
#181 = CARTESIAN_POINT ( 'NONE',  ( 6.123233995736772199E-17, 2.500000000000000000, 0.000000000000000000 ) ) ;
#182 = PRODUCT_RELATED_PRODUCT_CATEGORY ( 'part', '', ( #184 ) ) ;
#183 =( LENGTH_UNIT ( ) NAMED_UNIT ( * ) SI_UNIT ( $, .METRE. ) );
#184 = PRODUCT ( '07015', '07015', '', ( #208 ) ) ;
#185 = EDGE_LOOP ( 'NONE', ( #93, #130, #304, #63 ) ) ;
#186 = CIRCLE ( 'NONE', #291, 0.1249999999999996114 ) ;
#187 = PLANE ( 'NONE',  #261 ) ;
#188 = APPLICATION_PROTOCOL_DEFINITION ( 'draft international standard', 'automotive_design', 1998, #52 ) ;
#189 = FACE_OUTER_BOUND ( 'NONE', #177, .T. ) ;
#190 = FILL_AREA_STYLE ('',( #22 ) ) ;
#191 = ADVANCED_FACE ( 'NONE', ( #189 ), #120, .T. ) ;
#192 = DIRECTION ( 'NONE',  ( -1.000000000000000000, 0.000000000000000000, 0.000000000000000000 ) ) ;
#193 = ORIENTED_EDGE ( 'NONE', *, *, #119, .F. ) ;
#194 = PRESENTATION_LAYER_ASSIGNMENT (  '', '', ( #148 ) ) ;
#195 = CARTESIAN_POINT ( 'NONE',  ( -0.1249999999999992506, 0.05484827557301408946, 0.000000000000000000 ) ) ;
#196 = EDGE_CURVE ( 'NONE', #8, #250, #235, .T. ) ;
#197 = VERTEX_POINT ( 'NONE', #265 ) ;
#198 = FACE_OUTER_BOUND ( 'NONE', #282, .T. ) ;
#199 = DIMENSIONAL_EXPONENTS ( 1.000000000000000000, 0.000000000000000000, 0.000000000000000000, 0.000000000000000000, 0.000000000000000000, 0.000000000000000000, 0.000000000000000000 ) ;
#200 = ORIENTED_EDGE ( 'NONE', *, *, #196, .T. ) ;
#201 = ADVANCED_FACE ( 'NONE', ( #75 ), #187, .F. ) ;
#202 =( NAMED_UNIT ( * ) SI_UNIT ( $, .STERADIAN. ) SOLID_ANGLE_UNIT ( ) );
#203 = FACE_OUTER_BOUND ( 'NONE', #253, .T. ) ;
#204 = EDGE_CURVE ( 'NONE', #151, #65, #301, .T. ) ;
#205 = FACE_OUTER_BOUND ( 'NONE', #10, .T. ) ;
#206 = PLANE ( 'NONE',  #218 ) ;
#207 = UNCERTAINTY_MEASURE_WITH_UNIT (LENGTH_MEASURE( 1.000000000000000082E-05 ), #74, 'distance_accuracy_value', 'NONE');
#208 = PRODUCT_CONTEXT ( 'NONE', #114, 'mechanical' ) ;
#209 = MECHANICAL_DESIGN_GEOMETRIC_PRESENTATION_REPRESENTATION (  '', ( #148 ), #128 ) ;
#210 =( NAMED_UNIT ( * ) SI_UNIT ( $, .STERADIAN. ) SOLID_ANGLE_UNIT ( ) );
#211 = CARTESIAN_POINT ( 'NONE',  ( 2.096612663664601461E-35, 7.930849885727130235E-19, 0.000000000000000000 ) ) ;
#212 = UNCERTAINTY_MEASURE_WITH_UNIT (LENGTH_MEASURE( 1.000000000000000082E-05 ), #158, 'distance_accuracy_value', 'NONE');
#213 = PRODUCT_DEFINITION_FORMATION_WITH_SPECIFIED_SOURCE ( 'ANY', '', #184, .NOT_KNOWN. ) ;
#214 = SURFACE_STYLE_FILL_AREA ( #125 ) ;
#215 = EDGE_CURVE ( 'NONE', #250, #8, #171, .T. ) ;
#216 = LENGTH_MEASURE_WITH_UNIT ( LENGTH_MEASURE( 0.02539999999999999897 ), #55 );
#217 = VERTEX_POINT ( 'NONE', #101 ) ;
#218 = AXIS2_PLACEMENT_3D ( 'NONE', #136, #308, #40 ) ;
#219 = CARTESIAN_POINT ( 'NONE',  ( 6.123233995736772199E-17, 2.500000000000000000, 0.000000000000000000 ) ) ;
#220 =( GEOMETRIC_REPRESENTATION_CONTEXT ( 3 ) GLOBAL_UNCERTAINTY_ASSIGNED_CONTEXT ( ( #266 ) ) GLOBAL_UNIT_ASSIGNED_CONTEXT ( ( #137, #64, #210 ) ) REPRESENTATION_CONTEXT ( 'NONE', 'WORKASPACE' ) );
#221 =( LENGTH_UNIT ( ) NAMED_UNIT ( * ) SI_UNIT ( $, .METRE. ) );
#222 = EDGE_LOOP ( 'NONE', ( #246, #292 ) ) ;
#223 =( NAMED_UNIT ( * ) PLANE_ANGLE_UNIT ( ) SI_UNIT ( $, .RADIAN. ) );
#224 = ORIENTED_EDGE ( 'NONE', *, *, #204, .T. ) ;
#225 = COLOUR_RGB ( '',1.000000000000000000, 0.000000000000000000, 0.000000000000000000 ) ;
#226 =( GEOMETRIC_REPRESENTATION_CONTEXT ( 3 ) GLOBAL_UNCERTAINTY_ASSIGNED_CONTEXT ( ( #212 ) ) GLOBAL_UNIT_ASSIGNED_CONTEXT ( ( #158, #142, #202 ) ) REPRESENTATION_CONTEXT ( 'NONE', 'WORKASPACE' ) );
#227 = FACE_OUTER_BOUND ( 'NONE', #185, .T. ) ;
#228 = DIRECTION ( 'NONE',  ( 2.643616628575710297E-17, 1.000000000000000000, 0.000000000000000000 ) ) ;
#229 = ADVANCED_FACE ( 'NONE', ( #24 ), #140, .T. ) ;
#230 = LINE ( 'NONE', #38, #129 ) ;
#231 = CARTESIAN_POINT ( 'NONE',  ( 0.1249999999999999445, 0.05484827557301412415, 1.530808498934189352E-17 ) ) ;
#232 = DIRECTION ( 'NONE',  ( -1.215968343562579930E-16, 1.000000000000000000, -0.000000000000000000 ) ) ;
#233 = EDGE_CURVE ( 'NONE', #217, #197, #251, .T. ) ;
#234 = DIRECTION ( 'NONE',  ( 1.000000000000000000, 0.000000000000000000, 0.000000000000000000 ) ) ;
#235 = CIRCLE ( 'NONE', #88, 0.1250000000000000000 ) ;
#236 = DIRECTION ( 'NONE',  ( -2.643616628575710297E-17, -1.000000000000000000, -0.000000000000000000 ) ) ;
#237 = PRESENTATION_LAYER_ASSIGNMENT (  '', '', ( #288 ) ) ;
#238 = AXIS2_PLACEMENT_3D ( 'NONE', #219, #126, #58 ) ;
#239 = CARTESIAN_POINT ( 'NONE',  ( 0.02999999999999999889, 0.000000000000000000, 9.491012693391986370E-18 ) ) ;
#240 = UNCERTAINTY_MEASURE_WITH_UNIT (LENGTH_MEASURE( 1.000000000000000082E-05 ), #175, 'distance_accuracy_value', 'NONE');
#241 = DIRECTION ( 'NONE',  ( -1.000000000000000000, -1.215968343562579930E-16, 0.000000000000000000 ) ) ;
#242 = AXIS2_PLACEMENT_3D ( 'NONE', #258, #172, #267 ) ;
#243 = SURFACE_STYLE_USAGE ( .BOTH. , #50 ) ;
#244 = SURFACE_STYLE_FILL_AREA ( #252 ) ;
#245 = ORIENTED_EDGE ( 'NONE', *, *, #57, .F. ) ;
#246 = ORIENTED_EDGE ( 'NONE', *, *, #281, .F. ) ;
#247 = FILL_AREA_STYLE_COLOUR ( '', #82 ) ;
#248 =( NAMED_UNIT ( * ) SI_UNIT ( $, .STERADIAN. ) SOLID_ANGLE_UNIT ( ) );
#249 = DIMENSIONAL_EXPONENTS ( 1.000000000000000000, 0.000000000000000000, 0.000000000000000000, 0.000000000000000000, 0.000000000000000000, 0.000000000000000000, 0.000000000000000000 ) ;
#250 = VERTEX_POINT ( 'NONE', #80 ) ;
#251 = CIRCLE ( 'NONE', #238, 0.1249999999999999029 ) ;
#252 = FILL_AREA_STYLE ('',( #11 ) ) ;
#253 = EDGE_LOOP ( 'NONE', ( #134, #105, #81, #193 ) ) ;
#254 = CARTESIAN_POINT ( 'NONE',  ( 2.096612663664601461E-35, 7.930849885727130235E-19, 0.000000000000000000 ) ) ;
#255 = MECHANICAL_DESIGN_GEOMETRIC_PRESENTATION_REPRESENTATION (  '', ( #288 ), #27 ) ;
#256 = SURFACE_SIDE_STYLE ('',( #91 ) ) ;
#257 = CARTESIAN_POINT ( 'NONE',  ( 3.585550491684345597E-16, 0.05484827557301410333, 0.000000000000000000 ) ) ;
#258 = CARTESIAN_POINT ( 'NONE',  ( 1.449978133535231632E-18, 0.05484827557301415885, 0.000000000000000000 ) ) ;
#259 =( LENGTH_UNIT ( ) NAMED_UNIT ( * ) SI_UNIT ( $, .METRE. ) );
#260 = DIRECTION ( 'NONE',  ( 0.000000000000000000, 0.000000000000000000, 1.000000000000000000 ) ) ;
#261 = AXIS2_PLACEMENT_3D ( 'NONE', #123, #170, #241 ) ;
#262 = SURFACE_STYLE_FILL_AREA ( #190 ) ;
#263 =( GEOMETRIC_REPRESENTATION_CONTEXT ( 3 ) GLOBAL_UNCERTAINTY_ASSIGNED_CONTEXT ( ( #150 ) ) GLOBAL_UNIT_ASSIGNED_CONTEXT ( ( #156, #67, #159 ) ) REPRESENTATION_CONTEXT ( 'NONE', 'WORKASPACE' ) );
#264 = AXIS2_PLACEMENT_3D ( 'NONE', #168, #260, #234 ) ;
#265 = CARTESIAN_POINT ( 'NONE',  ( 0.1249999999999999445, 2.500000000000000000, 1.530808498934189352E-17 ) ) ;
#266 = UNCERTAINTY_MEASURE_WITH_UNIT (LENGTH_MEASURE( 1.000000000000000082E-05 ), #137, 'distance_accuracy_value', 'NONE');
#267 = DIRECTION ( 'NONE',  ( 1.000000000000000000, 0.000000000000000000, 0.000000000000000000 ) ) ;
#268 = AXIS2_PLACEMENT_3D ( 'NONE', #178, #275, #115 ) ;
#269 = DIRECTION ( 'NONE',  ( -0.8660254037844397068, 0.4999999999999979461, 0.000000000000000000 ) ) ;
#270 = DIRECTION ( 'NONE',  ( -1.000000000000000000, -1.365923996832135800E-16, 0.000000000000000000 ) ) ;
#271 = CARTESIAN_POINT ( 'NONE',  ( -0.02999999999999999889, 1.586169977145426047E-18, 0.000000000000000000 ) ) ;
#272 = VERTEX_POINT ( 'NONE', #195 ) ;
#273 = FILL_AREA_STYLE ('',( #23 ) ) ;
#274 = ORIENTED_EDGE ( 'NONE', *, *, #233, .T. ) ;
#275 = DIRECTION ( 'NONE',  ( -1.215968343562579930E-16, 1.000000000000000000, -0.000000000000000000 ) ) ;
#276 = AXIS2_PLACEMENT_3D ( 'NONE', #257, #42, #18 ) ;
#277 = PRESENTATION_LAYER_ASSIGNMENT (  '', '', ( #160 ) ) ;
#278 =( LENGTH_UNIT ( ) NAMED_UNIT ( * ) SI_UNIT ( $, .METRE. ) );
#279 = PRESENTATION_LAYER_ASSIGNMENT (  '', '', ( #110 ) ) ;
#280 =( LENGTH_UNIT ( ) NAMED_UNIT ( * ) SI_UNIT ( $, .METRE. ) );
#281 = EDGE_CURVE ( 'NONE', #272, #6, #186, .T. ) ;
#282 = EDGE_LOOP ( 'NONE', ( #287, #224 ) ) ;
#283 = CARTESIAN_POINT ( 'NONE',  ( 2.096612663664601461E-35, 7.930849885727130235E-19, 0.000000000000000000 ) ) ;
#284 = DIRECTION ( 'NONE',  ( 1.000000000000000000, 0.000000000000000000, 0.000000000000000000 ) ) ;
#285 = CARTESIAN_POINT ( 'NONE',  ( 1.449978133535231439E-18, 0.05484827557301415191, 0.000000000000000000 ) ) ;
#286 = CARTESIAN_POINT ( 'NONE',  ( -0.1249999999999996947, 2.500000000000000000, 0.000000000000000000 ) ) ;
#287 = ORIENTED_EDGE ( 'NONE', *, *, #57, .T. ) ;
#288 = STYLED_ITEM ( 'NONE', ( #62 ), #297 ) ;
#289 =( GEOMETRIC_REPRESENTATION_CONTEXT ( 3 ) GLOBAL_UNCERTAINTY_ASSIGNED_CONTEXT ( ( #207 ) ) GLOBAL_UNIT_ASSIGNED_CONTEXT ( ( #74, #223, #248 ) ) REPRESENTATION_CONTEXT ( 'NONE', 'WORKASPACE' ) );
#290 = LENGTH_MEASURE_WITH_UNIT ( LENGTH_MEASURE( 0.02539999999999999897 ), #221 );
#291 = AXIS2_PLACEMENT_3D ( 'NONE', #111, #7, #270 ) ;
#292 = ORIENTED_EDGE ( 'NONE', *, *, #68, .F. ) ;
#293 = EDGE_CURVE ( 'NONE', #65, #8, #107, .T. ) ;
#294 = SURFACE_STYLE_USAGE ( .BOTH. , #73 ) ;
#295 = ORIENTED_EDGE ( 'NONE', *, *, #3, .F. ) ;
#296 = SURFACE_STYLE_FILL_AREA ( #273 ) ;
#297 = ADVANCED_FACE ( 'NONE', ( #198 ), #153, .T. ) ;
#298 = CYLINDRICAL_SURFACE ( 'NONE', #71, 0.1249999999999997641 ) ;
#299 = CYLINDRICAL_SURFACE ( 'NONE', #20, 0.1249999999999997641 ) ;
#300 = MANIFOLD_SOLID_BREP ( 'Revolve - Tool Body (Tipped Off)', #43 ) ;
#301 = CIRCLE ( 'NONE', #37, 0.02999999999999999889 ) ;
#302 = MANIFOLD_SOLID_BREP ( 'Revolve - Cutting Edge', #180 ) ;
#303 = CARTESIAN_POINT ( 'NONE',  ( 0.02999999999999999889, 0.000000000000000000, 3.673940397442059190E-18 ) ) ;
#304 = ORIENTED_EDGE ( 'NONE', *, *, #233, .F. ) ;
#305 = ADVANCED_BREP_SHAPE_REPRESENTATION ( '07015', ( #302, #300, #264 ), #220 ) ;
#306 = PRODUCT_DEFINITION ( 'UNKNOWN', '', #213, #56 ) ;
#307 =( NAMED_UNIT ( * ) SI_UNIT ( $, .STERADIAN. ) SOLID_ANGLE_UNIT ( ) );
#308 = DIRECTION ( 'NONE',  ( 1.215968343562579930E-16, -1.000000000000000000, 0.000000000000000000 ) ) ;
#309 = COLOUR_RGB ( '',1.000000000000000000, 0.000000000000000000, 0.000000000000000000 ) ;
ENDSEC;
END-ISO-10303-21;
