ISO-10303-21;
HEADER;
FILE_DESCRIPTION (( 'STEP AP214' ),
    '1' );
FILE_NAME ('84310.STEP',
    '2023-06-23T12:22:00',
    ( '' ),
    ( '' ),
    'SwSTEP 2.0',
    'SolidWorks 2023',
    '' );
FILE_SCHEMA (( 'AUTOMOTIVE_DESIGN' ));
ENDSEC;

DATA;
#1 = LENGTH_MEASURE_WITH_UNIT ( LENGTH_MEASURE( 0.02539999999999999897 ), #45 );
#2 = DIRECTION ( 'NONE',  ( -0.000000000000000000, -1.000000000000000000, -0.000000000000000000 ) ) ;
#3 = EDGE_LOOP ( 'NONE', ( #8, #269, #268, #118 ) ) ;
#4 = ADVANCED_FACE ( 'NONE', ( #120 ), #25, .T. ) ;
#5 = AXIS2_PLACEMENT_3D ( 'NONE', #191, #213, #147 ) ;
#6 = AXIS2_PLACEMENT_3D ( 'NONE', #299, #229, #127 ) ;
#7 = PRODUCT_DEFINITION_CONTEXT ( 'detailed design', #103, 'design' ) ;
#8 = ORIENTED_EDGE ( 'NONE', *, *, #179, .F. ) ;
#9 = PRESENTATION_STYLE_ASSIGNMENT (( #119 ) ) ;
#10 = PRESENTATION_STYLE_ASSIGNMENT (( #192 ) ) ;
#11 = COLOUR_RGB ( '',1.000000000000000000, 0.000000000000000000, 0.000000000000000000 ) ;
#12 = DIRECTION ( 'NONE',  ( 6.997981709413449187E-17, -1.000000000000000000, 0.000000000000000000 ) ) ;
#13 =( NAMED_UNIT ( * ) PLANE_ANGLE_UNIT ( ) SI_UNIT ( $, .RADIAN. ) );
#14 = CARTESIAN_POINT ( 'NONE',  ( 3.061616997868383018E-17, 1.250000000000000000, 0.2500000000000000000 ) ) ;
#15 =( CONVERSION_BASED_UNIT ( 'INCH', #231 ) LENGTH_UNIT ( ) NAMED_UNIT ( #196 ) );
#16 = ADVANCED_FACE ( 'NONE', ( #217 ), #22, .T. ) ;
#17 = CYLINDRICAL_SURFACE ( 'NONE', #93, 0.2500000000000000555 ) ;
#18 = DIRECTION ( 'NONE',  ( -6.997981709413449187E-17, 1.000000000000000000, 0.000000000000000000 ) ) ;
#19 =( LENGTH_UNIT ( ) NAMED_UNIT ( * ) SI_UNIT ( $, .METRE. ) );
#20 = AXIS2_PLACEMENT_3D ( 'NONE', #246, #12, #158 ) ;
#21 = SURFACE_STYLE_FILL_AREA ( #193 ) ;
#22 = PLANE ( 'NONE',  #156 ) ;
#23 = ORIENTED_EDGE ( 'NONE', *, *, #165, .F. ) ;
#24 = SURFACE_STYLE_FILL_AREA ( #266 ) ;
#25 = CYLINDRICAL_SURFACE ( 'NONE', #105, 0.2500000000000000555 ) ;
#26 = AXIS2_PLACEMENT_3D ( 'NONE', #58, #123, #175 ) ;
#27 = PRODUCT_DEFINITION_FORMATION_WITH_SPECIFIED_SOURCE ( 'ANY', '', #49, .NOT_KNOWN. ) ;
#28 = SURFACE_SIDE_STYLE ('',( #21 ) ) ;
#29 = EDGE_LOOP ( 'NONE', ( #23, #115 ) ) ;
#30 = UNCERTAINTY_MEASURE_WITH_UNIT (LENGTH_MEASURE( 1.000000000000000082E-05 ), #15, 'distance_accuracy_value', 'NONE');
#31 = SURFACE_STYLE_USAGE ( .BOTH. , #98 ) ;
#32 = MECHANICAL_DESIGN_GEOMETRIC_PRESENTATION_REPRESENTATION (  '', ( #305 ), #99 ) ;
#33 = LENGTH_MEASURE_WITH_UNIT ( LENGTH_MEASURE( 0.02539999999999999897 ), #200 );
#34 = PRODUCT_RELATED_PRODUCT_CATEGORY ( 'part', '', ( #49 ) ) ;
#35 = SURFACE_SIDE_STYLE ('',( #251 ) ) ;
#36 =( GEOMETRIC_REPRESENTATION_CONTEXT ( 3 ) GLOBAL_UNCERTAINTY_ASSIGNED_CONTEXT ( ( #56 ) ) GLOBAL_UNIT_ASSIGNED_CONTEXT ( ( #73, #309, #167 ) ) REPRESENTATION_CONTEXT ( 'NONE', 'WORKASPACE' ) );
#37 =( LENGTH_UNIT ( ) NAMED_UNIT ( * ) SI_UNIT ( $, .METRE. ) );
#38 = CARTESIAN_POINT ( 'NONE',  ( 6.121468500660646684E-34, 1.250000000000000000, 0.000000000000000000 ) ) ;
#39 = EDGE_CURVE ( 'NONE', #50, #150, #125, .T. ) ;
#40 = FILL_AREA_STYLE ('',( #252 ) ) ;
#41 = DIRECTION ( 'NONE',  ( -0.000000000000000000, -1.000000000000000000, -0.000000000000000000 ) ) ;
#42 = COLOUR_RGB ( '',1.000000000000000000, 0.000000000000000000, 0.000000000000000000 ) ;
#43 = ORIENTED_EDGE ( 'NONE', *, *, #220, .F. ) ;
#44 = SURFACE_SIDE_STYLE ('',( #110 ) ) ;
#45 =( LENGTH_UNIT ( ) NAMED_UNIT ( * ) SI_UNIT ( $, .METRE. ) );
#46 = UNCERTAINTY_MEASURE_WITH_UNIT (LENGTH_MEASURE( 1.000000000000000082E-05 ), #100, 'distance_accuracy_value', 'NONE');
#47 = DIRECTION ( 'NONE',  ( 0.000000000000000000, 0.000000000000000000, -1.000000000000000000 ) ) ;
#48 = CIRCLE ( 'NONE', #248, 0.2500000000000001110 ) ;
#49 = PRODUCT ( '84310', '84310', '', ( #160 ) ) ;
#50 = VERTEX_POINT ( 'NONE', #260 ) ;
#51 =( NAMED_UNIT ( * ) PLANE_ANGLE_UNIT ( ) SI_UNIT ( $, .RADIAN. ) );
#52 = EDGE_LOOP ( 'NONE', ( #97, #148 ) ) ;
#53 = SURFACE_SIDE_STYLE ('',( #24 ) ) ;
#54 = LENGTH_MEASURE_WITH_UNIT ( LENGTH_MEASURE( 0.02539999999999999897 ), #153 );
#55 = VECTOR ( 'NONE', #41, 39.37007874015748143 ) ;
#56 = UNCERTAINTY_MEASURE_WITH_UNIT (LENGTH_MEASURE( 1.000000000000000082E-05 ), #73, 'distance_accuracy_value', 'NONE');
#57 =( NAMED_UNIT ( * ) PLANE_ANGLE_UNIT ( ) SI_UNIT ( $, .RADIAN. ) );
#58 = CARTESIAN_POINT ( 'NONE',  ( 0.000000000000000000, 0.000000000000000000, 0.000000000000000000 ) ) ;
#59 =( GEOMETRIC_REPRESENTATION_CONTEXT ( 3 ) GLOBAL_UNCERTAINTY_ASSIGNED_CONTEXT ( ( #300 ) ) GLOBAL_UNIT_ASSIGNED_CONTEXT ( ( #218, #296, #197 ) ) REPRESENTATION_CONTEXT ( 'NONE', 'WORKASPACE' ) );
#60 = ADVANCED_FACE ( 'NONE', ( #307 ), #66, .T. ) ;
#61 = AXIS2_PLACEMENT_3D ( 'NONE', #136, #88, #65 ) ;
#62 = CARTESIAN_POINT ( 'NONE',  ( 3.061616997868383018E-17, 0.000000000000000000, 0.2500000000000000000 ) ) ;
#63 = APPLICATION_CONTEXT ( 'automotive_design' ) ;
#64 = DIRECTION ( 'NONE',  ( -1.000000000000000000, 0.000000000000000000, 0.000000000000000000 ) ) ;
#65 = DIRECTION ( 'NONE',  ( 0.000000000000000000, 0.000000000000000000, -1.000000000000000000 ) ) ;
#66 = CYLINDRICAL_SURFACE ( 'NONE', #61, 0.2500000000000000000 ) ;
#67 = FILL_AREA_STYLE_COLOUR ( '', #283 ) ;
#68 = PRESENTATION_LAYER_ASSIGNMENT (  '', '', ( #205 ) ) ;
#69 = VERTEX_POINT ( 'NONE', #14 ) ;
#70 = CARTESIAN_POINT ( 'NONE',  ( 0.000000000000000000, 1.250000000000000000, 0.000000000000000000 ) ) ;
#71 = ORIENTED_EDGE ( 'NONE', *, *, #179, .T. ) ;
#72 = LINE ( 'NONE', #144, #112 ) ;
#73 =( CONVERSION_BASED_UNIT ( 'INCH', #54 ) LENGTH_UNIT ( ) NAMED_UNIT ( #235 ) );
#74 = EDGE_LOOP ( 'NONE', ( #267, #169, #243, #295 ) ) ;
#75 = CIRCLE ( 'NONE', #108, 0.2500000000000000000 ) ;
#76 = CLOSED_SHELL ( 'NONE', ( #102, #170, #4, #259 ) ) ;
#77 = FILL_AREA_STYLE_COLOUR ( '', #262 ) ;
#78 = ADVANCED_BREP_SHAPE_REPRESENTATION ( '84310', ( #286, #289, #6 ), #114 ) ;
#79 = UNCERTAINTY_MEASURE_WITH_UNIT (LENGTH_MEASURE( 1.000000000000000082E-05 ), #159, 'distance_accuracy_value', 'NONE');
#80 = VECTOR ( 'NONE', #250, 39.37007874015748143 ) ;
#81 = LENGTH_MEASURE_WITH_UNIT ( LENGTH_MEASURE( 0.02539999999999999897 ), #227 );
#82 = EDGE_CURVE ( 'NONE', #122, #194, #48, .T. ) ;
#83 = MECHANICAL_DESIGN_GEOMETRIC_PRESENTATION_REPRESENTATION (  '', ( #253 ), #59 ) ;
#84 = VECTOR ( 'NONE', #140, 39.37007874015748143 ) ;
#85 = CARTESIAN_POINT ( 'NONE',  ( 0.000000000000000000, 1.250000000000000000, -0.2500000000000000000 ) ) ;
#86 = PRODUCT_DEFINITION ( 'UNKNOWN', '', #27, #7 ) ;
#87 = ORIENTED_EDGE ( 'NONE', *, *, #265, .T. ) ;
#88 = DIRECTION ( 'NONE',  ( -0.000000000000000000, -1.000000000000000000, -0.000000000000000000 ) ) ;
#89 = AXIS2_PLACEMENT_3D ( 'NONE', #287, #264, #143 ) ;
#90 = PLANE ( 'NONE',  #5 ) ;
#91 = ORIENTED_EDGE ( 'NONE', *, *, #82, .F. ) ;
#92 = FILL_AREA_STYLE_COLOUR ( '', #42 ) ;
#93 = AXIS2_PLACEMENT_3D ( 'NONE', #306, #304, #64 ) ;
#94 = CARTESIAN_POINT ( 'NONE',  ( 0.000000000000000000, 1.250000000000000000, 0.000000000000000000 ) ) ;
#95 = EDGE_LOOP ( 'NONE', ( #142, #209 ) ) ;
#96 = PRESENTATION_STYLE_ASSIGNMENT (( #121 ) ) ;
#97 = ORIENTED_EDGE ( 'NONE', *, *, #239, .F. ) ;
#98 = SURFACE_SIDE_STYLE ('',( #278 ) ) ;
#99 =( GEOMETRIC_REPRESENTATION_CONTEXT ( 3 ) GLOBAL_UNCERTAINTY_ASSIGNED_CONTEXT ( ( #30 ) ) GLOBAL_UNIT_ASSIGNED_CONTEXT ( ( #15, #207, #104 ) ) REPRESENTATION_CONTEXT ( 'NONE', 'WORKASPACE' ) );
#100 =( CONVERSION_BASED_UNIT ( 'INCH', #33 ) LENGTH_UNIT ( ) NAMED_UNIT ( #180 ) );
#101 = CIRCLE ( 'NONE', #89, 0.2500000000000000000 ) ;
#102 = ADVANCED_FACE ( 'NONE', ( #164 ), #17, .T. ) ;
#103 = APPLICATION_CONTEXT ( 'automotive_design' ) ;
#104 =( NAMED_UNIT ( * ) SI_UNIT ( $, .STERADIAN. ) SOLID_ANGLE_UNIT ( ) );
#105 = AXIS2_PLACEMENT_3D ( 'NONE', #245, #241, #292 ) ;
#106 = AXIS2_PLACEMENT_3D ( 'NONE', #301, #155, #249 ) ;
#107 = CARTESIAN_POINT ( 'NONE',  ( 0.000000000000000000, 0.000000000000000000, 0.000000000000000000 ) ) ;
#108 = AXIS2_PLACEMENT_3D ( 'NONE', #107, #135, #206 ) ;
#109 = CARTESIAN_POINT ( 'NONE',  ( -1.224646799147353700E-16, 3.000000000000000444, 0.000000000000000000 ) ) ;
#110 = SURFACE_STYLE_FILL_AREA ( #40 ) ;
#111 = PRESENTATION_STYLE_ASSIGNMENT (( #208 ) ) ;
#112 = VECTOR ( 'NONE', #2, 39.37007874015748143 ) ;
#113 =( NAMED_UNIT ( * ) SI_UNIT ( $, .STERADIAN. ) SOLID_ANGLE_UNIT ( ) );
#114 =( GEOMETRIC_REPRESENTATION_CONTEXT ( 3 ) GLOBAL_UNCERTAINTY_ASSIGNED_CONTEXT ( ( #222 ) ) GLOBAL_UNIT_ASSIGNED_CONTEXT ( ( #132, #13, #203 ) ) REPRESENTATION_CONTEXT ( 'NONE', 'WORKASPACE' ) );
#115 = ORIENTED_EDGE ( 'NONE', *, *, #214, .F. ) ;
#116 = DIRECTION ( 'NONE',  ( 0.000000000000000000, 1.000000000000000000, 0.000000000000000000 ) ) ;
#117 = CYLINDRICAL_SURFACE ( 'NONE', #277, 0.2500000000000000000 ) ;
#118 = ORIENTED_EDGE ( 'NONE', *, *, #298, .F. ) ;
#119 = SURFACE_STYLE_USAGE ( .BOTH. , #53 ) ;
#120 = FACE_OUTER_BOUND ( 'NONE', #74, .T. ) ;
#121 = SURFACE_STYLE_USAGE ( .BOTH. , #28 ) ;
#122 = VERTEX_POINT ( 'NONE', #281 ) ;
#123 = DIRECTION ( 'NONE',  ( -0.000000000000000000, -1.000000000000000000, -0.000000000000000000 ) ) ;
#124 = FILL_AREA_STYLE ('',( #226 ) ) ;
#125 = CIRCLE ( 'NONE', #106, 0.2500000000000000000 ) ;
#126 =( NAMED_UNIT ( * ) PLANE_ANGLE_UNIT ( ) SI_UNIT ( $, .RADIAN. ) );
#127 = DIRECTION ( 'NONE',  ( 1.000000000000000000, 0.000000000000000000, 0.000000000000000000 ) ) ;
#128 = FILL_AREA_STYLE ('',( #77 ) ) ;
#129 =( GEOMETRIC_REPRESENTATION_CONTEXT ( 3 ) GLOBAL_UNCERTAINTY_ASSIGNED_CONTEXT ( ( #46 ) ) GLOBAL_UNIT_ASSIGNED_CONTEXT ( ( #100, #126, #178 ) ) REPRESENTATION_CONTEXT ( 'NONE', 'WORKASPACE' ) );
#130 = AXIS2_PLACEMENT_3D ( 'NONE', #166, #149, #228 ) ;
#131 = MECHANICAL_DESIGN_GEOMETRIC_PRESENTATION_REPRESENTATION (  '', ( #157 ), #254 ) ;
#132 =( CONVERSION_BASED_UNIT ( 'INCH', #279 ) LENGTH_UNIT ( ) NAMED_UNIT ( #247 ) );
#133 = CARTESIAN_POINT ( 'NONE',  ( -0.2500000000000000000, 1.250000000000000000, 0.000000000000000000 ) ) ;
#134 = APPLICATION_PROTOCOL_DEFINITION ( 'draft international standard', 'automotive_design', 1998, #63 ) ;
#135 = DIRECTION ( 'NONE',  ( -0.000000000000000000, -1.000000000000000000, -0.000000000000000000 ) ) ;
#136 = CARTESIAN_POINT ( 'NONE',  ( 0.000000000000000000, 0.000000000000000000, 0.000000000000000000 ) ) ;
#137 = CIRCLE ( 'NONE', #26, 0.2500000000000000000 ) ;
#138 = PRESENTATION_LAYER_ASSIGNMENT (  '', '', ( #157 ) ) ;
#139 = CARTESIAN_POINT ( 'NONE',  ( 0.2500000000000000555, 3.000000000000000444, 3.061616997868384251E-17 ) ) ;
#140 = DIRECTION ( 'NONE',  ( -6.997981709413449187E-17, 1.000000000000000000, -0.000000000000000000 ) ) ;
#141 = CARTESIAN_POINT ( 'NONE',  ( 0.000000000000000000, 1.250000000000000000, 0.000000000000000000 ) ) ;
#142 = ORIENTED_EDGE ( 'NONE', *, *, #82, .T. ) ;
#143 = DIRECTION ( 'NONE',  ( 0.000000000000000000, 0.000000000000000000, -1.000000000000000000 ) ) ;
#144 = CARTESIAN_POINT ( 'NONE',  ( 0.000000000000000000, 0.000000000000000000, -0.2500000000000000000 ) ) ;
#145 = VERTEX_POINT ( 'NONE', #263 ) ;
#146 = PRESENTATION_LAYER_ASSIGNMENT (  '', '', ( #210 ) ) ;
#147 = DIRECTION ( 'NONE',  ( 0.000000000000000000, 0.000000000000000000, -1.000000000000000000 ) ) ;
#148 = ORIENTED_EDGE ( 'NONE', *, *, #39, .F. ) ;
#149 = DIRECTION ( 'NONE',  ( -6.997981709413449187E-17, 1.000000000000000000, -0.000000000000000000 ) ) ;
#150 = VERTEX_POINT ( 'NONE', #133 ) ;
#151 = AXIS2_PLACEMENT_3D ( 'NONE', #70, #240, #171 ) ;
#152 = VERTEX_POINT ( 'NONE', #62 ) ;
#153 =( LENGTH_UNIT ( ) NAMED_UNIT ( * ) SI_UNIT ( $, .METRE. ) );
#154 = LINE ( 'NONE', #276, #80 ) ;
#155 = DIRECTION ( 'NONE',  ( -6.997981709413449187E-17, 1.000000000000000000, -0.000000000000000000 ) ) ;
#156 = AXIS2_PLACEMENT_3D ( 'NONE', #94, #116, #212 ) ;
#157 = STYLED_ITEM ( 'NONE', ( #198 ), #289 ) ;
#158 = DIRECTION ( 'NONE',  ( 1.000000000000000000, 6.997981709413449187E-17, 0.000000000000000000 ) ) ;
#159 =( CONVERSION_BASED_UNIT ( 'INCH', #81 ) LENGTH_UNIT ( ) NAMED_UNIT ( #184 ) );
#160 = PRODUCT_CONTEXT ( 'NONE', #63, 'mechanical' ) ;
#161 = LINE ( 'NONE', #187, #55 ) ;
#162 = ORIENTED_EDGE ( 'NONE', *, *, #165, .T. ) ;
#163 = PRESENTATION_LAYER_ASSIGNMENT (  '', '', ( #253 ) ) ;
#164 = FACE_OUTER_BOUND ( 'NONE', #284, .T. ) ;
#165 = EDGE_CURVE ( 'NONE', #172, #69, #181, .T. ) ;
#166 = CARTESIAN_POINT ( 'NONE',  ( -1.224646799147353700E-16, 3.000000000000000444, 0.000000000000000000 ) ) ;
#167 =( NAMED_UNIT ( * ) SI_UNIT ( $, .STERADIAN. ) SOLID_ANGLE_UNIT ( ) );
#168 = PRESENTATION_LAYER_ASSIGNMENT (  '', '', ( #305 ) ) ;
#169 = ORIENTED_EDGE ( 'NONE', *, *, #39, .T. ) ;
#170 = ADVANCED_FACE ( 'NONE', ( #204 ), #188, .F. ) ;
#171 = DIRECTION ( 'NONE',  ( -1.000000000000000000, 0.000000000000000000, 0.000000000000000000 ) ) ;
#172 = VERTEX_POINT ( 'NONE', #85 ) ;
#173 = DIRECTION ( 'NONE',  ( -0.000000000000000000, -1.000000000000000000, -0.000000000000000000 ) ) ;
#174 = EDGE_LOOP ( 'NONE', ( #87, #273 ) ) ;
#175 = DIRECTION ( 'NONE',  ( 0.000000000000000000, 0.000000000000000000, -1.000000000000000000 ) ) ;
#176 = PRESENTATION_LAYER_ASSIGNMENT (  '', '', ( #202 ) ) ;
#177 = SURFACE_STYLE_FILL_AREA ( #219 ) ;
#178 =( NAMED_UNIT ( * ) SI_UNIT ( $, .STERADIAN. ) SOLID_ANGLE_UNIT ( ) );
#179 = EDGE_CURVE ( 'NONE', #69, #152, #161, .T. ) ;
#180 = DIMENSIONAL_EXPONENTS ( 1.000000000000000000, 0.000000000000000000, 0.000000000000000000, 0.000000000000000000, 0.000000000000000000, 0.000000000000000000, 0.000000000000000000 ) ;
#181 = CIRCLE ( 'NONE', #224, 0.2500000000000000000 ) ;
#182 = PLANE ( 'NONE',  #20 ) ;
#183 =( LENGTH_UNIT ( ) NAMED_UNIT ( * ) SI_UNIT ( $, .METRE. ) );
#184 = DIMENSIONAL_EXPONENTS ( 1.000000000000000000, 0.000000000000000000, 0.000000000000000000, 0.000000000000000000, 0.000000000000000000, 0.000000000000000000, 0.000000000000000000 ) ;
#185 = APPLICATION_PROTOCOL_DEFINITION ( 'draft international standard', 'automotive_design', 1998, #103 ) ;
#186 = COLOUR_RGB ( '',1.000000000000000000, 0.000000000000000000, 0.000000000000000000 ) ;
#187 = CARTESIAN_POINT ( 'NONE',  ( 3.061616997868383018E-17, 0.000000000000000000, 0.2500000000000000000 ) ) ;
#188 = PLANE ( 'NONE',  #291 ) ;
#189 = UNCERTAINTY_MEASURE_WITH_UNIT (LENGTH_MEASURE( 1.000000000000000082E-05 ), #211, 'distance_accuracy_value', 'NONE');
#190 = DIRECTION ( 'NONE',  ( -1.000000000000000000, 0.000000000000000000, 0.000000000000000000 ) ) ;
#191 = CARTESIAN_POINT ( 'NONE',  ( 0.000000000000000000, 0.000000000000000000, 0.000000000000000000 ) ) ;
#192 = SURFACE_STYLE_USAGE ( .BOTH. , #215 ) ;
#193 = FILL_AREA_STYLE ('',( #92 ) ) ;
#194 = VERTEX_POINT ( 'NONE', #139 ) ;
#195 = MECHANICAL_DESIGN_GEOMETRIC_PRESENTATION_REPRESENTATION (  '', ( #205 ), #271 ) ;
#196 = DIMENSIONAL_EXPONENTS ( 1.000000000000000000, 0.000000000000000000, 0.000000000000000000, 0.000000000000000000, 0.000000000000000000, 0.000000000000000000, 0.000000000000000000 ) ;
#197 =( NAMED_UNIT ( * ) SI_UNIT ( $, .STERADIAN. ) SOLID_ANGLE_UNIT ( ) );
#198 = PRESENTATION_STYLE_ASSIGNMENT (( #274 ) ) ;
#199 = CLOSED_SHELL ( 'NONE', ( #60, #16, #201, #230 ) ) ;
#200 =( LENGTH_UNIT ( ) NAMED_UNIT ( * ) SI_UNIT ( $, .METRE. ) );
#201 = ADVANCED_FACE ( 'NONE', ( #234 ), #117, .T. ) ;
#202 = STYLED_ITEM ( 'NONE', ( #272 ), #286 ) ;
#203 =( NAMED_UNIT ( * ) SI_UNIT ( $, .STERADIAN. ) SOLID_ANGLE_UNIT ( ) );
#204 = FACE_OUTER_BOUND ( 'NONE', #52, .T. ) ;
#205 = STYLED_ITEM ( 'NONE', ( #9 ), #230 ) ;
#206 = DIRECTION ( 'NONE',  ( 0.000000000000000000, 0.000000000000000000, -1.000000000000000000 ) ) ;
#207 =( NAMED_UNIT ( * ) PLANE_ANGLE_UNIT ( ) SI_UNIT ( $, .RADIAN. ) );
#208 = SURFACE_STYLE_USAGE ( .BOTH. , #44 ) ;
#209 = ORIENTED_EDGE ( 'NONE', *, *, #255, .T. ) ;
#210 = STYLED_ITEM ( 'NONE', ( #10 ), #16 ) ;
#211 =( CONVERSION_BASED_UNIT ( 'INCH', #238 ) LENGTH_UNIT ( ) NAMED_UNIT ( #256 ) );
#212 = DIRECTION ( 'NONE',  ( 0.000000000000000000, -0.000000000000000000, 1.000000000000000000 ) ) ;
#213 = DIRECTION ( 'NONE',  ( 0.000000000000000000, -1.000000000000000000, -0.000000000000000000 ) ) ;
#214 = EDGE_CURVE ( 'NONE', #69, #172, #101, .T. ) ;
#215 = SURFACE_SIDE_STYLE ('',( #177 ) ) ;
#216 = FACE_OUTER_BOUND ( 'NONE', #174, .T. ) ;
#217 = FACE_OUTER_BOUND ( 'NONE', #29, .T. ) ;
#218 =( CONVERSION_BASED_UNIT ( 'INCH', #1 ) LENGTH_UNIT ( ) NAMED_UNIT ( #225 ) );
#219 = FILL_AREA_STYLE ('',( #67 ) ) ;
#220 = EDGE_CURVE ( 'NONE', #172, #145, #72, .T. ) ;
#221 = LINE ( 'NONE', #223, #84 ) ;
#222 = UNCERTAINTY_MEASURE_WITH_UNIT (LENGTH_MEASURE( 1.000000000000000082E-05 ), #132, 'distance_accuracy_value', 'NONE');
#223 = CARTESIAN_POINT ( 'NONE',  ( -0.2500000000000002220, 3.000000000000000444, 0.000000000000000000 ) ) ;
#224 = AXIS2_PLACEMENT_3D ( 'NONE', #141, #257, #236 ) ;
#225 = DIMENSIONAL_EXPONENTS ( 1.000000000000000000, 0.000000000000000000, 0.000000000000000000, 0.000000000000000000, 0.000000000000000000, 0.000000000000000000, 0.000000000000000000 ) ;
#226 = FILL_AREA_STYLE_COLOUR ( '', #270 ) ;
#227 =( LENGTH_UNIT ( ) NAMED_UNIT ( * ) SI_UNIT ( $, .METRE. ) );
#228 = DIRECTION ( 'NONE',  ( -1.000000000000000000, 0.000000000000000000, 0.000000000000000000 ) ) ;
#229 = DIRECTION ( 'NONE',  ( 0.000000000000000000, 0.000000000000000000, 1.000000000000000000 ) ) ;
#230 = ADVANCED_FACE ( 'NONE', ( #216 ), #90, .T. ) ;
#231 = LENGTH_MEASURE_WITH_UNIT ( LENGTH_MEASURE( 0.02539999999999999897 ), #37 );
#232 = DIRECTION ( 'NONE',  ( -6.997981709413449187E-17, 1.000000000000000000, -0.000000000000000000 ) ) ;
#233 = CIRCLE ( 'NONE', #130, 0.2500000000000001110 ) ;
#234 = FACE_OUTER_BOUND ( 'NONE', #3, .T. ) ;
#235 = DIMENSIONAL_EXPONENTS ( 1.000000000000000000, 0.000000000000000000, 0.000000000000000000, 0.000000000000000000, 0.000000000000000000, 0.000000000000000000, 0.000000000000000000 ) ;
#236 = DIRECTION ( 'NONE',  ( 0.000000000000000000, 0.000000000000000000, -1.000000000000000000 ) ) ;
#237 = FILL_AREA_STYLE_COLOUR ( '', #186 ) ;
#238 = LENGTH_MEASURE_WITH_UNIT ( LENGTH_MEASURE( 0.02539999999999999897 ), #19 );
#239 = EDGE_CURVE ( 'NONE', #150, #50, #285, .T. ) ;
#240 = DIRECTION ( 'NONE',  ( -6.997981709413449187E-17, 1.000000000000000000, -0.000000000000000000 ) ) ;
#241 = DIRECTION ( 'NONE',  ( -6.997981709413449187E-17, 1.000000000000000000, -0.000000000000000000 ) ) ;
#242 = PRODUCT_DEFINITION_SHAPE ( 'NONE', 'NONE',  #86 ) ;
#243 = ORIENTED_EDGE ( 'NONE', *, *, #293, .T. ) ;
#244 = FACE_OUTER_BOUND ( 'NONE', #95, .T. ) ;
#245 = CARTESIAN_POINT ( 'NONE',  ( -1.224646799147353700E-16, 3.000000000000000444, 0.000000000000000000 ) ) ;
#246 = CARTESIAN_POINT ( 'NONE',  ( 0.2500000000000000000, 3.000000000000000444, 0.000000000000000000 ) ) ;
#247 = DIMENSIONAL_EXPONENTS ( 1.000000000000000000, 0.000000000000000000, 0.000000000000000000, 0.000000000000000000, 0.000000000000000000, 0.000000000000000000, 0.000000000000000000 ) ;
#248 = AXIS2_PLACEMENT_3D ( 'NONE', #109, #232, #190 ) ;
#249 = DIRECTION ( 'NONE',  ( -1.000000000000000000, 0.000000000000000000, 0.000000000000000000 ) ) ;
#250 = DIRECTION ( 'NONE',  ( -6.997981709413449187E-17, 1.000000000000000000, -0.000000000000000000 ) ) ;
#251 = SURFACE_STYLE_FILL_AREA ( #128 ) ;
#252 = FILL_AREA_STYLE_COLOUR ( '', #11 ) ;
#253 = STYLED_ITEM ( 'NONE', ( #96 ), #201 ) ;
#254 =( GEOMETRIC_REPRESENTATION_CONTEXT ( 3 ) GLOBAL_UNCERTAINTY_ASSIGNED_CONTEXT ( ( #79 ) ) GLOBAL_UNIT_ASSIGNED_CONTEXT ( ( #159, #57, #303 ) ) REPRESENTATION_CONTEXT ( 'NONE', 'WORKASPACE' ) );
#255 = EDGE_CURVE ( 'NONE', #194, #122, #233, .T. ) ;
#256 = DIMENSIONAL_EXPONENTS ( 1.000000000000000000, 0.000000000000000000, 0.000000000000000000, 0.000000000000000000, 0.000000000000000000, 0.000000000000000000, 0.000000000000000000 ) ;
#257 = DIRECTION ( 'NONE',  ( -0.000000000000000000, -1.000000000000000000, -0.000000000000000000 ) ) ;
#258 = MECHANICAL_DESIGN_GEOMETRIC_PRESENTATION_REPRESENTATION (  '', ( #210 ), #36 ) ;
#259 = ADVANCED_FACE ( 'NONE', ( #244 ), #182, .F. ) ;
#260 = CARTESIAN_POINT ( 'NONE',  ( 0.2500000000000000555, 1.250000000000000000, 3.061616997868384251E-17 ) ) ;
#261 = EDGE_LOOP ( 'NONE', ( #162, #71, #288, #43 ) ) ;
#262 = COLOUR_RGB ( '',0.7921568627450980005, 0.8196078431372548767, 0.9333333333333333481 ) ;
#263 = CARTESIAN_POINT ( 'NONE',  ( 0.000000000000000000, 0.000000000000000000, -0.2500000000000000000 ) ) ;
#264 = DIRECTION ( 'NONE',  ( -0.000000000000000000, -1.000000000000000000, -0.000000000000000000 ) ) ;
#265 = EDGE_CURVE ( 'NONE', #145, #152, #137, .T. ) ;
#266 = FILL_AREA_STYLE ('',( #237 ) ) ;
#267 = ORIENTED_EDGE ( 'NONE', *, *, #275, .F. ) ;
#268 = ORIENTED_EDGE ( 'NONE', *, *, #220, .T. ) ;
#269 = ORIENTED_EDGE ( 'NONE', *, *, #214, .T. ) ;
#270 = COLOUR_RGB ( '',0.7921568627450980005, 0.8196078431372548767, 0.9333333333333333481 ) ;
#271 =( GEOMETRIC_REPRESENTATION_CONTEXT ( 3 ) GLOBAL_UNCERTAINTY_ASSIGNED_CONTEXT ( ( #189 ) ) GLOBAL_UNIT_ASSIGNED_CONTEXT ( ( #211, #51, #113 ) ) REPRESENTATION_CONTEXT ( 'NONE', 'WORKASPACE' ) );
#272 = PRESENTATION_STYLE_ASSIGNMENT (( #31 ) ) ;
#273 = ORIENTED_EDGE ( 'NONE', *, *, #298, .T. ) ;
#274 = SURFACE_STYLE_USAGE ( .BOTH. , #35 ) ;
#275 = EDGE_CURVE ( 'NONE', #50, #194, #154, .T. ) ;
#276 = CARTESIAN_POINT ( 'NONE',  ( 0.2499999999999999167, 3.000000000000000444, 3.061616997868383634E-17 ) ) ;
#277 = AXIS2_PLACEMENT_3D ( 'NONE', #294, #173, #47 ) ;
#278 = SURFACE_STYLE_FILL_AREA ( #124 ) ;
#279 = LENGTH_MEASURE_WITH_UNIT ( LENGTH_MEASURE( 0.02539999999999999897 ), #183 );
#280 = MECHANICAL_DESIGN_GEOMETRIC_PRESENTATION_REPRESENTATION (  '', ( #202 ), #129 ) ;
#281 = CARTESIAN_POINT ( 'NONE',  ( -0.2500000000000002776, 3.000000000000000444, 0.000000000000000000 ) ) ;
#282 = DIRECTION ( 'NONE',  ( -1.000000000000000000, -6.997981709413449187E-17, 0.000000000000000000 ) ) ;
#283 = COLOUR_RGB ( '',1.000000000000000000, 0.000000000000000000, 0.000000000000000000 ) ;
#284 = EDGE_LOOP ( 'NONE', ( #308, #290, #91, #297 ) ) ;
#285 = CIRCLE ( 'NONE', #151, 0.2500000000000000000 ) ;
#286 = MANIFOLD_SOLID_BREP ( 'Revolve - Cutting Edge', #199 ) ;
#287 = CARTESIAN_POINT ( 'NONE',  ( 0.000000000000000000, 1.250000000000000000, 0.000000000000000000 ) ) ;
#288 = ORIENTED_EDGE ( 'NONE', *, *, #265, .F. ) ;
#289 = MANIFOLD_SOLID_BREP ( 'Revolve - Tool Body (Straight Shanked)', #76 ) ;
#290 = ORIENTED_EDGE ( 'NONE', *, *, #275, .T. ) ;
#291 = AXIS2_PLACEMENT_3D ( 'NONE', #38, #18, #282 ) ;
#292 = DIRECTION ( 'NONE',  ( -1.000000000000000000, 0.000000000000000000, 0.000000000000000000 ) ) ;
#293 = EDGE_CURVE ( 'NONE', #150, #122, #221, .T. ) ;
#294 = CARTESIAN_POINT ( 'NONE',  ( 0.000000000000000000, 0.000000000000000000, 0.000000000000000000 ) ) ;
#295 = ORIENTED_EDGE ( 'NONE', *, *, #255, .F. ) ;
#296 =( NAMED_UNIT ( * ) PLANE_ANGLE_UNIT ( ) SI_UNIT ( $, .RADIAN. ) );
#297 = ORIENTED_EDGE ( 'NONE', *, *, #293, .F. ) ;
#298 = EDGE_CURVE ( 'NONE', #152, #145, #75, .T. ) ;
#299 = CARTESIAN_POINT ( 'NONE',  ( 0.000000000000000000, 0.000000000000000000, 0.000000000000000000 ) ) ;
#300 = UNCERTAINTY_MEASURE_WITH_UNIT (LENGTH_MEASURE( 1.000000000000000082E-05 ), #218, 'distance_accuracy_value', 'NONE');
#301 = CARTESIAN_POINT ( 'NONE',  ( 0.000000000000000000, 1.250000000000000000, 0.000000000000000000 ) ) ;
#302 = SHAPE_DEFINITION_REPRESENTATION ( #242, #78 ) ;
#303 =( NAMED_UNIT ( * ) SI_UNIT ( $, .STERADIAN. ) SOLID_ANGLE_UNIT ( ) );
#304 = DIRECTION ( 'NONE',  ( -6.997981709413449187E-17, 1.000000000000000000, -0.000000000000000000 ) ) ;
#305 = STYLED_ITEM ( 'NONE', ( #111 ), #60 ) ;
#306 = CARTESIAN_POINT ( 'NONE',  ( -1.224646799147353700E-16, 3.000000000000000444, 0.000000000000000000 ) ) ;
#307 = FACE_OUTER_BOUND ( 'NONE', #261, .T. ) ;
#308 = ORIENTED_EDGE ( 'NONE', *, *, #239, .T. ) ;
#309 =( NAMED_UNIT ( * ) PLANE_ANGLE_UNIT ( ) SI_UNIT ( $, .RADIAN. ) );
ENDSEC;
END-ISO-10303-21;
