ISO-10303-21;
HEADER;
FILE_DESCRIPTION (( 'STEP AP214' ),
    '1' );
FILE_NAME ('12122.STEP',
    '2023-06-30T21:50:57',
    ( '' ),
    ( '' ),
    'SwSTEP 2.0',
    'SolidWorks 2023',
    '' );
FILE_SCHEMA (( 'AUTOMOTIVE_DESIGN' ));
ENDSEC;

DATA;
#1 = CARTESIAN_POINT ( 'NONE',  ( 0.000000000000000000, 0.1250000000000000278, 0.000000000000000000 ) ) ;
#2 =( LENGTH_UNIT ( ) NAMED_UNIT ( * ) SI_UNIT ( $, .METRE. ) );
#3 = APPLICATION_CONTEXT ( 'automotive_design' ) ;
#4 = CIRCLE ( 'NONE', #147, 0.1250000000000000000 ) ;
#5 = DIRECTION ( 'NONE',  ( -1.000000000000000000, 0.000000000000000000, 0.000000000000000000 ) ) ;
#6 =( CONVERSION_BASED_UNIT ( 'INCH', #88 ) LENGTH_UNIT ( ) NAMED_UNIT ( #98 ) );
#7 = DIRECTION ( 'NONE',  ( -0.000000000000000000, -1.000000000000000000, -0.000000000000000000 ) ) ;
#8 = DIRECTION ( 'NONE',  ( 0.000000000000000000, 0.000000000000000000, -1.000000000000000000 ) ) ;
#9 =( GEOMETRIC_REPRESENTATION_CONTEXT ( 3 ) GLOBAL_UNCERTAINTY_ASSIGNED_CONTEXT ( ( #318 ) ) GLOBAL_UNIT_ASSIGNED_CONTEXT ( ( #337, #102, #333 ) ) REPRESENTATION_CONTEXT ( 'NONE', 'WORKASPACE' ) );
#10 = FILL_AREA_STYLE ('',( #181 ) ) ;
#11 = CARTESIAN_POINT ( 'NONE',  ( -0.1249999999999994726, 0.7499999999999998890, 0.000000000000000000 ) ) ;
#12 = EDGE_CURVE ( 'NONE', #313, #340, #198, .T. ) ;
#13 = FILL_AREA_STYLE_COLOUR ( '', #52 ) ;
#14 = CIRCLE ( 'NONE', #271, 0.1250000000000000000 ) ;
#15 = DIRECTION ( 'NONE',  ( -1.000000000000000000, 0.000000000000000000, 0.000000000000000000 ) ) ;
#16 = FILL_AREA_STYLE ('',( #13 ) ) ;
#17 = EDGE_LOOP ( 'NONE', ( #138, #137, #20, #279, #338 ) ) ;
#18 = STYLED_ITEM ( 'NONE', ( #116 ), #314 ) ;
#19 = SPHERICAL_SURFACE ( 'NONE', #334, 0.1250000000000000000 ) ;
#20 = ORIENTED_EDGE ( 'NONE', *, *, #330, .F. ) ;
#21 = PRESENTATION_STYLE_ASSIGNMENT (( #140 ) ) ;
#22 = ORIENTED_EDGE ( 'NONE', *, *, #344, .T. ) ;
#23 = AXIS2_PLACEMENT_3D ( 'NONE', #155, #134, #226 ) ;
#24 = FACE_OUTER_BOUND ( 'NONE', #171, .T. ) ;
#25 = EDGE_CURVE ( 'NONE', #164, #235, #113, .T. ) ;
#26 = CARTESIAN_POINT ( 'NONE',  ( 0.000000000000000000, 0.1250000000000000278, 0.000000000000000000 ) ) ;
#27 =( GEOMETRIC_REPRESENTATION_CONTEXT ( 3 ) GLOBAL_UNCERTAINTY_ASSIGNED_CONTEXT ( ( #261 ) ) GLOBAL_UNIT_ASSIGNED_CONTEXT ( ( #325, #130, #246 ) ) REPRESENTATION_CONTEXT ( 'NONE', 'WORKASPACE' ) );
#28 = CARTESIAN_POINT ( 'NONE',  ( -6.123233995736766036E-17, 2.500000000000000000, 0.000000000000000000 ) ) ;
#29 =( NAMED_UNIT ( * ) SI_UNIT ( $, .STERADIAN. ) SOLID_ANGLE_UNIT ( ) );
#30 = CIRCLE ( 'NONE', #360, 0.1250000000000000000 ) ;
#31 = DIRECTION ( 'NONE',  ( -1.000000000000000000, 0.000000000000000000, 0.000000000000000000 ) ) ;
#32 = SURFACE_STYLE_USAGE ( .BOTH. , #242 ) ;
#33 = DIRECTION ( 'NONE',  ( -1.574545884618025482E-16, 1.000000000000000000, -0.000000000000000000 ) ) ;
#34 = CARTESIAN_POINT ( 'NONE',  ( 0.000000000000000000, 0.000000000000000000, -0.1249999999999999445 ) ) ;
#35 =( GEOMETRIC_REPRESENTATION_CONTEXT ( 3 ) GLOBAL_UNCERTAINTY_ASSIGNED_CONTEXT ( ( #61 ) ) GLOBAL_UNIT_ASSIGNED_CONTEXT ( ( #332, #166, #280 ) ) REPRESENTATION_CONTEXT ( 'NONE', 'WORKASPACE' ) );
#36 = CARTESIAN_POINT ( 'NONE',  ( 1.530808498934190893E-17, 0.000000000000000000, 0.1249999999999999445 ) ) ;
#37 = DIRECTION ( 'NONE',  ( 1.000000000000000000, 0.000000000000000000, 0.000000000000000000 ) ) ;
#38 = LINE ( 'NONE', #361, #357 ) ;
#39 = EDGE_CURVE ( 'NONE', #235, #313, #56, .T. ) ;
#40 = APPLICATION_PROTOCOL_DEFINITION ( 'draft international standard', 'automotive_design', 1998, #3 ) ;
#41 = DIRECTION ( 'NONE',  ( -0.000000000000000000, -1.000000000000000000, -0.000000000000000000 ) ) ;
#42 =( NAMED_UNIT ( * ) SI_UNIT ( $, .STERADIAN. ) SOLID_ANGLE_UNIT ( ) );
#43 = FACE_OUTER_BOUND ( 'NONE', #367, .T. ) ;
#44 = DIRECTION ( 'NONE',  ( 1.000000000000000000, 0.000000000000000000, 0.000000000000000000 ) ) ;
#45 = ORIENTED_EDGE ( 'NONE', *, *, #359, .T. ) ;
#46 = CARTESIAN_POINT ( 'NONE',  ( 0.000000000000000000, 0.7500000000000001110, 0.000000000000000000 ) ) ;
#47 = VERTEX_POINT ( 'NONE', #294 ) ;
#48 = CIRCLE ( 'NONE', #128, 0.1249999999999999029 ) ;
#49 = ADVANCED_FACE ( 'NONE', ( #152 ), #212, .F. ) ;
#50 = VERTEX_POINT ( 'NONE', #11 ) ;
#51 = ORIENTED_EDGE ( 'NONE', *, *, #25, .F. ) ;
#52 = COLOUR_RGB ( '',1.000000000000000000, 0.000000000000000000, 0.000000000000000000 ) ;
#53 = EDGE_CURVE ( 'NONE', #277, #168, #92, .T. ) ;
#54 = SURFACE_STYLE_USAGE ( .BOTH. , #312 ) ;
#55 = EDGE_LOOP ( 'NONE', ( #78, #45, #258, #373 ) ) ;
#56 = CIRCLE ( 'NONE', #141, 0.1250000000000000000 ) ;
#57 = CARTESIAN_POINT ( 'NONE',  ( 0.000000000000000000, 0.000000000000000000, 0.000000000000000000 ) ) ;
#58 = AXIS2_PLACEMENT_3D ( 'NONE', #57, #111, #118 ) ;
#59 = LENGTH_MEASURE_WITH_UNIT ( LENGTH_MEASURE( 0.02539999999999999897 ), #320 );
#60 = PRODUCT_DEFINITION ( 'UNKNOWN', '', #93, #348 ) ;
#61 = UNCERTAINTY_MEASURE_WITH_UNIT (LENGTH_MEASURE( 1.000000000000000082E-05 ), #332, 'distance_accuracy_value', 'NONE');
#62 = COLOUR_RGB ( '',1.000000000000000000, 0.000000000000000000, 0.000000000000000000 ) ;
#63 =( NAMED_UNIT ( * ) PLANE_ANGLE_UNIT ( ) SI_UNIT ( $, .RADIAN. ) );
#64 = CARTESIAN_POINT ( 'NONE',  ( -6.123233995736766036E-17, 2.500000000000000000, 0.000000000000000000 ) ) ;
#65 = DIRECTION ( 'NONE',  ( 1.224646799147353207E-16, -0.000000000000000000, 1.000000000000000000 ) ) ;
#66 = CARTESIAN_POINT ( 'NONE',  ( 2.143131898507868297E-16, 0.7500000000000001110, 0.000000000000000000 ) ) ;
#67 = PRESENTATION_LAYER_ASSIGNMENT (  '', '', ( #221 ) ) ;
#68 = CIRCLE ( 'NONE', #290, 0.1250000000000000000 ) ;
#69 = CARTESIAN_POINT ( 'NONE',  ( -7.654042494670957545E-18, 0.000000000000000000, 0.000000000000000000 ) ) ;
#70 = CARTESIAN_POINT ( 'NONE',  ( 2.143131898507868297E-16, 0.7499999999999998890, 0.000000000000000000 ) ) ;
#71 = CARTESIAN_POINT ( 'NONE',  ( 1.530808498934190585E-17, 0.7500000000000001110, 0.1249999999999999029 ) ) ;
#72 = CARTESIAN_POINT ( 'NONE',  ( -1.530808498934191509E-17, 0.1250000000000000000, 0.000000000000000000 ) ) ;
#73 =( GEOMETRIC_REPRESENTATION_CONTEXT ( 3 ) GLOBAL_UNCERTAINTY_ASSIGNED_CONTEXT ( ( #117 ) ) GLOBAL_UNIT_ASSIGNED_CONTEXT ( ( #173, #372, #352 ) ) REPRESENTATION_CONTEXT ( 'NONE', 'WORKASPACE' ) );
#74 = APPLICATION_PROTOCOL_DEFINITION ( 'draft international standard', 'automotive_design', 1998, #358 ) ;
#75 =( LENGTH_UNIT ( ) NAMED_UNIT ( * ) SI_UNIT ( $, .METRE. ) );
#76 = MANIFOLD_SOLID_BREP ( 'Revolve - Cutting Edge', #158 ) ;
#77 = DIRECTION ( 'NONE',  ( 0.000000000000000000, -0.000000000000000000, 1.000000000000000000 ) ) ;
#78 = ORIENTED_EDGE ( 'NONE', *, *, #39, .T. ) ;
#79 = LENGTH_MEASURE_WITH_UNIT ( LENGTH_MEASURE( 0.02539999999999999897 ), #230 );
#80 = EDGE_LOOP ( 'NONE', ( #233, #201, #85, #167 ) ) ;
#81 = PRESENTATION_LAYER_ASSIGNMENT (  '', '', ( #18 ) ) ;
#82 = ORIENTED_EDGE ( 'NONE', *, *, #129, .F. ) ;
#83 = FILL_AREA_STYLE ('',( #109 ) ) ;
#84 = MECHANICAL_DESIGN_GEOMETRIC_PRESENTATION_REPRESENTATION (  '', ( #349 ), #27 ) ;
#85 = ORIENTED_EDGE ( 'NONE', *, *, #91, .T. ) ;
#86 = SURFACE_STYLE_USAGE ( .BOTH. , #284 ) ;
#87 = DIRECTION ( 'NONE',  ( -0.000000000000000000, -1.000000000000000000, -0.000000000000000000 ) ) ;
#88 = LENGTH_MEASURE_WITH_UNIT ( LENGTH_MEASURE( 0.02539999999999999897 ), #2 );
#89 = EDGE_CURVE ( 'NONE', #164, #110, #336, .T. ) ;
#90 = PRESENTATION_STYLE_ASSIGNMENT (( #347 ) ) ;
#91 = EDGE_CURVE ( 'NONE', #340, #47, #192, .T. ) ;
#92 = CIRCLE ( 'NONE', #107, 0.1250000000000000000 ) ;
#93 = PRODUCT_DEFINITION_FORMATION_WITH_SPECIFIED_SOURCE ( 'ANY', '', #315, .NOT_KNOWN. ) ;
#94 = LENGTH_MEASURE_WITH_UNIT ( LENGTH_MEASURE( 0.02539999999999999897 ), #75 );
#95 = DIMENSIONAL_EXPONENTS ( 1.000000000000000000, 0.000000000000000000, 0.000000000000000000, 0.000000000000000000, 0.000000000000000000, 0.000000000000000000, 0.000000000000000000 ) ;
#96 = CYLINDRICAL_SURFACE ( 'NONE', #120, 0.1249999999999998335 ) ;
#97 = CIRCLE ( 'NONE', #23, 0.1249999999999996947 ) ;
#98 = DIMENSIONAL_EXPONENTS ( 1.000000000000000000, 0.000000000000000000, 0.000000000000000000, 0.000000000000000000, 0.000000000000000000, 0.000000000000000000, 0.000000000000000000 ) ;
#99 = SURFACE_STYLE_FILL_AREA ( #232 ) ;
#100 = AXIS2_PLACEMENT_3D ( 'NONE', #26, #87, #143 ) ;
#101 = ADVANCED_FACE ( 'NONE', ( #264 ), #296, .T. ) ;
#102 =( NAMED_UNIT ( * ) PLANE_ANGLE_UNIT ( ) SI_UNIT ( $, .RADIAN. ) );
#103 = ORIENTED_EDGE ( 'NONE', *, *, #202, .F. ) ;
#104 = COLOUR_RGB ( '',1.000000000000000000, 0.000000000000000000, 0.000000000000000000 ) ;
#105 = ORIENTED_EDGE ( 'NONE', *, *, #39, .F. ) ;
#106 = FACE_OUTER_BOUND ( 'NONE', #80, .T. ) ;
#107 = AXIS2_PLACEMENT_3D ( 'NONE', #64, #178, #291 ) ;
#108 = ORIENTED_EDGE ( 'NONE', *, *, #368, .T. ) ;
#109 = FILL_AREA_STYLE_COLOUR ( '', #104 ) ;
#110 = VERTEX_POINT ( 'NONE', #322 ) ;
#111 = DIRECTION ( 'NONE',  ( -0.000000000000000000, -1.000000000000000000, -0.000000000000000000 ) ) ;
#112 = ORIENTED_EDGE ( 'NONE', *, *, #363, .F. ) ;
#113 = LINE ( 'NONE', #36, #122 ) ;
#114 = MECHANICAL_DESIGN_GEOMETRIC_PRESENTATION_REPRESENTATION (  '', ( #18 ), #236 ) ;
#115 = ADVANCED_FACE ( 'NONE', ( #287 ), #346, .T. ) ;
#116 = PRESENTATION_STYLE_ASSIGNMENT (( #86 ) ) ;
#117 = UNCERTAINTY_MEASURE_WITH_UNIT (LENGTH_MEASURE( 1.000000000000000082E-05 ), #173, 'distance_accuracy_value', 'NONE');
#118 = DIRECTION ( 'NONE',  ( 0.000000000000000000, 0.000000000000000000, -1.000000000000000000 ) ) ;
#119 = DIRECTION ( 'NONE',  ( -0.000000000000000000, -1.000000000000000000, -0.000000000000000000 ) ) ;
#120 = AXIS2_PLACEMENT_3D ( 'NONE', #327, #274, #15 ) ;
#121 = CARTESIAN_POINT ( 'NONE',  ( 0.000000000000000000, 0.7500000000000001110, 0.000000000000000000 ) ) ;
#122 = VECTOR ( 'NONE', #119, 39.37007874015748143 ) ;
#123 = CARTESIAN_POINT ( 'NONE',  ( 0.000000000000000000, 0.1250000000000000278, 0.000000000000000000 ) ) ;
#124 = DIRECTION ( 'NONE',  ( 0.000000000000000000, 0.000000000000000000, 1.000000000000000000 ) ) ;
#125 = MECHANICAL_DESIGN_GEOMETRIC_PRESENTATION_REPRESENTATION (  '', ( #170 ), #9 ) ;
#126 =( CONVERSION_BASED_UNIT ( 'INCH', #94 ) LENGTH_UNIT ( ) NAMED_UNIT ( #95 ) );
#127 =( GEOMETRIC_REPRESENTATION_CONTEXT ( 3 ) GLOBAL_UNCERTAINTY_ASSIGNED_CONTEXT ( ( #240 ) ) GLOBAL_UNIT_ASSIGNED_CONTEXT ( ( #6, #245, #29 ) ) REPRESENTATION_CONTEXT ( 'NONE', 'WORKASPACE' ) );
#128 = AXIS2_PLACEMENT_3D ( 'NONE', #121, #217, #182 ) ;
#129 = EDGE_CURVE ( 'NONE', #50, #335, #97, .T. ) ;
#130 =( NAMED_UNIT ( * ) PLANE_ANGLE_UNIT ( ) SI_UNIT ( $, .RADIAN. ) );
#131 = DIMENSIONAL_EXPONENTS ( 1.000000000000000000, 0.000000000000000000, 0.000000000000000000, 0.000000000000000000, 0.000000000000000000, 0.000000000000000000, 0.000000000000000000 ) ;
#132 = CARTESIAN_POINT ( 'NONE',  ( 0.1249999999999999306, 2.500000000000000000, 0.000000000000000000 ) ) ;
#133 = DIMENSIONAL_EXPONENTS ( 1.000000000000000000, 0.000000000000000000, 0.000000000000000000, 0.000000000000000000, 0.000000000000000000, 0.000000000000000000, 0.000000000000000000 ) ;
#134 = DIRECTION ( 'NONE',  ( -1.574545884618025482E-16, 1.000000000000000000, -0.000000000000000000 ) ) ;
#135 = PRESENTATION_LAYER_ASSIGNMENT (  '', '', ( #350 ) ) ;
#136 = VECTOR ( 'NONE', #259, 39.37007874015748143 ) ;
#137 = ORIENTED_EDGE ( 'NONE', *, *, #25, .T. ) ;
#138 = ORIENTED_EDGE ( 'NONE', *, *, #363, .T. ) ;
#139 = EDGE_LOOP ( 'NONE', ( #255, #371 ) ) ;
#140 = SURFACE_STYLE_USAGE ( .BOTH. , #142 ) ;
#141 = AXIS2_PLACEMENT_3D ( 'NONE', #123, #7, #174 ) ;
#142 = SURFACE_SIDE_STYLE ('',( #99 ) ) ;
#143 = DIRECTION ( 'NONE',  ( 0.000000000000000000, 0.000000000000000000, -1.000000000000000000 ) ) ;
#144 = DIRECTION ( 'NONE',  ( -1.574545884618025482E-16, 1.000000000000000000, -0.000000000000000000 ) ) ;
#145 = DIRECTION ( 'NONE',  ( -1.000000000000000000, -1.574545884618025482E-16, 0.000000000000000000 ) ) ;
#146 = COLOUR_RGB ( '',0.7921568627450980005, 0.8196078431372548767, 0.9333333333333333481 ) ;
#147 = AXIS2_PLACEMENT_3D ( 'NONE', #1, #345, #148 ) ;
#148 = DIRECTION ( 'NONE',  ( 0.000000000000000000, 0.000000000000000000, -1.000000000000000000 ) ) ;
#149 = DIRECTION ( 'NONE',  ( -0.000000000000000000, -1.000000000000000000, -0.000000000000000000 ) ) ;
#150 = UNCERTAINTY_MEASURE_WITH_UNIT (LENGTH_MEASURE( 1.000000000000000082E-05 ), #209, 'distance_accuracy_value', 'NONE');
#151 = CARTESIAN_POINT ( 'NONE',  ( -1.530808498934191509E-17, 0.1250000000000000000, 0.000000000000000000 ) ) ;
#152 = FACE_OUTER_BOUND ( 'NONE', #231, .T. ) ;
#153 = STYLED_ITEM ( 'NONE', ( #365 ), #241 ) ;
#154 = SURFACE_SIDE_STYLE ('',( #239 ) ) ;
#155 = CARTESIAN_POINT ( 'NONE',  ( 2.143131898507868297E-16, 0.7499999999999998890, 0.000000000000000000 ) ) ;
#156 = COLOUR_RGB ( '',1.000000000000000000, 0.000000000000000000, 0.000000000000000000 ) ;
#157 = PLANE ( 'NONE',  #311 ) ;
#158 = CLOSED_SHELL ( 'NONE', ( #187, #115, #241, #273, #262 ) ) ;
#159 =( NAMED_UNIT ( * ) SI_UNIT ( $, .STERADIAN. ) SOLID_ANGLE_UNIT ( ) );
#160 = DIMENSIONAL_EXPONENTS ( 1.000000000000000000, 0.000000000000000000, 0.000000000000000000, 0.000000000000000000, 0.000000000000000000, 0.000000000000000000, 0.000000000000000000 ) ;
#161 = FACE_OUTER_BOUND ( 'NONE', #204, .T. ) ;
#162 = EDGE_CURVE ( 'NONE', #50, #168, #38, .T. ) ;
#163 =( LENGTH_UNIT ( ) NAMED_UNIT ( * ) SI_UNIT ( $, .METRE. ) );
#164 = VERTEX_POINT ( 'NONE', #71 ) ;
#165 = AXIS2_PLACEMENT_3D ( 'NONE', #324, #149, #351 ) ;
#166 =( NAMED_UNIT ( * ) PLANE_ANGLE_UNIT ( ) SI_UNIT ( $, .RADIAN. ) );
#167 = ORIENTED_EDGE ( 'NONE', *, *, #278, .T. ) ;
#168 = VERTEX_POINT ( 'NONE', #269 ) ;
#169 = CARTESIAN_POINT ( 'NONE',  ( -1.530808498934191509E-17, 0.1250000000000000000, 0.000000000000000000 ) ) ;
#170 = STYLED_ITEM ( 'NONE', ( #21 ), #262 ) ;
#171 = EDGE_LOOP ( 'NONE', ( #51, #197, #108, #307, #105 ) ) ;
#172 = PRESENTATION_STYLE_ASSIGNMENT (( #54 ) ) ;
#173 =( CONVERSION_BASED_UNIT ( 'INCH', #323 ) LENGTH_UNIT ( ) NAMED_UNIT ( #131 ) );
#174 = DIRECTION ( 'NONE',  ( 0.000000000000000000, 0.000000000000000000, -1.000000000000000000 ) ) ;
#175 = LENGTH_MEASURE_WITH_UNIT ( LENGTH_MEASURE( 0.02539999999999999897 ), #288 );
#176 = CARTESIAN_POINT ( 'NONE',  ( 0.000000000000000000, 0.7500000000000001110, 0.000000000000000000 ) ) ;
#177 = CARTESIAN_POINT ( 'NONE',  ( -1.530808498934191509E-17, 0.1250000000000000000, 0.000000000000000000 ) ) ;
#178 = DIRECTION ( 'NONE',  ( -1.574545884618025482E-16, 1.000000000000000000, -0.000000000000000000 ) ) ;
#179 = AXIS2_PLACEMENT_3D ( 'NONE', #176, #183, #237 ) ;
#180 = CARTESIAN_POINT ( 'NONE',  ( 0.1249999999999997641, 2.500000000000000000, 1.530808498934189352E-17 ) ) ;
#181 = FILL_AREA_STYLE_COLOUR ( '', #62 ) ;
#182 = DIRECTION ( 'NONE',  ( 0.000000000000000000, 0.000000000000000000, -1.000000000000000000 ) ) ;
#183 = DIRECTION ( 'NONE',  ( -0.000000000000000000, -1.000000000000000000, -0.000000000000000000 ) ) ;
#184 = AXIS2_PLACEMENT_3D ( 'NONE', #298, #326, #37 ) ;
#185 = SHAPE_DEFINITION_REPRESENTATION ( #308, #267 ) ;
#186 = CARTESIAN_POINT ( 'NONE',  ( 0.000000000000000000, 0.000000000000000000, 0.000000000000000000 ) ) ;
#187 = ADVANCED_FACE ( 'NONE', ( #219 ), #223, .T. ) ;
#188 = DIRECTION ( 'NONE',  ( 0.000000000000000000, 0.000000000000000000, -1.000000000000000000 ) ) ;
#189 = MECHANICAL_DESIGN_GEOMETRIC_PRESENTATION_REPRESENTATION (  '', ( #195 ), #319 ) ;
#190 = PRESENTATION_STYLE_ASSIGNMENT (( #270 ) ) ;
#191 = DIMENSIONAL_EXPONENTS ( 1.000000000000000000, 0.000000000000000000, 0.000000000000000000, 0.000000000000000000, 0.000000000000000000, 0.000000000000000000, 0.000000000000000000 ) ;
#192 = CIRCLE ( 'NONE', #165, 0.1250000000000000000 ) ;
#193 = DIRECTION ( 'NONE',  ( -1.000000000000000000, 0.000000000000000000, 0.000000000000000000 ) ) ;
#194 = DIMENSIONAL_EXPONENTS ( 1.000000000000000000, 0.000000000000000000, 0.000000000000000000, 0.000000000000000000, 0.000000000000000000, 0.000000000000000000, 0.000000000000000000 ) ;
#195 = STYLED_ITEM ( 'NONE', ( #190 ), #187 ) ;
#196 = SURFACE_STYLE_FILL_AREA ( #200 ) ;
#197 = ORIENTED_EDGE ( 'NONE', *, *, #89, .T. ) ;
#198 = CIRCLE ( 'NONE', #100, 0.1250000000000000000 ) ;
#199 = COLOUR_RGB ( '',0.7921568627450980005, 0.8196078431372548767, 0.9333333333333333481 ) ;
#200 = FILL_AREA_STYLE ('',( #305 ) ) ;
#201 = ORIENTED_EDGE ( 'NONE', *, *, #12, .T. ) ;
#202 = EDGE_CURVE ( 'NONE', #335, #50, #243, .T. ) ;
#203 = FILL_AREA_STYLE_COLOUR ( '', #228 ) ;
#204 = EDGE_LOOP ( 'NONE', ( #253, #309, #366, #256 ) ) ;
#205 = SURFACE_STYLE_FILL_AREA ( #83 ) ;
#206 = MECHANICAL_DESIGN_GEOMETRIC_PRESENTATION_REPRESENTATION (  '', ( #153 ), #35 ) ;
#207 = ORIENTED_EDGE ( 'NONE', *, *, #89, .F. ) ;
#208 = ADVANCED_FACE ( 'NONE', ( #161 ), #96, .T. ) ;
#209 =( CONVERSION_BASED_UNIT ( 'INCH', #175 ) LENGTH_UNIT ( ) NAMED_UNIT ( #194 ) );
#210 = FILL_AREA_STYLE_COLOUR ( '', #146 ) ;
#211 = SURFACE_STYLE_FILL_AREA ( #317 ) ;
#212 = PLANE ( 'NONE',  #316 ) ;
#213 = AXIS2_PLACEMENT_3D ( 'NONE', #46, #252, #77 ) ;
#214 = LINE ( 'NONE', #180, #222 ) ;
#215 = DIRECTION ( 'NONE',  ( -1.000000000000000000, 0.000000000000000000, 0.000000000000000000 ) ) ;
#216 = PRODUCT_RELATED_PRODUCT_CATEGORY ( 'part', '', ( #315 ) ) ;
#217 = DIRECTION ( 'NONE',  ( -0.000000000000000000, -1.000000000000000000, -0.000000000000000000 ) ) ;
#218 = DIRECTION ( 'NONE',  ( -1.574545884618025482E-16, 1.000000000000000000, 0.000000000000000000 ) ) ;
#219 = FACE_OUTER_BOUND ( 'NONE', #55, .T. ) ;
#220 = DIRECTION ( 'NONE',  ( -1.574545884618025482E-16, 1.000000000000000000, -0.000000000000000000 ) ) ;
#221 = STYLED_ITEM ( 'NONE', ( #266 ), #76 ) ;
#222 = VECTOR ( 'NONE', #33, 39.37007874015748143 ) ;
#223 = SPHERICAL_SURFACE ( 'NONE', #300, 0.1250000000000000000 ) ;
#224 = DIRECTION ( 'NONE',  ( -1.574545884618025482E-16, 1.000000000000000000, -0.000000000000000000 ) ) ;
#225 = LENGTH_MEASURE_WITH_UNIT ( LENGTH_MEASURE( 0.02539999999999999897 ), #248 );
#226 = DIRECTION ( 'NONE',  ( -1.000000000000000000, 0.000000000000000000, 0.000000000000000000 ) ) ;
#227 = SURFACE_STYLE_USAGE ( .BOTH. , #254 ) ;
#228 = COLOUR_RGB ( '',1.000000000000000000, 0.000000000000000000, 0.000000000000000000 ) ;
#229 = ADVANCED_FACE ( 'NONE', ( #276 ), #157, .F. ) ;
#230 =( LENGTH_UNIT ( ) NAMED_UNIT ( * ) SI_UNIT ( $, .METRE. ) );
#231 = EDGE_LOOP ( 'NONE', ( #82, #103 ) ) ;
#232 = FILL_AREA_STYLE ('',( #203 ) ) ;
#233 = ORIENTED_EDGE ( 'NONE', *, *, #359, .F. ) ;
#234 = CARTESIAN_POINT ( 'NONE',  ( -0.1250000000000000000, 0.1250000000000000278, 1.530808498934191201E-17 ) ) ;
#235 = VERTEX_POINT ( 'NONE', #302 ) ;
#236 =( GEOMETRIC_REPRESENTATION_CONTEXT ( 3 ) GLOBAL_UNCERTAINTY_ASSIGNED_CONTEXT ( ( #150 ) ) GLOBAL_UNIT_ASSIGNED_CONTEXT ( ( #209, #63, #293 ) ) REPRESENTATION_CONTEXT ( 'NONE', 'WORKASPACE' ) );
#237 = DIRECTION ( 'NONE',  ( 0.000000000000000000, 0.000000000000000000, -1.000000000000000000 ) ) ;
#238 =( LENGTH_UNIT ( ) NAMED_UNIT ( * ) SI_UNIT ( $, .METRE. ) );
#239 = SURFACE_STYLE_FILL_AREA ( #10 ) ;
#240 = UNCERTAINTY_MEASURE_WITH_UNIT (LENGTH_MEASURE( 1.000000000000000082E-05 ), #6, 'distance_accuracy_value', 'NONE');
#241 = ADVANCED_FACE ( 'NONE', ( #43 ), #303, .T. ) ;
#242 = SURFACE_SIDE_STYLE ('',( #353 ) ) ;
#243 = CIRCLE ( 'NONE', #282, 0.1249999999999996947 ) ;
#244 = UNCERTAINTY_MEASURE_WITH_UNIT (LENGTH_MEASURE( 1.000000000000000082E-05 ), #126, 'distance_accuracy_value', 'NONE');
#245 =( NAMED_UNIT ( * ) PLANE_ANGLE_UNIT ( ) SI_UNIT ( $, .RADIAN. ) );
#246 =( NAMED_UNIT ( * ) SI_UNIT ( $, .STERADIAN. ) SOLID_ANGLE_UNIT ( ) );
#247 = AXIS2_PLACEMENT_3D ( 'NONE', #186, #41, #188 ) ;
#248 =( LENGTH_UNIT ( ) NAMED_UNIT ( * ) SI_UNIT ( $, .METRE. ) );
#249 = DIRECTION ( 'NONE',  ( 1.574545884618025482E-16, -1.000000000000000000, 0.000000000000000000 ) ) ;
#250 = PRESENTATION_LAYER_ASSIGNMENT (  '', '', ( #170 ) ) ;
#251 = SURFACE_SIDE_STYLE ('',( #299 ) ) ;
#252 = DIRECTION ( 'NONE',  ( 0.000000000000000000, 1.000000000000000000, 0.000000000000000000 ) ) ;
#253 = ORIENTED_EDGE ( 'NONE', *, *, #344, .F. ) ;
#254 = SURFACE_SIDE_STYLE ('',( #196 ) ) ;
#255 = ORIENTED_EDGE ( 'NONE', *, *, #339, .T. ) ;
#256 = ORIENTED_EDGE ( 'NONE', *, *, #53, .F. ) ;
#257 = LENGTH_MEASURE_WITH_UNIT ( LENGTH_MEASURE( 0.02539999999999999897 ), #163 );
#258 = ORIENTED_EDGE ( 'NONE', *, *, #278, .F. ) ;
#259 = DIRECTION ( 'NONE',  ( -0.000000000000000000, -1.000000000000000000, -0.000000000000000000 ) ) ;
#260 = CARTESIAN_POINT ( 'NONE',  ( -6.123233995736766036E-17, 2.500000000000000000, 0.000000000000000000 ) ) ;
#261 = UNCERTAINTY_MEASURE_WITH_UNIT (LENGTH_MEASURE( 1.000000000000000082E-05 ), #325, 'distance_accuracy_value', 'NONE');
#262 = ADVANCED_FACE ( 'NONE', ( #106 ), #19, .T. ) ;
#263 = CARTESIAN_POINT ( 'NONE',  ( 0.000000000000000000, 0.1250000000000000278, -0.1250000000000000000 ) ) ;
#264 = FACE_OUTER_BOUND ( 'NONE', #343, .T. ) ;
#265 = DIRECTION ( 'NONE',  ( 1.000000000000000000, 0.000000000000000000, -1.224646799147353207E-16 ) ) ;
#266 = PRESENTATION_STYLE_ASSIGNMENT (( #32 ) ) ;
#267 = ADVANCED_BREP_SHAPE_REPRESENTATION ( '12122', ( #76, #314, #184 ), #297 ) ;
#268 = DIRECTION ( 'NONE',  ( -1.574545884618025482E-16, 1.000000000000000000, -0.000000000000000000 ) ) ;
#269 = CARTESIAN_POINT ( 'NONE',  ( -0.1250000000000000555, 2.500000000000000000, 0.000000000000000000 ) ) ;
#270 = SURFACE_STYLE_USAGE ( .BOTH. , #251 ) ;
#271 = AXIS2_PLACEMENT_3D ( 'NONE', #177, #8, #31 ) ;
#272 = AXIS2_PLACEMENT_3D ( 'NONE', #260, #268, #215 ) ;
#273 = ADVANCED_FACE ( 'NONE', ( #24 ), #370, .T. ) ;
#274 = DIRECTION ( 'NONE',  ( -1.574545884618025482E-16, 1.000000000000000000, -0.000000000000000000 ) ) ;
#275 = DIMENSIONAL_EXPONENTS ( 1.000000000000000000, 0.000000000000000000, 0.000000000000000000, 0.000000000000000000, 0.000000000000000000, 0.000000000000000000, 0.000000000000000000 ) ;
#276 = FACE_OUTER_BOUND ( 'NONE', #139, .T. ) ;
#277 = VERTEX_POINT ( 'NONE', #342 ) ;
#278 = EDGE_CURVE ( 'NONE', #47, #369, #14, .T. ) ;
#279 = ORIENTED_EDGE ( 'NONE', *, *, #91, .F. ) ;
#280 =( NAMED_UNIT ( * ) SI_UNIT ( $, .STERADIAN. ) SOLID_ANGLE_UNIT ( ) );
#281 = ORIENTED_EDGE ( 'NONE', *, *, #162, .F. ) ;
#282 = AXIS2_PLACEMENT_3D ( 'NONE', #70, #220, #193 ) ;
#283 = DIRECTION ( 'NONE',  ( 0.000000000000000000, 0.000000000000000000, 1.000000000000000000 ) ) ;
#284 = SURFACE_SIDE_STYLE ('',( #211 ) ) ;
#285 = CARTESIAN_POINT ( 'NONE',  ( 0.1249999999999999167, 0.7499999999999998890, 1.530808498934190276E-17 ) ) ;
#286 = PRESENTATION_LAYER_ASSIGNMENT (  '', '', ( #153 ) ) ;
#287 = FACE_OUTER_BOUND ( 'NONE', #17, .T. ) ;
#288 =( LENGTH_UNIT ( ) NAMED_UNIT ( * ) SI_UNIT ( $, .METRE. ) );
#289 = CLOSED_SHELL ( 'NONE', ( #101, #49, #208, #229 ) ) ;
#290 = AXIS2_PLACEMENT_3D ( 'NONE', #28, #144, #5 ) ;
#291 = DIRECTION ( 'NONE',  ( -1.000000000000000000, 0.000000000000000000, 0.000000000000000000 ) ) ;
#292 = UNCERTAINTY_MEASURE_WITH_UNIT (LENGTH_MEASURE( 1.000000000000000082E-05 ), #355, 'distance_accuracy_value', 'NONE');
#293 =( NAMED_UNIT ( * ) SI_UNIT ( $, .STERADIAN. ) SOLID_ANGLE_UNIT ( ) );
#294 = CARTESIAN_POINT ( 'NONE',  ( 0.1250000000000000000, 0.1250000000000000278, 0.000000000000000000 ) ) ;
#295 = LINE ( 'NONE', #34, #136 ) ;
#296 = CYLINDRICAL_SURFACE ( 'NONE', #272, 0.1249999999999998335 ) ;
#297 =( GEOMETRIC_REPRESENTATION_CONTEXT ( 3 ) GLOBAL_UNCERTAINTY_ASSIGNED_CONTEXT ( ( #292 ) ) GLOBAL_UNIT_ASSIGNED_CONTEXT ( ( #355, #329, #159 ) ) REPRESENTATION_CONTEXT ( 'NONE', 'WORKASPACE' ) );
#298 = CARTESIAN_POINT ( 'NONE',  ( 0.000000000000000000, 0.000000000000000000, 0.000000000000000000 ) ) ;
#299 = SURFACE_STYLE_FILL_AREA ( #16 ) ;
#300 = AXIS2_PLACEMENT_3D ( 'NONE', #72, #124, #356 ) ;
#301 =( NAMED_UNIT ( * ) PLANE_ANGLE_UNIT ( ) SI_UNIT ( $, .RADIAN. ) );
#302 = CARTESIAN_POINT ( 'NONE',  ( 1.530808498934191817E-17, 0.1250000000000000278, 0.1250000000000000000 ) ) ;
#303 = PLANE ( 'NONE',  #213 ) ;
#304 = ORIENTED_EDGE ( 'NONE', *, *, #129, .T. ) ;
#305 = FILL_AREA_STYLE_COLOUR ( '', #156 ) ;
#306 = ORIENTED_EDGE ( 'NONE', *, *, #339, .F. ) ;
#307 = ORIENTED_EDGE ( 'NONE', *, *, #12, .F. ) ;
#308 = PRODUCT_DEFINITION_SHAPE ( 'NONE', 'NONE',  #60 ) ;
#309 = ORIENTED_EDGE ( 'NONE', *, *, #202, .T. ) ;
#310 = PRESENTATION_LAYER_ASSIGNMENT (  '', '', ( #349 ) ) ;
#311 = AXIS2_PLACEMENT_3D ( 'NONE', #132, #249, #362 ) ;
#312 = SURFACE_SIDE_STYLE ('',( #205 ) ) ;
#313 = VERTEX_POINT ( 'NONE', #234 ) ;
#314 = MANIFOLD_SOLID_BREP ( 'Revolve - Tool Body (Straight Shanked)', #289 ) ;
#315 = PRODUCT ( '12122', '12122', '', ( #331 ) ) ;
#316 = AXIS2_PLACEMENT_3D ( 'NONE', #66, #218, #145 ) ;
#317 = FILL_AREA_STYLE ('',( #321 ) ) ;
#318 = UNCERTAINTY_MEASURE_WITH_UNIT (LENGTH_MEASURE( 1.000000000000000082E-05 ), #337, 'distance_accuracy_value', 'NONE');
#319 =( GEOMETRIC_REPRESENTATION_CONTEXT ( 3 ) GLOBAL_UNCERTAINTY_ASSIGNED_CONTEXT ( ( #244 ) ) GLOBAL_UNIT_ASSIGNED_CONTEXT ( ( #126, #301, #42 ) ) REPRESENTATION_CONTEXT ( 'NONE', 'WORKASPACE' ) );
#320 =( LENGTH_UNIT ( ) NAMED_UNIT ( * ) SI_UNIT ( $, .METRE. ) );
#321 = FILL_AREA_STYLE_COLOUR ( '', #199 ) ;
#322 = CARTESIAN_POINT ( 'NONE',  ( 0.000000000000000000, 0.7500000000000001110, -0.1249999999999999029 ) ) ;
#323 = LENGTH_MEASURE_WITH_UNIT ( LENGTH_MEASURE( 0.02539999999999999897 ), #238 );
#324 = CARTESIAN_POINT ( 'NONE',  ( 0.000000000000000000, 0.1250000000000000278, 0.000000000000000000 ) ) ;
#325 =( CONVERSION_BASED_UNIT ( 'INCH', #59 ) LENGTH_UNIT ( ) NAMED_UNIT ( #191 ) );
#326 = DIRECTION ( 'NONE',  ( 0.000000000000000000, 0.000000000000000000, 1.000000000000000000 ) ) ;
#327 = CARTESIAN_POINT ( 'NONE',  ( -6.123233995736766036E-17, 2.500000000000000000, 0.000000000000000000 ) ) ;
#328 = MECHANICAL_DESIGN_GEOMETRIC_PRESENTATION_REPRESENTATION (  '', ( #221 ), #127 ) ;
#329 =( NAMED_UNIT ( * ) PLANE_ANGLE_UNIT ( ) SI_UNIT ( $, .RADIAN. ) );
#330 = EDGE_CURVE ( 'NONE', #47, #235, #4, .T. ) ;
#331 = PRODUCT_CONTEXT ( 'NONE', #358, 'mechanical' ) ;
#332 =( CONVERSION_BASED_UNIT ( 'INCH', #79 ) LENGTH_UNIT ( ) NAMED_UNIT ( #133 ) );
#333 =( NAMED_UNIT ( * ) SI_UNIT ( $, .STERADIAN. ) SOLID_ANGLE_UNIT ( ) );
#334 = AXIS2_PLACEMENT_3D ( 'NONE', #169, #283, #44 ) ;
#335 = VERTEX_POINT ( 'NONE', #285 ) ;
#336 = CIRCLE ( 'NONE', #179, 0.1249999999999999029 ) ;
#337 =( CONVERSION_BASED_UNIT ( 'INCH', #257 ) LENGTH_UNIT ( ) NAMED_UNIT ( #275 ) );
#338 = ORIENTED_EDGE ( 'NONE', *, *, #368, .F. ) ;
#339 = EDGE_CURVE ( 'NONE', #168, #277, #68, .T. ) ;
#340 = VERTEX_POINT ( 'NONE', #263 ) ;
#341 = MECHANICAL_DESIGN_GEOMETRIC_PRESENTATION_REPRESENTATION (  '', ( #350 ), #73 ) ;
#342 = CARTESIAN_POINT ( 'NONE',  ( 0.1249999999999999306, 2.500000000000000000, 1.530808498934190276E-17 ) ) ;
#343 = EDGE_LOOP ( 'NONE', ( #304, #22, #306, #281 ) ) ;
#344 = EDGE_CURVE ( 'NONE', #335, #277, #214, .T. ) ;
#345 = DIRECTION ( 'NONE',  ( -0.000000000000000000, -1.000000000000000000, -0.000000000000000000 ) ) ;
#346 = CYLINDRICAL_SURFACE ( 'NONE', #247, 0.1249999999999999445 ) ;
#347 = SURFACE_STYLE_USAGE ( .BOTH. , #154 ) ;
#348 = PRODUCT_DEFINITION_CONTEXT ( 'detailed design', #3, 'design' ) ;
#349 = STYLED_ITEM ( 'NONE', ( #90 ), #115 ) ;
#350 = STYLED_ITEM ( 'NONE', ( #172 ), #273 ) ;
#351 = DIRECTION ( 'NONE',  ( 0.000000000000000000, 0.000000000000000000, -1.000000000000000000 ) ) ;
#352 =( NAMED_UNIT ( * ) SI_UNIT ( $, .STERADIAN. ) SOLID_ANGLE_UNIT ( ) );
#353 = SURFACE_STYLE_FILL_AREA ( #354 ) ;
#354 = FILL_AREA_STYLE ('',( #210 ) ) ;
#355 =( CONVERSION_BASED_UNIT ( 'INCH', #225 ) LENGTH_UNIT ( ) NAMED_UNIT ( #160 ) );
#356 = DIRECTION ( 'NONE',  ( 1.000000000000000000, 0.000000000000000000, 0.000000000000000000 ) ) ;
#357 = VECTOR ( 'NONE', #224, 39.37007874015748143 ) ;
#358 = APPLICATION_CONTEXT ( 'automotive_design' ) ;
#359 = EDGE_CURVE ( 'NONE', #313, #369, #30, .T. ) ;
#360 = AXIS2_PLACEMENT_3D ( 'NONE', #151, #65, #265 ) ;
#361 = CARTESIAN_POINT ( 'NONE',  ( -0.1249999999999999029, 2.500000000000000000, 0.000000000000000000 ) ) ;
#362 = DIRECTION ( 'NONE',  ( 1.000000000000000000, 1.574545884618025482E-16, 0.000000000000000000 ) ) ;
#363 = EDGE_CURVE ( 'NONE', #110, #164, #48, .T. ) ;
#364 = PRESENTATION_LAYER_ASSIGNMENT (  '', '', ( #195 ) ) ;
#365 = PRESENTATION_STYLE_ASSIGNMENT (( #227 ) ) ;
#366 = ORIENTED_EDGE ( 'NONE', *, *, #162, .T. ) ;
#367 = EDGE_LOOP ( 'NONE', ( #112, #207 ) ) ;
#368 = EDGE_CURVE ( 'NONE', #110, #340, #295, .T. ) ;
#369 = VERTEX_POINT ( 'NONE', #69 ) ;
#370 = CYLINDRICAL_SURFACE ( 'NONE', #58, 0.1249999999999999445 ) ;
#371 = ORIENTED_EDGE ( 'NONE', *, *, #53, .T. ) ;
#372 =( NAMED_UNIT ( * ) PLANE_ANGLE_UNIT ( ) SI_UNIT ( $, .RADIAN. ) );
#373 = ORIENTED_EDGE ( 'NONE', *, *, #330, .T. ) ;
ENDSEC;
END-ISO-10303-21;
