ISO-10303-21;
HEADER;
FILE_DESCRIPTION (( 'STEP AP214' ),
    '1' );
FILE_NAME ('30527W.STEP',
    '2023-06-22T18:37:37',
    ( '' ),
    ( '' ),
    'SwSTEP 2.0',
    'SolidWorks 2023',
    '' );
FILE_SCHEMA (( 'AUTOMOTIVE_DESIGN' ));
ENDSEC;

DATA;
#1 = STYLED_ITEM ( 'NONE', ( #99 ), #243 ) ;
#2 = DIRECTION ( 'NONE',  ( -0.000000000000000000, -1.000000000000000000, -0.000000000000000000 ) ) ;
#3 = AXIS2_PLACEMENT_3D ( 'NONE', #104, #9, #56 ) ;
#4 = AXIS2_PLACEMENT_3D ( 'NONE', #186, #237, #201 ) ;
#5 = UNCERTAINTY_MEASURE_WITH_UNIT (LENGTH_MEASURE( 1.000000000000000082E-05 ), #215, 'distance_accuracy_value', 'NONE');
#6 = SURFACE_SIDE_STYLE ('',( #217 ) ) ;
#7 = DIRECTION ( 'NONE',  ( -0.000000000000000000, -1.000000000000000000, -0.000000000000000000 ) ) ;
#8 = CARTESIAN_POINT ( 'NONE',  ( -6.123233995736772199E-17, 3.000000000000000444, 0.000000000000000000 ) ) ;
#9 = DIRECTION ( 'NONE',  ( -3.498990854706726443E-17, 1.000000000000000000, 0.000000000000000000 ) ) ;
#10 = CARTESIAN_POINT ( 'NONE',  ( 0.000000000000000000, 0.000000000000000000, 0.000000000000000000 ) ) ;
#11 = MECHANICAL_DESIGN_GEOMETRIC_PRESENTATION_REPRESENTATION (  '', ( #150 ), #79 ) ;
#12 = DIRECTION ( 'NONE',  ( 1.000000000000000000, 3.498990854706726443E-17, 0.000000000000000000 ) ) ;
#13 = UNCERTAINTY_MEASURE_WITH_UNIT (LENGTH_MEASURE( 1.000000000000000082E-05 ), #173, 'distance_accuracy_value', 'NONE');
#14 =( CONVERSION_BASED_UNIT ( 'INCH', #227 ) LENGTH_UNIT ( ) NAMED_UNIT ( #133 ) );
#15 = ADVANCED_FACE ( 'NONE', ( #37 ), #119, .T. ) ;
#16 = UNCERTAINTY_MEASURE_WITH_UNIT (LENGTH_MEASURE( 1.000000000000000082E-05 ), #29, 'distance_accuracy_value', 'NONE');
#17 = COLOUR_RGB ( '',1.000000000000000000, 0.000000000000000000, 0.000000000000000000 ) ;
#18 =( LENGTH_UNIT ( ) NAMED_UNIT ( * ) SI_UNIT ( $, .METRE. ) );
#19 = CIRCLE ( 'NONE', #97, 0.2500000000000000000 ) ;
#20 =( CONVERSION_BASED_UNIT ( 'INCH', #91 ) LENGTH_UNIT ( ) NAMED_UNIT ( #262 ) );
#21 = SURFACE_STYLE_USAGE ( .BOTH. , #302 ) ;
#22 = UNCERTAINTY_MEASURE_WITH_UNIT (LENGTH_MEASURE( 1.000000000000000082E-05 ), #20, 'distance_accuracy_value', 'NONE');
#23 = PLANE ( 'NONE',  #96 ) ;
#24 = VERTEX_POINT ( 'NONE', #82 ) ;
#25 = DIMENSIONAL_EXPONENTS ( 1.000000000000000000, 0.000000000000000000, 0.000000000000000000, 0.000000000000000000, 0.000000000000000000, 0.000000000000000000, 0.000000000000000000 ) ;
#26 = EDGE_LOOP ( 'NONE', ( #162, #212 ) ) ;
#27 = AXIS2_PLACEMENT_3D ( 'NONE', #232, #179, #276 ) ;
#28 = ORIENTED_EDGE ( 'NONE', *, *, #301, .T. ) ;
#29 =( CONVERSION_BASED_UNIT ( 'INCH', #141 ) LENGTH_UNIT ( ) NAMED_UNIT ( #25 ) );
#30 = AXIS2_PLACEMENT_3D ( 'NONE', #98, #72, #123 ) ;
#31 =( NAMED_UNIT ( * ) SI_UNIT ( $, .STERADIAN. ) SOLID_ANGLE_UNIT ( ) );
#32 = CARTESIAN_POINT ( 'NONE',  ( 0.2500000000000000000, 3.000000000000000444, 0.000000000000000000 ) ) ;
#33 = ADVANCED_FACE ( 'NONE', ( #293 ), #108, .T. ) ;
#34 = VECTOR ( 'NONE', #224, 39.37007874015748143 ) ;
#35 = LINE ( 'NONE', #269, #230 ) ;
#36 = PLANE ( 'NONE',  #74 ) ;
#37 = FACE_OUTER_BOUND ( 'NONE', #235, .T. ) ;
#38 =( NAMED_UNIT ( * ) PLANE_ANGLE_UNIT ( ) SI_UNIT ( $, .RADIAN. ) );
#39 = DIRECTION ( 'NONE',  ( 0.000000000000000000, 0.000000000000000000, -1.000000000000000000 ) ) ;
#40 =( LENGTH_UNIT ( ) NAMED_UNIT ( * ) SI_UNIT ( $, .METRE. ) );
#41 = DIRECTION ( 'NONE',  ( 0.000000000000000000, 1.000000000000000000, 0.000000000000000000 ) ) ;
#42 = PRODUCT_RELATED_PRODUCT_CATEGORY ( 'part', '', ( #125 ) ) ;
#43 = PRESENTATION_LAYER_ASSIGNMENT (  '', '', ( #1 ) ) ;
#44 = MECHANICAL_DESIGN_GEOMETRIC_PRESENTATION_REPRESENTATION (  '', ( #50 ), #65 ) ;
#45 = DIRECTION ( 'NONE',  ( -3.498990854706726443E-17, 1.000000000000000000, -0.000000000000000000 ) ) ;
#46 = ORIENTED_EDGE ( 'NONE', *, *, #290, .T. ) ;
#47 =( LENGTH_UNIT ( ) NAMED_UNIT ( * ) SI_UNIT ( $, .METRE. ) );
#48 = VERTEX_POINT ( 'NONE', #257 ) ;
#49 = ORIENTED_EDGE ( 'NONE', *, *, #191, .F. ) ;
#50 = STYLED_ITEM ( 'NONE', ( #219 ), #309 ) ;
#51 = CARTESIAN_POINT ( 'NONE',  ( 0.2500000000000000000, 1.250000000000000000, 3.061616997868383634E-17 ) ) ;
#52 = PRESENTATION_LAYER_ASSIGNMENT (  '', '', ( #176 ) ) ;
#53 = CYLINDRICAL_SURFACE ( 'NONE', #61, 0.2500000000000000555 ) ;
#54 = PRESENTATION_STYLE_ASSIGNMENT (( #172 ) ) ;
#55 = CLOSED_SHELL ( 'NONE', ( #33, #309, #243, #194 ) ) ;
#56 = DIRECTION ( 'NONE',  ( -1.000000000000000000, -3.498990854706726443E-17, 0.000000000000000000 ) ) ;
#57 = FACE_OUTER_BOUND ( 'NONE', #183, .T. ) ;
#58 = EDGE_CURVE ( 'NONE', #48, #263, #86, .T. ) ;
#59 = CARTESIAN_POINT ( 'NONE',  ( 0.000000000000000000, 0.000000000000000000, 0.000000000000000000 ) ) ;
#60 =( GEOMETRIC_REPRESENTATION_CONTEXT ( 3 ) GLOBAL_UNCERTAINTY_ASSIGNED_CONTEXT ( ( #254 ) ) GLOBAL_UNIT_ASSIGNED_CONTEXT ( ( #93, #132, #112 ) ) REPRESENTATION_CONTEXT ( 'NONE', 'WORKASPACE' ) );
#61 = AXIS2_PLACEMENT_3D ( 'NONE', #8, #272, #77 ) ;
#62 = DIRECTION ( 'NONE',  ( -3.498990854706726443E-17, 1.000000000000000000, -0.000000000000000000 ) ) ;
#63 = CARTESIAN_POINT ( 'NONE',  ( -6.123233995736772199E-17, 3.000000000000000444, 0.000000000000000000 ) ) ;
#64 = VECTOR ( 'NONE', #158, 39.37007874015748143 ) ;
#65 =( GEOMETRIC_REPRESENTATION_CONTEXT ( 3 ) GLOBAL_UNCERTAINTY_ASSIGNED_CONTEXT ( ( #129 ) ) GLOBAL_UNIT_ASSIGNED_CONTEXT ( ( #169, #84, #226 ) ) REPRESENTATION_CONTEXT ( 'NONE', 'WORKASPACE' ) );
#66 = VERTEX_POINT ( 'NONE', #51 ) ;
#67 = ORIENTED_EDGE ( 'NONE', *, *, #301, .F. ) ;
#68 = ORIENTED_EDGE ( 'NONE', *, *, #152, .F. ) ;
#69 = FILL_AREA_STYLE_COLOUR ( '', #270 ) ;
#70 = COLOUR_RGB ( '',0.7921568627450980005, 0.8196078431372548767, 0.9333333333333333481 ) ;
#71 = DIRECTION ( 'NONE',  ( 0.000000000000000000, -1.000000000000000000, -0.000000000000000000 ) ) ;
#72 = DIRECTION ( 'NONE',  ( -0.000000000000000000, -1.000000000000000000, -0.000000000000000000 ) ) ;
#73 = AXIS2_PLACEMENT_3D ( 'NONE', #260, #45, #137 ) ;
#74 = AXIS2_PLACEMENT_3D ( 'NONE', #255, #41, #130 ) ;
#75 = LENGTH_MEASURE_WITH_UNIT ( LENGTH_MEASURE( 0.02539999999999999897 ), #40 );
#76 = LENGTH_MEASURE_WITH_UNIT ( LENGTH_MEASURE( 0.02539999999999999897 ), #126 );
#77 = DIRECTION ( 'NONE',  ( -1.000000000000000000, 0.000000000000000000, 0.000000000000000000 ) ) ;
#78 = DIRECTION ( 'NONE',  ( -0.000000000000000000, -1.000000000000000000, -0.000000000000000000 ) ) ;
#79 =( GEOMETRIC_REPRESENTATION_CONTEXT ( 3 ) GLOBAL_UNCERTAINTY_ASSIGNED_CONTEXT ( ( #22 ) ) GLOBAL_UNIT_ASSIGNED_CONTEXT ( ( #20, #151, #107 ) ) REPRESENTATION_CONTEXT ( 'NONE', 'WORKASPACE' ) );
#80 = CARTESIAN_POINT ( 'NONE',  ( 0.000000000000000000, 0.000000000000000000, -0.2500000000000000000 ) ) ;
#81 =( LENGTH_UNIT ( ) NAMED_UNIT ( * ) SI_UNIT ( $, .METRE. ) );
#82 = CARTESIAN_POINT ( 'NONE',  ( -0.2500000000000000000, 1.250000000000000000, 0.000000000000000000 ) ) ;
#83 = SURFACE_STYLE_FILL_AREA ( #200 ) ;
#84 =( NAMED_UNIT ( * ) PLANE_ANGLE_UNIT ( ) SI_UNIT ( $, .RADIAN. ) );
#85 = DIRECTION ( 'NONE',  ( -1.000000000000000000, 0.000000000000000000, 0.000000000000000000 ) ) ;
#86 = CIRCLE ( 'NONE', #4, 0.2500000000000000555 ) ;
#87 = LENGTH_MEASURE_WITH_UNIT ( LENGTH_MEASURE( 0.02539999999999999897 ), #47 );
#88 = DIRECTION ( 'NONE',  ( -0.000000000000000000, -1.000000000000000000, -0.000000000000000000 ) ) ;
#89 = ORIENTED_EDGE ( 'NONE', *, *, #298, .T. ) ;
#90 =( GEOMETRIC_REPRESENTATION_CONTEXT ( 3 ) GLOBAL_UNCERTAINTY_ASSIGNED_CONTEXT ( ( #13 ) ) GLOBAL_UNIT_ASSIGNED_CONTEXT ( ( #173, #147, #149 ) ) REPRESENTATION_CONTEXT ( 'NONE', 'WORKASPACE' ) );
#91 = LENGTH_MEASURE_WITH_UNIT ( LENGTH_MEASURE( 0.02539999999999999897 ), #303 );
#92 = ORIENTED_EDGE ( 'NONE', *, *, #58, .F. ) ;
#93 =( CONVERSION_BASED_UNIT ( 'INCH', #87 ) LENGTH_UNIT ( ) NAMED_UNIT ( #160 ) );
#94 = ORIENTED_EDGE ( 'NONE', *, *, #252, .T. ) ;
#95 = CYLINDRICAL_SURFACE ( 'NONE', #267, 0.2500000000000000000 ) ;
#96 = AXIS2_PLACEMENT_3D ( 'NONE', #214, #71, #284 ) ;
#97 = AXIS2_PLACEMENT_3D ( 'NONE', #59, #78, #39 ) ;
#98 = CARTESIAN_POINT ( 'NONE',  ( 0.000000000000000000, 0.000000000000000000, 0.000000000000000000 ) ) ;
#99 = PRESENTATION_STYLE_ASSIGNMENT (( #165 ) ) ;
#100 = ADVANCED_BREP_SHAPE_REPRESENTATION ( '30527W', ( #117, #121, #297 ), #90 ) ;
#101 = PRODUCT_DEFINITION_CONTEXT ( 'detailed design', #238, 'design' ) ;
#102 = FILL_AREA_STYLE ('',( #120 ) ) ;
#103 = CARTESIAN_POINT ( 'NONE',  ( -0.2500000000000001110, 3.000000000000000444, 0.000000000000000000 ) ) ;
#104 = CARTESIAN_POINT ( 'NONE',  ( 1.530367125165163595E-34, 1.250000000000000000, 0.000000000000000000 ) ) ;
#105 = PRODUCT_DEFINITION_FORMATION_WITH_SPECIFIED_SOURCE ( 'ANY', '', #125, .NOT_KNOWN. ) ;
#106 = FILL_AREA_STYLE_COLOUR ( '', #246 ) ;
#107 =( NAMED_UNIT ( * ) SI_UNIT ( $, .STERADIAN. ) SOLID_ANGLE_UNIT ( ) );
#108 = CYLINDRICAL_SURFACE ( 'NONE', #222, 0.2500000000000000000 ) ;
#109 = CIRCLE ( 'NONE', #73, 0.2500000000000000000 ) ;
#110 = AXIS2_PLACEMENT_3D ( 'NONE', #32, #221, #12 ) ;
#111 = LINE ( 'NONE', #299, #197 ) ;
#112 =( NAMED_UNIT ( * ) SI_UNIT ( $, .STERADIAN. ) SOLID_ANGLE_UNIT ( ) );
#113 = FILL_AREA_STYLE_COLOUR ( '', #17 ) ;
#114 = ORIENTED_EDGE ( 'NONE', *, *, #181, .F. ) ;
#115 = ORIENTED_EDGE ( 'NONE', *, *, #124, .F. ) ;
#116 = EDGE_LOOP ( 'NONE', ( #206, #28, #248, #115 ) ) ;
#117 = MANIFOLD_SOLID_BREP ( 'Revolve - Cutting Edge', #55 ) ;
#118 = CARTESIAN_POINT ( 'NONE',  ( 0.000000000000000000, 0.000000000000000000, 0.000000000000000000 ) ) ;
#119 = CYLINDRICAL_SURFACE ( 'NONE', #275, 0.2500000000000000555 ) ;
#120 = FILL_AREA_STYLE_COLOUR ( '', #295 ) ;
#121 = MANIFOLD_SOLID_BREP ( 'Revolve - Tool Body (Straight Shanked)', #259 ) ;
#122 =( GEOMETRIC_REPRESENTATION_CONTEXT ( 3 ) GLOBAL_UNCERTAINTY_ASSIGNED_CONTEXT ( ( #5 ) ) GLOBAL_UNIT_ASSIGNED_CONTEXT ( ( #215, #242, #31 ) ) REPRESENTATION_CONTEXT ( 'NONE', 'WORKASPACE' ) );
#123 = DIRECTION ( 'NONE',  ( 0.000000000000000000, 0.000000000000000000, -1.000000000000000000 ) ) ;
#124 = EDGE_CURVE ( 'NONE', #24, #263, #239, .T. ) ;
#125 = PRODUCT ( '30527W', '30527W', '', ( #175 ) ) ;
#126 =( LENGTH_UNIT ( ) NAMED_UNIT ( * ) SI_UNIT ( $, .METRE. ) );
#127 = LENGTH_MEASURE_WITH_UNIT ( LENGTH_MEASURE( 0.02539999999999999897 ), #81 );
#128 =( NAMED_UNIT ( * ) SI_UNIT ( $, .STERADIAN. ) SOLID_ANGLE_UNIT ( ) );
#129 = UNCERTAINTY_MEASURE_WITH_UNIT (LENGTH_MEASURE( 1.000000000000000082E-05 ), #169, 'distance_accuracy_value', 'NONE');
#130 = DIRECTION ( 'NONE',  ( 0.000000000000000000, -0.000000000000000000, 1.000000000000000000 ) ) ;
#131 = FILL_AREA_STYLE_COLOUR ( '', #134 ) ;
#132 =( NAMED_UNIT ( * ) PLANE_ANGLE_UNIT ( ) SI_UNIT ( $, .RADIAN. ) );
#133 = DIMENSIONAL_EXPONENTS ( 1.000000000000000000, 0.000000000000000000, 0.000000000000000000, 0.000000000000000000, 0.000000000000000000, 0.000000000000000000, 0.000000000000000000 ) ;
#134 = COLOUR_RGB ( '',1.000000000000000000, 0.000000000000000000, 0.000000000000000000 ) ;
#135 = CIRCLE ( 'NONE', #30, 0.2500000000000000000 ) ;
#136 = PRESENTATION_STYLE_ASSIGNMENT (( #294 ) ) ;
#137 = DIRECTION ( 'NONE',  ( -1.000000000000000000, 0.000000000000000000, 0.000000000000000000 ) ) ;
#138 = VERTEX_POINT ( 'NONE', #223 ) ;
#139 = EDGE_LOOP ( 'NONE', ( #89, #161 ) ) ;
#140 = ORIENTED_EDGE ( 'NONE', *, *, #143, .F. ) ;
#141 = LENGTH_MEASURE_WITH_UNIT ( LENGTH_MEASURE( 0.02539999999999999897 ), #286 );
#142 = CIRCLE ( 'NONE', #280, 0.2500000000000000555 ) ;
#143 = EDGE_CURVE ( 'NONE', #24, #66, #292, .T. ) ;
#144 = DIRECTION ( 'NONE',  ( 0.000000000000000000, 0.000000000000000000, -1.000000000000000000 ) ) ;
#145 = LINE ( 'NONE', #80, #34 ) ;
#146 = DIRECTION ( 'NONE',  ( -3.498990854706726443E-17, 1.000000000000000000, -0.000000000000000000 ) ) ;
#147 =( NAMED_UNIT ( * ) PLANE_ANGLE_UNIT ( ) SI_UNIT ( $, .RADIAN. ) );
#148 = APPLICATION_PROTOCOL_DEFINITION ( 'draft international standard', 'automotive_design', 1998, #155 ) ;
#149 =( NAMED_UNIT ( * ) SI_UNIT ( $, .STERADIAN. ) SOLID_ANGLE_UNIT ( ) );
#150 = STYLED_ITEM ( 'NONE', ( #136 ), #121 ) ;
#151 =( NAMED_UNIT ( * ) PLANE_ANGLE_UNIT ( ) SI_UNIT ( $, .RADIAN. ) );
#152 = EDGE_CURVE ( 'NONE', #138, #187, #228, .T. ) ;
#153 = SURFACE_SIDE_STYLE ('',( #271 ) ) ;
#154 = DIRECTION ( 'NONE',  ( 0.000000000000000000, 0.000000000000000000, 1.000000000000000000 ) ) ;
#155 = APPLICATION_CONTEXT ( 'automotive_design' ) ;
#156 = DIMENSIONAL_EXPONENTS ( 1.000000000000000000, 0.000000000000000000, 0.000000000000000000, 0.000000000000000000, 0.000000000000000000, 0.000000000000000000, 0.000000000000000000 ) ;
#157 = DIRECTION ( 'NONE',  ( -1.000000000000000000, 0.000000000000000000, 0.000000000000000000 ) ) ;
#158 = DIRECTION ( 'NONE',  ( -3.498990854706726443E-17, 1.000000000000000000, -0.000000000000000000 ) ) ;
#159 = EDGE_LOOP ( 'NONE', ( #46, #209, #236, #282 ) ) ;
#160 = DIMENSIONAL_EXPONENTS ( 1.000000000000000000, 0.000000000000000000, 0.000000000000000000, 0.000000000000000000, 0.000000000000000000, 0.000000000000000000, 0.000000000000000000 ) ;
#161 = ORIENTED_EDGE ( 'NONE', *, *, #249, .T. ) ;
#162 = ORIENTED_EDGE ( 'NONE', *, *, #166, .T. ) ;
#163 = FACE_OUTER_BOUND ( 'NONE', #283, .T. ) ;
#164 = PRESENTATION_LAYER_ASSIGNMENT (  '', '', ( #150 ) ) ;
#165 = SURFACE_STYLE_USAGE ( .BOTH. , #190 ) ;
#166 = EDGE_CURVE ( 'NONE', #263, #48, #142, .T. ) ;
#167 = MECHANICAL_DESIGN_GEOMETRIC_PRESENTATION_REPRESENTATION (  '', ( #184 ), #60 ) ;
#168 = AXIS2_PLACEMENT_3D ( 'NONE', #218, #7, #274 ) ;
#169 =( CONVERSION_BASED_UNIT ( 'INCH', #75 ) LENGTH_UNIT ( ) NAMED_UNIT ( #205 ) );
#170 = CARTESIAN_POINT ( 'NONE',  ( 0.000000000000000000, 0.000000000000000000, -0.2500000000000000000 ) ) ;
#171 = MECHANICAL_DESIGN_GEOMETRIC_PRESENTATION_REPRESENTATION (  '', ( #1 ), #210 ) ;
#172 = SURFACE_STYLE_USAGE ( .BOTH. , #6 ) ;
#173 =( CONVERSION_BASED_UNIT ( 'INCH', #127 ) LENGTH_UNIT ( ) NAMED_UNIT ( #231 ) );
#174 = SURFACE_STYLE_USAGE ( .BOTH. , #251 ) ;
#175 = PRODUCT_CONTEXT ( 'NONE', #155, 'mechanical' ) ;
#176 = STYLED_ITEM ( 'NONE', ( #225 ), #33 ) ;
#177 = PRODUCT_DEFINITION_SHAPE ( 'NONE', 'NONE',  #188 ) ;
#178 = CIRCLE ( 'NONE', #168, 0.2500000000000000000 ) ;
#179 = DIRECTION ( 'NONE',  ( -0.000000000000000000, -1.000000000000000000, -0.000000000000000000 ) ) ;
#180 = CARTESIAN_POINT ( 'NONE',  ( 0.000000000000000000, 1.250000000000000000, 0.000000000000000000 ) ) ;
#181 = EDGE_CURVE ( 'NONE', #138, #211, #111, .T. ) ;
#182 = CARTESIAN_POINT ( 'NONE',  ( 0.000000000000000000, 1.250000000000000000, -0.2500000000000000000 ) ) ;
#183 = EDGE_LOOP ( 'NONE', ( #140, #49 ) ) ;
#184 = STYLED_ITEM ( 'NONE', ( #233 ), #194 ) ;
#185 = EDGE_LOOP ( 'NONE', ( #304, #68 ) ) ;
#186 = CARTESIAN_POINT ( 'NONE',  ( -6.123233995736772199E-17, 3.000000000000000444, 0.000000000000000000 ) ) ;
#187 = VERTEX_POINT ( 'NONE', #182 ) ;
#188 = PRODUCT_DEFINITION ( 'UNKNOWN', '', #105, #101 ) ;
#189 = PRESENTATION_LAYER_ASSIGNMENT (  '', '', ( #184 ) ) ;
#190 = SURFACE_SIDE_STYLE ('',( #240 ) ) ;
#191 = EDGE_CURVE ( 'NONE', #66, #24, #109, .T. ) ;
#192 = SURFACE_STYLE_FILL_AREA ( #102 ) ;
#193 = PLANE ( 'NONE',  #3 ) ;
#194 = ADVANCED_FACE ( 'NONE', ( #234 ), #23, .T. ) ;
#195 = FACE_OUTER_BOUND ( 'NONE', #185, .T. ) ;
#196 = DIRECTION ( 'NONE',  ( 1.000000000000000000, 0.000000000000000000, 0.000000000000000000 ) ) ;
#197 = VECTOR ( 'NONE', #88, 39.37007874015748143 ) ;
#198 = PRESENTATION_LAYER_ASSIGNMENT (  '', '', ( #50 ) ) ;
#199 = APPLICATION_PROTOCOL_DEFINITION ( 'draft international standard', 'automotive_design', 1998, #238 ) ;
#200 = FILL_AREA_STYLE ('',( #106 ) ) ;
#201 = DIRECTION ( 'NONE',  ( -1.000000000000000000, 0.000000000000000000, 0.000000000000000000 ) ) ;
#202 = DIRECTION ( 'NONE',  ( 0.000000000000000000, 0.000000000000000000, -1.000000000000000000 ) ) ;
#203 = CARTESIAN_POINT ( 'NONE',  ( -0.2500000000000001110, 3.000000000000000444, 0.000000000000000000 ) ) ;
#204 = DIRECTION ( 'NONE',  ( -0.000000000000000000, -1.000000000000000000, -0.000000000000000000 ) ) ;
#205 = DIMENSIONAL_EXPONENTS ( 1.000000000000000000, 0.000000000000000000, 0.000000000000000000, 0.000000000000000000, 0.000000000000000000, 0.000000000000000000, 0.000000000000000000 ) ;
#206 = ORIENTED_EDGE ( 'NONE', *, *, #143, .T. ) ;
#207 = FILL_AREA_STYLE ('',( #113 ) ) ;
#208 = DIRECTION ( 'NONE',  ( -1.000000000000000000, 0.000000000000000000, 0.000000000000000000 ) ) ;
#209 = ORIENTED_EDGE ( 'NONE', *, *, #181, .T. ) ;
#210 =( GEOMETRIC_REPRESENTATION_CONTEXT ( 3 ) GLOBAL_UNCERTAINTY_ASSIGNED_CONTEXT ( ( #16 ) ) GLOBAL_UNIT_ASSIGNED_CONTEXT ( ( #29, #264, #268 ) ) REPRESENTATION_CONTEXT ( 'NONE', 'WORKASPACE' ) );
#211 = VERTEX_POINT ( 'NONE', #266 ) ;
#212 = ORIENTED_EDGE ( 'NONE', *, *, #58, .T. ) ;
#213 = FILL_AREA_STYLE ('',( #69 ) ) ;
#214 = CARTESIAN_POINT ( 'NONE',  ( 0.000000000000000000, 0.000000000000000000, 0.000000000000000000 ) ) ;
#215 =( CONVERSION_BASED_UNIT ( 'INCH', #76 ) LENGTH_UNIT ( ) NAMED_UNIT ( #156 ) );
#216 = STYLED_ITEM ( 'NONE', ( #54 ), #117 ) ;
#217 = SURFACE_STYLE_FILL_AREA ( #307 ) ;
#218 = CARTESIAN_POINT ( 'NONE',  ( 0.000000000000000000, 1.250000000000000000, 0.000000000000000000 ) ) ;
#219 = PRESENTATION_STYLE_ASSIGNMENT (( #174 ) ) ;
#220 = SURFACE_STYLE_USAGE ( .BOTH. , #153 ) ;
#221 = DIRECTION ( 'NONE',  ( 3.498990854706726443E-17, -1.000000000000000000, 0.000000000000000000 ) ) ;
#222 = AXIS2_PLACEMENT_3D ( 'NONE', #253, #204, #202 ) ;
#223 = CARTESIAN_POINT ( 'NONE',  ( 3.061616997868383018E-17, 1.250000000000000000, 0.2500000000000000000 ) ) ;
#224 = DIRECTION ( 'NONE',  ( -0.000000000000000000, -1.000000000000000000, -0.000000000000000000 ) ) ;
#225 = PRESENTATION_STYLE_ASSIGNMENT (( #220 ) ) ;
#226 =( NAMED_UNIT ( * ) SI_UNIT ( $, .STERADIAN. ) SOLID_ANGLE_UNIT ( ) );
#227 = LENGTH_MEASURE_WITH_UNIT ( LENGTH_MEASURE( 0.02539999999999999897 ), #18 );
#228 = CIRCLE ( 'NONE', #27, 0.2500000000000000000 ) ;
#229 = MECHANICAL_DESIGN_GEOMETRIC_PRESENTATION_REPRESENTATION (  '', ( #176 ), #305 ) ;
#230 = VECTOR ( 'NONE', #146, 39.37007874015748143 ) ;
#231 = DIMENSIONAL_EXPONENTS ( 1.000000000000000000, 0.000000000000000000, 0.000000000000000000, 0.000000000000000000, 0.000000000000000000, 0.000000000000000000, 0.000000000000000000 ) ;
#232 = CARTESIAN_POINT ( 'NONE',  ( 0.000000000000000000, 1.250000000000000000, 0.000000000000000000 ) ) ;
#233 = PRESENTATION_STYLE_ASSIGNMENT (( #21 ) ) ;
#234 = FACE_OUTER_BOUND ( 'NONE', #139, .T. ) ;
#235 = EDGE_LOOP ( 'NONE', ( #67, #261, #308, #92 ) ) ;
#236 = ORIENTED_EDGE ( 'NONE', *, *, #298, .F. ) ;
#237 = DIRECTION ( 'NONE',  ( -3.498990854706726443E-17, 1.000000000000000000, -0.000000000000000000 ) ) ;
#238 = APPLICATION_CONTEXT ( 'automotive_design' ) ;
#239 = LINE ( 'NONE', #203, #64 ) ;
#240 = SURFACE_STYLE_FILL_AREA ( #213 ) ;
#241 = FILL_AREA_STYLE_COLOUR ( '', #70 ) ;
#242 =( NAMED_UNIT ( * ) PLANE_ANGLE_UNIT ( ) SI_UNIT ( $, .RADIAN. ) );
#243 = ADVANCED_FACE ( 'NONE', ( #163 ), #95, .T. ) ;
#244 = FACE_OUTER_BOUND ( 'NONE', #26, .T. ) ;
#245 = PRESENTATION_LAYER_ASSIGNMENT (  '', '', ( #216 ) ) ;
#246 = COLOUR_RGB ( '',1.000000000000000000, 0.000000000000000000, 0.000000000000000000 ) ;
#247 = FACE_OUTER_BOUND ( 'NONE', #116, .T. ) ;
#248 = ORIENTED_EDGE ( 'NONE', *, *, #166, .F. ) ;
#249 = EDGE_CURVE ( 'NONE', #211, #300, #135, .T. ) ;
#250 = FILL_AREA_STYLE ('',( #131 ) ) ;
#251 = SURFACE_SIDE_STYLE ('',( #83 ) ) ;
#252 = EDGE_CURVE ( 'NONE', #187, #300, #145, .T. ) ;
#253 = CARTESIAN_POINT ( 'NONE',  ( 0.000000000000000000, 0.000000000000000000, 0.000000000000000000 ) ) ;
#254 = UNCERTAINTY_MEASURE_WITH_UNIT (LENGTH_MEASURE( 1.000000000000000082E-05 ), #93, 'distance_accuracy_value', 'NONE');
#255 = CARTESIAN_POINT ( 'NONE',  ( 0.000000000000000000, 1.250000000000000000, 0.000000000000000000 ) ) ;
#256 = ADVANCED_FACE ( 'NONE', ( #247 ), #53, .T. ) ;
#257 = CARTESIAN_POINT ( 'NONE',  ( 0.2500000000000000000, 3.000000000000000444, 3.061616997868383634E-17 ) ) ;
#258 = SURFACE_STYLE_FILL_AREA ( #207 ) ;
#259 = CLOSED_SHELL ( 'NONE', ( #256, #288, #15, #281 ) ) ;
#260 = CARTESIAN_POINT ( 'NONE',  ( 0.000000000000000000, 1.250000000000000000, 0.000000000000000000 ) ) ;
#261 = ORIENTED_EDGE ( 'NONE', *, *, #191, .T. ) ;
#262 = DIMENSIONAL_EXPONENTS ( 1.000000000000000000, 0.000000000000000000, 0.000000000000000000, 0.000000000000000000, 0.000000000000000000, 0.000000000000000000, 0.000000000000000000 ) ;
#263 = VERTEX_POINT ( 'NONE', #103 ) ;
#264 =( NAMED_UNIT ( * ) PLANE_ANGLE_UNIT ( ) SI_UNIT ( $, .RADIAN. ) );
#265 = MECHANICAL_DESIGN_GEOMETRIC_PRESENTATION_REPRESENTATION (  '', ( #216 ), #122 ) ;
#266 = CARTESIAN_POINT ( 'NONE',  ( 3.061616997868383018E-17, 0.000000000000000000, 0.2500000000000000000 ) ) ;
#267 = AXIS2_PLACEMENT_3D ( 'NONE', #118, #2, #144 ) ;
#268 =( NAMED_UNIT ( * ) SI_UNIT ( $, .STERADIAN. ) SOLID_ANGLE_UNIT ( ) );
#269 = CARTESIAN_POINT ( 'NONE',  ( 0.2499999999999999722, 3.000000000000000444, 3.061616997868383634E-17 ) ) ;
#270 = COLOUR_RGB ( '',1.000000000000000000, 0.000000000000000000, 0.000000000000000000 ) ;
#271 = SURFACE_STYLE_FILL_AREA ( #250 ) ;
#272 = DIRECTION ( 'NONE',  ( -3.498990854706726443E-17, 1.000000000000000000, -0.000000000000000000 ) ) ;
#273 = SHAPE_DEFINITION_REPRESENTATION ( #177, #100 ) ;
#274 = DIRECTION ( 'NONE',  ( 0.000000000000000000, 0.000000000000000000, -1.000000000000000000 ) ) ;
#275 = AXIS2_PLACEMENT_3D ( 'NONE', #287, #278, #85 ) ;
#276 = DIRECTION ( 'NONE',  ( 0.000000000000000000, 0.000000000000000000, -1.000000000000000000 ) ) ;
#277 = UNCERTAINTY_MEASURE_WITH_UNIT (LENGTH_MEASURE( 1.000000000000000082E-05 ), #14, 'distance_accuracy_value', 'NONE');
#278 = DIRECTION ( 'NONE',  ( -3.498990854706726443E-17, 1.000000000000000000, -0.000000000000000000 ) ) ;
#279 = ORIENTED_EDGE ( 'NONE', *, *, #152, .T. ) ;
#280 = AXIS2_PLACEMENT_3D ( 'NONE', #63, #62, #157 ) ;
#281 = ADVANCED_FACE ( 'NONE', ( #244 ), #291, .F. ) ;
#282 = ORIENTED_EDGE ( 'NONE', *, *, #252, .F. ) ;
#283 = EDGE_LOOP ( 'NONE', ( #114, #279, #94, #306 ) ) ;
#284 = DIRECTION ( 'NONE',  ( 0.000000000000000000, 0.000000000000000000, -1.000000000000000000 ) ) ;
#285 = AXIS2_PLACEMENT_3D ( 'NONE', #180, #296, #208 ) ;
#286 =( LENGTH_UNIT ( ) NAMED_UNIT ( * ) SI_UNIT ( $, .METRE. ) );
#287 = CARTESIAN_POINT ( 'NONE',  ( -6.123233995736772199E-17, 3.000000000000000444, 0.000000000000000000 ) ) ;
#288 = ADVANCED_FACE ( 'NONE', ( #57 ), #193, .F. ) ;
#289 = SURFACE_SIDE_STYLE ('',( #192 ) ) ;
#290 = EDGE_CURVE ( 'NONE', #187, #138, #178, .T. ) ;
#291 = PLANE ( 'NONE',  #110 ) ;
#292 = CIRCLE ( 'NONE', #285, 0.2500000000000000000 ) ;
#293 = FACE_OUTER_BOUND ( 'NONE', #159, .T. ) ;
#294 = SURFACE_STYLE_USAGE ( .BOTH. , #289 ) ;
#295 = COLOUR_RGB ( '',0.7921568627450980005, 0.8196078431372548767, 0.9333333333333333481 ) ;
#296 = DIRECTION ( 'NONE',  ( -3.498990854706726443E-17, 1.000000000000000000, -0.000000000000000000 ) ) ;
#297 = AXIS2_PLACEMENT_3D ( 'NONE', #10, #154, #196 ) ;
#298 = EDGE_CURVE ( 'NONE', #300, #211, #19, .T. ) ;
#299 = CARTESIAN_POINT ( 'NONE',  ( 3.061616997868383018E-17, 0.000000000000000000, 0.2500000000000000000 ) ) ;
#300 = VERTEX_POINT ( 'NONE', #170 ) ;
#301 = EDGE_CURVE ( 'NONE', #66, #48, #35, .T. ) ;
#302 = SURFACE_SIDE_STYLE ('',( #258 ) ) ;
#303 =( LENGTH_UNIT ( ) NAMED_UNIT ( * ) SI_UNIT ( $, .METRE. ) );
#304 = ORIENTED_EDGE ( 'NONE', *, *, #290, .F. ) ;
#305 =( GEOMETRIC_REPRESENTATION_CONTEXT ( 3 ) GLOBAL_UNCERTAINTY_ASSIGNED_CONTEXT ( ( #277 ) ) GLOBAL_UNIT_ASSIGNED_CONTEXT ( ( #14, #38, #128 ) ) REPRESENTATION_CONTEXT ( 'NONE', 'WORKASPACE' ) );
#306 = ORIENTED_EDGE ( 'NONE', *, *, #249, .F. ) ;
#307 = FILL_AREA_STYLE ('',( #241 ) ) ;
#308 = ORIENTED_EDGE ( 'NONE', *, *, #124, .T. ) ;
#309 = ADVANCED_FACE ( 'NONE', ( #195 ), #36, .T. ) ;
ENDSEC;
END-ISO-10303-21;
