ISO-10303-21;
HEADER;
FILE_DESCRIPTION (( 'STEP AP214' ),
    '1' );
FILE_NAME ('84778.STEP',
    '2023-07-05T16:25:17',
    ( '' ),
    ( '' ),
    'SwSTEP 2.0',
    'SolidWorks 2023',
    '' );
FILE_SCHEMA (( 'AUTOMOTIVE_DESIGN' ));
ENDSEC;

DATA;
#1 = UNCERTAINTY_MEASURE_WITH_UNIT (LENGTH_MEASURE( 1.000000000000000082E-05 ), #54, 'distance_accuracy_value', 'NONE');
#2 = MECHANICAL_DESIGN_GEOMETRIC_PRESENTATION_REPRESENTATION (  '', ( #164 ), #91 ) ;
#3 = FILL_AREA_STYLE_COLOUR ( '', #106 ) ;
#4 = DIRECTION ( 'NONE',  ( -9.633888153292509464E-17, 1.000000000000000000, -0.000000000000000000 ) ) ;
#5 = FACE_OUTER_BOUND ( 'NONE', #227, .T. ) ;
#6 = PRESENTATION_STYLE_ASSIGNMENT (( #8 ) ) ;
#7 = CLOSED_SHELL ( 'NONE', ( #22, #82, #9 ) ) ;
#8 = SURFACE_STYLE_USAGE ( .BOTH. , #194 ) ;
#9 = ADVANCED_FACE ( 'NONE', ( #123 ), #113, .T. ) ;
#10 = COLOUR_RGB ( '',1.000000000000000000, 0.000000000000000000, 0.000000000000000000 ) ;
#11 = PRODUCT_DEFINITION_SHAPE ( 'NONE', 'NONE',  #255 ) ;
#12 =( LENGTH_UNIT ( ) NAMED_UNIT ( * ) SI_UNIT ( $, .METRE. ) );
#13 = SURFACE_SIDE_STYLE ('',( #254 ) ) ;
#14 = STYLED_ITEM ( 'NONE', ( #231 ), #9 ) ;
#15 = AXIS2_PLACEMENT_3D ( 'NONE', #257, #136, #180 ) ;
#16 = ADVANCED_BREP_SHAPE_REPRESENTATION ( '84778', ( #168, #250, #232 ), #199 ) ;
#17 = ORIENTED_EDGE ( 'NONE', *, *, #97, .F. ) ;
#18 =( GEOMETRIC_REPRESENTATION_CONTEXT ( 3 ) GLOBAL_UNCERTAINTY_ASSIGNED_CONTEXT ( ( #68 ) ) GLOBAL_UNIT_ASSIGNED_CONTEXT ( ( #132, #252, #247 ) ) REPRESENTATION_CONTEXT ( 'NONE', 'WORKASPACE' ) );
#19 =( CONVERSION_BASED_UNIT ( 'INCH', #57 ) LENGTH_UNIT ( ) NAMED_UNIT ( #162 ) );
#20 = VERTEX_POINT ( 'NONE', #29 ) ;
#21 = EDGE_LOOP ( 'NONE', ( #17, #147, #107 ) ) ;
#22 = ADVANCED_FACE ( 'NONE', ( #197 ), #172, .T. ) ;
#23 = PLANE ( 'NONE',  #193 ) ;
#24 = ORIENTED_EDGE ( 'NONE', *, *, #134, .T. ) ;
#25 =( LENGTH_UNIT ( ) NAMED_UNIT ( * ) SI_UNIT ( $, .METRE. ) );
#26 =( GEOMETRIC_REPRESENTATION_CONTEXT ( 3 ) GLOBAL_UNCERTAINTY_ASSIGNED_CONTEXT ( ( #171 ) ) GLOBAL_UNIT_ASSIGNED_CONTEXT ( ( #19, #101, #41 ) ) REPRESENTATION_CONTEXT ( 'NONE', 'WORKASPACE' ) );
#27 = DIRECTION ( 'NONE',  ( 0.000000000000000000, 0.000000000000000000, 1.000000000000000000 ) ) ;
#28 =( NAMED_UNIT ( * ) SI_UNIT ( $, .STERADIAN. ) SOLID_ANGLE_UNIT ( ) );
#29 = CARTESIAN_POINT ( 'NONE',  ( 0.000000000000000000, 0.000000000000000000, 0.000000000000000000 ) ) ;
#30 = PRESENTATION_STYLE_ASSIGNMENT (( #256 ) ) ;
#31 = CARTESIAN_POINT ( 'NONE',  ( 0.000000000000000000, 0.000000000000000000, 0.000000000000000000 ) ) ;
#32 = CARTESIAN_POINT ( 'NONE',  ( 0.000000000000000000, 0.1562499999999995004, 0.1562500000000000000 ) ) ;
#33 = SURFACE_STYLE_USAGE ( .BOTH. , #13 ) ;
#34 = EDGE_CURVE ( 'NONE', #20, #43, #233, .T. ) ;
#35 =( NAMED_UNIT ( * ) PLANE_ANGLE_UNIT ( ) SI_UNIT ( $, .RADIAN. ) );
#36 = AXIS2_PLACEMENT_3D ( 'NONE', #234, #98, #114 ) ;
#37 = CYLINDRICAL_SURFACE ( 'NONE', #15, 0.1562499999999998057 ) ;
#38 = UNCERTAINTY_MEASURE_WITH_UNIT (LENGTH_MEASURE( 1.000000000000000082E-05 ), #178, 'distance_accuracy_value', 'NONE');
#39 = CIRCLE ( 'NONE', #253, 0.1562499999999999445 ) ;
#40 = ORIENTED_EDGE ( 'NONE', *, *, #179, .F. ) ;
#41 =( NAMED_UNIT ( * ) SI_UNIT ( $, .STERADIAN. ) SOLID_ANGLE_UNIT ( ) );
#42 = DIRECTION ( 'NONE',  ( -9.633888153292509464E-17, 1.000000000000000000, -0.000000000000000000 ) ) ;
#43 = VERTEX_POINT ( 'NONE', #73 ) ;
#44 = EDGE_LOOP ( 'NONE', ( #140, #104 ) ) ;
#45 = PRODUCT ( '84778', '84778', '', ( #60 ) ) ;
#46 = CARTESIAN_POINT ( 'NONE',  ( 0.000000000000000000, 39.37007874015748143, 0.000000000000000000 ) ) ;
#47 = FACE_OUTER_BOUND ( 'NONE', #44, .T. ) ;
#48 = STYLED_ITEM ( 'NONE', ( #261 ), #250 ) ;
#49 = FILL_AREA_STYLE_COLOUR ( '', #246 ) ;
#50 =( LENGTH_UNIT ( ) NAMED_UNIT ( * ) SI_UNIT ( $, .METRE. ) );
#51 = EDGE_CURVE ( 'NONE', #87, #79, #95, .T. ) ;
#52 = DIRECTION ( 'NONE',  ( 0.000000000000000000, 1.000000000000000000, 0.000000000000000000 ) ) ;
#53 = DIRECTION ( 'NONE',  ( -1.000000000000000000, 0.000000000000000000, 0.000000000000000000 ) ) ;
#54 =( CONVERSION_BASED_UNIT ( 'INCH', #137 ) LENGTH_UNIT ( ) NAMED_UNIT ( #64 ) );
#55 = AXIS2_PLACEMENT_3D ( 'NONE', #181, #61, #125 ) ;
#56 = FILL_AREA_STYLE ('',( #3 ) ) ;
#57 = LENGTH_MEASURE_WITH_UNIT ( LENGTH_MEASURE( 0.02539999999999999897 ), #92 );
#58 = ORIENTED_EDGE ( 'NONE', *, *, #264, .F. ) ;
#59 = AXIS2_PLACEMENT_3D ( 'NONE', #105, #167, #245 ) ;
#60 = PRODUCT_CONTEXT ( 'NONE', #222, 'mechanical' ) ;
#61 = DIRECTION ( 'NONE',  ( -0.000000000000000000, -1.000000000000000000, -0.000000000000000000 ) ) ;
#62 = EDGE_LOOP ( 'NONE', ( #40, #223, #158, #184 ) ) ;
#63 = DIRECTION ( 'NONE',  ( -9.633888153292509464E-17, 1.000000000000000000, 0.000000000000000000 ) ) ;
#64 = DIMENSIONAL_EXPONENTS ( 1.000000000000000000, 0.000000000000000000, 0.000000000000000000, 0.000000000000000000, 0.000000000000000000, 0.000000000000000000, 0.000000000000000000 ) ;
#65 = ORIENTED_EDGE ( 'NONE', *, *, #102, .F. ) ;
#66 = DIMENSIONAL_EXPONENTS ( 1.000000000000000000, 0.000000000000000000, 0.000000000000000000, 0.000000000000000000, 0.000000000000000000, 0.000000000000000000, 0.000000000000000000 ) ;
#67 =( CONVERSION_BASED_UNIT ( 'INCH', #173 ) LENGTH_UNIT ( ) NAMED_UNIT ( #66 ) );
#68 = UNCERTAINTY_MEASURE_WITH_UNIT (LENGTH_MEASURE( 1.000000000000000082E-05 ), #132, 'distance_accuracy_value', 'NONE');
#69 = FILL_AREA_STYLE ('',( #49 ) ) ;
#70 = VECTOR ( 'NONE', #221, 39.37007874015748143 ) ;
#71 = VECTOR ( 'NONE', #174, 39.37007874015748143 ) ;
#72 = DIRECTION ( 'NONE',  ( 8.659560562354947649E-17, 0.7071067811865464625, -0.7071067811865486830 ) ) ;
#73 = CARTESIAN_POINT ( 'NONE',  ( 1.913510623667739463E-17, 0.1562499999999995004, -0.1562500000000000000 ) ) ;
#74 = PRESENTATION_STYLE_ASSIGNMENT (( #33 ) ) ;
#75 = PRODUCT_DEFINITION_FORMATION_WITH_SPECIFIED_SOURCE ( 'ANY', '', #45, .NOT_KNOWN. ) ;
#76 =( LENGTH_UNIT ( ) NAMED_UNIT ( * ) SI_UNIT ( $, .METRE. ) );
#77 =( NAMED_UNIT ( * ) PLANE_ANGLE_UNIT ( ) SI_UNIT ( $, .RADIAN. ) );
#78 = EDGE_CURVE ( 'NONE', #143, #43, #219, .T. ) ;
#79 = VERTEX_POINT ( 'NONE', #150 ) ;
#80 = CARTESIAN_POINT ( 'NONE',  ( 0.1562500000000000000, 2.500000000000000000, 1.913510623667737923E-17 ) ) ;
#81 = AXIS2_PLACEMENT_3D ( 'NONE', #149, #131, #152 ) ;
#82 = ADVANCED_FACE ( 'NONE', ( #47 ), #93, .T. ) ;
#83 = UNCERTAINTY_MEASURE_WITH_UNIT (LENGTH_MEASURE( 1.000000000000000082E-05 ), #121, 'distance_accuracy_value', 'NONE');
#84 = LINE ( 'NONE', #86, #177 ) ;
#85 = VERTEX_POINT ( 'NONE', #80 ) ;
#86 = CARTESIAN_POINT ( 'NONE',  ( 0.1562499999999998612, 2.500000000000000000, 1.913510623667736998E-17 ) ) ;
#87 = VERTEX_POINT ( 'NONE', #200 ) ;
#88 = AXIS2_PLACEMENT_3D ( 'NONE', #215, #236, #242 ) ;
#89 = CARTESIAN_POINT ( 'NONE',  ( 0.000000000000000000, 0.000000000000000000, 0.000000000000000000 ) ) ;
#90 = EDGE_CURVE ( 'NONE', #85, #100, #188, .T. ) ;
#91 =( GEOMETRIC_REPRESENTATION_CONTEXT ( 3 ) GLOBAL_UNCERTAINTY_ASSIGNED_CONTEXT ( ( #1 ) ) GLOBAL_UNIT_ASSIGNED_CONTEXT ( ( #54, #77, #244 ) ) REPRESENTATION_CONTEXT ( 'NONE', 'WORKASPACE' ) );
#92 =( LENGTH_UNIT ( ) NAMED_UNIT ( * ) SI_UNIT ( $, .METRE. ) );
#93 = PLANE ( 'NONE',  #36 ) ;
#94 = CIRCLE ( 'NONE', #88, 0.1562499999999996669 ) ;
#95 = CIRCLE ( 'NONE', #119, 0.1562499999999996669 ) ;
#96 = DIRECTION ( 'NONE',  ( -9.633888153292509464E-17, 1.000000000000000000, -0.000000000000000000 ) ) ;
#97 = EDGE_CURVE ( 'NONE', #20, #143, #201, .T. ) ;
#98 = DIRECTION ( 'NONE',  ( 0.000000000000000000, 1.000000000000000000, 0.000000000000000000 ) ) ;
#99 = AXIS2_PLACEMENT_3D ( 'NONE', #148, #52, #27 ) ;
#100 = VERTEX_POINT ( 'NONE', #176 ) ;
#101 =( NAMED_UNIT ( * ) PLANE_ANGLE_UNIT ( ) SI_UNIT ( $, .RADIAN. ) );
#102 = EDGE_CURVE ( 'NONE', #100, #85, #39, .T. ) ;
#103 = ORIENTED_EDGE ( 'NONE', *, *, #90, .T. ) ;
#104 = ORIENTED_EDGE ( 'NONE', *, *, #182, .F. ) ;
#105 = CARTESIAN_POINT ( 'NONE',  ( 0.1562500000000000000, 2.500000000000000000, 0.000000000000000000 ) ) ;
#106 = COLOUR_RGB ( '',0.7921568627450980005, 0.8196078431372548767, 0.9333333333333333481 ) ;
#107 = ORIENTED_EDGE ( 'NONE', *, *, #182, .T. ) ;
#108 = COLOUR_RGB ( '',0.7921568627450980005, 0.8196078431372548767, 0.9333333333333333481 ) ;
#109 = FACE_OUTER_BOUND ( 'NONE', #237, .T. ) ;
#110 = ORIENTED_EDGE ( 'NONE', *, *, #134, .F. ) ;
#111 =( NAMED_UNIT ( * ) PLANE_ANGLE_UNIT ( ) SI_UNIT ( $, .RADIAN. ) );
#112 = FILL_AREA_STYLE_COLOUR ( '', #10 ) ;
#113 = CONICAL_SURFACE ( 'NONE', #99, 39.37007874015760223, 0.7853981633974498333 ) ;
#114 = DIRECTION ( 'NONE',  ( 0.000000000000000000, -0.000000000000000000, 1.000000000000000000 ) ) ;
#115 = DIRECTION ( 'NONE',  ( 1.000000000000000000, 0.000000000000000000, 0.000000000000000000 ) ) ;
#116 = FILL_AREA_STYLE ('',( #259 ) ) ;
#117 = CIRCLE ( 'NONE', #55, 0.1562499999999999722 ) ;
#118 = SHAPE_DEFINITION_REPRESENTATION ( #11, #16 ) ;
#119 = AXIS2_PLACEMENT_3D ( 'NONE', #169, #249, #170 ) ;
#120 = EDGE_LOOP ( 'NONE', ( #24, #262, #65, #58 ) ) ;
#121 =( CONVERSION_BASED_UNIT ( 'INCH', #185 ) LENGTH_UNIT ( ) NAMED_UNIT ( #243 ) );
#122 = DIMENSIONAL_EXPONENTS ( 1.000000000000000000, 0.000000000000000000, 0.000000000000000000, 0.000000000000000000, 0.000000000000000000, 0.000000000000000000, 0.000000000000000000 ) ;
#123 = FACE_OUTER_BOUND ( 'NONE', #126, .T. ) ;
#124 = DIRECTION ( 'NONE',  ( -1.000000000000000000, 0.000000000000000000, 0.000000000000000000 ) ) ;
#125 = DIRECTION ( 'NONE',  ( 0.000000000000000000, 0.000000000000000000, -1.000000000000000000 ) ) ;
#126 = EDGE_LOOP ( 'NONE', ( #206, #183, #225 ) ) ;
#127 = DIRECTION ( 'NONE',  ( 0.000000000000000000, 0.000000000000000000, 1.000000000000000000 ) ) ;
#128 = ADVANCED_FACE ( 'NONE', ( #161 ), #37, .T. ) ;
#129 = CLOSED_SHELL ( 'NONE', ( #196, #191, #128, #205 ) ) ;
#130 = AXIS2_PLACEMENT_3D ( 'NONE', #138, #217, #53 ) ;
#131 = DIRECTION ( 'NONE',  ( -0.000000000000000000, -1.000000000000000000, -0.000000000000000000 ) ) ;
#132 =( CONVERSION_BASED_UNIT ( 'INCH', #228 ) LENGTH_UNIT ( ) NAMED_UNIT ( #122 ) );
#133 = FILL_AREA_STYLE ('',( #216 ) ) ;
#134 = EDGE_CURVE ( 'NONE', #79, #87, #94, .T. ) ;
#135 = STYLED_ITEM ( 'NONE', ( #6 ), #22 ) ;
#136 = DIRECTION ( 'NONE',  ( -9.633888153292509464E-17, 1.000000000000000000, -0.000000000000000000 ) ) ;
#137 = LENGTH_MEASURE_WITH_UNIT ( LENGTH_MEASURE( 0.02539999999999999897 ), #12 );
#138 = CARTESIAN_POINT ( 'NONE',  ( 6.123233995736772199E-17, 2.500000000000000000, 0.000000000000000000 ) ) ;
#139 = PRESENTATION_LAYER_ASSIGNMENT (  '', '', ( #241 ) ) ;
#140 = ORIENTED_EDGE ( 'NONE', *, *, #78, .F. ) ;
#141 = VECTOR ( 'NONE', #72, 39.37007874015748143 ) ;
#142 = AXIS2_PLACEMENT_3D ( 'NONE', #187, #42, #124 ) ;
#143 = VERTEX_POINT ( 'NONE', #32 ) ;
#144 =( NAMED_UNIT ( * ) PLANE_ANGLE_UNIT ( ) SI_UNIT ( $, .RADIAN. ) );
#145 = LINE ( 'NONE', #175, #70 ) ;
#146 = CARTESIAN_POINT ( 'NONE',  ( 2.870265935501609472E-16, 0.1562499999999995004, 0.000000000000000000 ) ) ;
#147 = ORIENTED_EDGE ( 'NONE', *, *, #34, .T. ) ;
#148 = CARTESIAN_POINT ( 'NONE',  ( 0.000000000000000000, 39.37007874015748143, 0.000000000000000000 ) ) ;
#149 = CARTESIAN_POINT ( 'NONE',  ( 0.000000000000000000, 0.1562499999999995004, 0.000000000000000000 ) ) ;
#150 = CARTESIAN_POINT ( 'NONE',  ( -0.1562499999999993894, 0.1562499999999994726, 0.000000000000000000 ) ) ;
#151 = AXIS2_PLACEMENT_3D ( 'NONE', #46, #229, #127 ) ;
#152 = DIRECTION ( 'NONE',  ( 0.000000000000000000, 0.000000000000000000, -1.000000000000000000 ) ) ;
#153 = FILL_AREA_STYLE ('',( #112 ) ) ;
#154 =( NAMED_UNIT ( * ) SI_UNIT ( $, .STERADIAN. ) SOLID_ANGLE_UNIT ( ) );
#155 = COLOUR_RGB ( '',1.000000000000000000, 0.000000000000000000, 0.000000000000000000 ) ;
#156 = DIRECTION ( 'NONE',  ( -1.000000000000000000, 0.000000000000000000, 0.000000000000000000 ) ) ;
#157 = CARTESIAN_POINT ( 'NONE',  ( 0.000000000000000000, 0.000000000000000000, 0.000000000000000000 ) ) ;
#158 = ORIENTED_EDGE ( 'NONE', *, *, #264, .T. ) ;
#159 = APPLICATION_PROTOCOL_DEFINITION ( 'draft international standard', 'automotive_design', 1998, #222 ) ;
#160 = SURFACE_SIDE_STYLE ('',( #203 ) ) ;
#161 = FACE_OUTER_BOUND ( 'NONE', #62, .T. ) ;
#162 = DIMENSIONAL_EXPONENTS ( 1.000000000000000000, 0.000000000000000000, 0.000000000000000000, 0.000000000000000000, 0.000000000000000000, 0.000000000000000000, 0.000000000000000000 ) ;
#163 = PRESENTATION_LAYER_ASSIGNMENT (  '', '', ( #135 ) ) ;
#164 = STYLED_ITEM ( 'NONE', ( #30 ), #168 ) ;
#165 =( NAMED_UNIT ( * ) SI_UNIT ( $, .STERADIAN. ) SOLID_ANGLE_UNIT ( ) );
#166 = FACE_OUTER_BOUND ( 'NONE', #120, .T. ) ;
#167 = DIRECTION ( 'NONE',  ( 9.633888153292509464E-17, -1.000000000000000000, 0.000000000000000000 ) ) ;
#168 = MANIFOLD_SOLID_BREP ( 'Revolve - Cutting Edge', #7 ) ;
#169 = CARTESIAN_POINT ( 'NONE',  ( 2.870265935501609472E-16, 0.1562499999999994726, 0.000000000000000000 ) ) ;
#170 = DIRECTION ( 'NONE',  ( -1.000000000000000000, 0.000000000000000000, 0.000000000000000000 ) ) ;
#171 = UNCERTAINTY_MEASURE_WITH_UNIT (LENGTH_MEASURE( 1.000000000000000082E-05 ), #19, 'distance_accuracy_value', 'NONE');
#172 = CONICAL_SURFACE ( 'NONE', #151, 39.37007874015760223, 0.7853981633974498333 ) ;
#173 = LENGTH_MEASURE_WITH_UNIT ( LENGTH_MEASURE( 0.02539999999999999897 ), #25 );
#174 = DIRECTION ( 'NONE',  ( 0.000000000000000000, 0.7071067811865464625, 0.7071067811865486830 ) ) ;
#175 = CARTESIAN_POINT ( 'NONE',  ( -0.1562499999999997224, 2.500000000000000000, 0.000000000000000000 ) ) ;
#176 = CARTESIAN_POINT ( 'NONE',  ( -0.1562499999999998612, 2.500000000000000000, 0.000000000000000000 ) ) ;
#177 = VECTOR ( 'NONE', #4, 39.37007874015748143 ) ;
#178 =( CONVERSION_BASED_UNIT ( 'INCH', #198 ) LENGTH_UNIT ( ) NAMED_UNIT ( #224 ) );
#179 = EDGE_CURVE ( 'NONE', #87, #85, #84, .T. ) ;
#180 = DIRECTION ( 'NONE',  ( -1.000000000000000000, 0.000000000000000000, 0.000000000000000000 ) ) ;
#181 = CARTESIAN_POINT ( 'NONE',  ( 0.000000000000000000, 0.1562499999999995004, 0.000000000000000000 ) ) ;
#182 = EDGE_CURVE ( 'NONE', #43, #143, #117, .T. ) ;
#183 = ORIENTED_EDGE ( 'NONE', *, *, #97, .T. ) ;
#184 = ORIENTED_EDGE ( 'NONE', *, *, #90, .F. ) ;
#185 = LENGTH_MEASURE_WITH_UNIT ( LENGTH_MEASURE( 0.02539999999999999897 ), #220 );
#186 = MECHANICAL_DESIGN_GEOMETRIC_PRESENTATION_REPRESENTATION (  '', ( #241 ), #218 ) ;
#187 = CARTESIAN_POINT ( 'NONE',  ( 6.123233995736772199E-17, 2.500000000000000000, 0.000000000000000000 ) ) ;
#188 = CIRCLE ( 'NONE', #130, 0.1562499999999999445 ) ;
#189 = CYLINDRICAL_SURFACE ( 'NONE', #142, 0.1562499999999998057 ) ;
#190 = SURFACE_STYLE_FILL_AREA ( #153 ) ;
#191 = ADVANCED_FACE ( 'NONE', ( #109 ), #23, .F. ) ;
#192 = SURFACE_STYLE_FILL_AREA ( #69 ) ;
#193 = AXIS2_PLACEMENT_3D ( 'NONE', #146, #63, #226 ) ;
#194 = SURFACE_SIDE_STYLE ('',( #192 ) ) ;
#195 = UNCERTAINTY_MEASURE_WITH_UNIT (LENGTH_MEASURE( 1.000000000000000082E-05 ), #67, 'distance_accuracy_value', 'NONE');
#196 = ADVANCED_FACE ( 'NONE', ( #166 ), #189, .T. ) ;
#197 = FACE_OUTER_BOUND ( 'NONE', #21, .T. ) ;
#198 = LENGTH_MEASURE_WITH_UNIT ( LENGTH_MEASURE( 0.02539999999999999897 ), #76 );
#199 =( GEOMETRIC_REPRESENTATION_CONTEXT ( 3 ) GLOBAL_UNCERTAINTY_ASSIGNED_CONTEXT ( ( #83 ) ) GLOBAL_UNIT_ASSIGNED_CONTEXT ( ( #121, #144, #165 ) ) REPRESENTATION_CONTEXT ( 'NONE', 'WORKASPACE' ) );
#200 = CARTESIAN_POINT ( 'NONE',  ( 0.1562499999999999445, 0.1562499999999994726, 1.913510623667737614E-17 ) ) ;
#201 = LINE ( 'NONE', #157, #71 ) ;
#202 = SURFACE_STYLE_USAGE ( .BOTH. , #160 ) ;
#203 = SURFACE_STYLE_FILL_AREA ( #56 ) ;
#204 = PLANE ( 'NONE',  #59 ) ;
#205 = ADVANCED_FACE ( 'NONE', ( #5 ), #204, .F. ) ;
#206 = ORIENTED_EDGE ( 'NONE', *, *, #34, .F. ) ;
#207 = PRODUCT_DEFINITION_CONTEXT ( 'detailed design', #248, 'design' ) ;
#208 = PRESENTATION_LAYER_ASSIGNMENT (  '', '', ( #48 ) ) ;
#209 = PRESENTATION_LAYER_ASSIGNMENT (  '', '', ( #14 ) ) ;
#210 = PRESENTATION_LAYER_ASSIGNMENT (  '', '', ( #164 ) ) ;
#211 = PRODUCT_RELATED_PRODUCT_CATEGORY ( 'part', '', ( #45 ) ) ;
#212 = SURFACE_STYLE_USAGE ( .BOTH. , #251 ) ;
#213 = SURFACE_STYLE_FILL_AREA ( #133 ) ;
#214 =( GEOMETRIC_REPRESENTATION_CONTEXT ( 3 ) GLOBAL_UNCERTAINTY_ASSIGNED_CONTEXT ( ( #195 ) ) GLOBAL_UNIT_ASSIGNED_CONTEXT ( ( #67, #111, #28 ) ) REPRESENTATION_CONTEXT ( 'NONE', 'WORKASPACE' ) );
#215 = CARTESIAN_POINT ( 'NONE',  ( 2.870265935501609472E-16, 0.1562499999999994726, 0.000000000000000000 ) ) ;
#216 = FILL_AREA_STYLE_COLOUR ( '', #108 ) ;
#217 = DIRECTION ( 'NONE',  ( -9.633888153292509464E-17, 1.000000000000000000, -0.000000000000000000 ) ) ;
#218 =( GEOMETRIC_REPRESENTATION_CONTEXT ( 3 ) GLOBAL_UNCERTAINTY_ASSIGNED_CONTEXT ( ( #38 ) ) GLOBAL_UNIT_ASSIGNED_CONTEXT ( ( #178, #35, #154 ) ) REPRESENTATION_CONTEXT ( 'NONE', 'WORKASPACE' ) );
#219 = CIRCLE ( 'NONE', #81, 0.1562499999999999722 ) ;
#220 =( LENGTH_UNIT ( ) NAMED_UNIT ( * ) SI_UNIT ( $, .METRE. ) );
#221 = DIRECTION ( 'NONE',  ( -9.633888153292509464E-17, 1.000000000000000000, -0.000000000000000000 ) ) ;
#222 = APPLICATION_CONTEXT ( 'automotive_design' ) ;
#223 = ORIENTED_EDGE ( 'NONE', *, *, #51, .T. ) ;
#224 = DIMENSIONAL_EXPONENTS ( 1.000000000000000000, 0.000000000000000000, 0.000000000000000000, 0.000000000000000000, 0.000000000000000000, 0.000000000000000000, 0.000000000000000000 ) ;
#225 = ORIENTED_EDGE ( 'NONE', *, *, #78, .T. ) ;
#226 = DIRECTION ( 'NONE',  ( -1.000000000000000000, -9.633888153292509464E-17, 0.000000000000000000 ) ) ;
#227 = EDGE_LOOP ( 'NONE', ( #239, #103 ) ) ;
#228 = LENGTH_MEASURE_WITH_UNIT ( LENGTH_MEASURE( 0.02539999999999999897 ), #50 );
#229 = DIRECTION ( 'NONE',  ( 0.000000000000000000, 1.000000000000000000, 0.000000000000000000 ) ) ;
#230 = MECHANICAL_DESIGN_GEOMETRIC_PRESENTATION_REPRESENTATION (  '', ( #135 ), #18 ) ;
#231 = PRESENTATION_STYLE_ASSIGNMENT (( #212 ) ) ;
#232 = AXIS2_PLACEMENT_3D ( 'NONE', #31, #263, #115 ) ;
#233 = LINE ( 'NONE', #89, #141 ) ;
#234 = CARTESIAN_POINT ( 'NONE',  ( 0.000000000000000000, 0.1562499999999995004, 0.000000000000000000 ) ) ;
#235 = SURFACE_SIDE_STYLE ('',( #213 ) ) ;
#236 = DIRECTION ( 'NONE',  ( -9.633888153292509464E-17, 1.000000000000000000, -0.000000000000000000 ) ) ;
#237 = EDGE_LOOP ( 'NONE', ( #110, #265 ) ) ;
#238 = APPLICATION_PROTOCOL_DEFINITION ( 'draft international standard', 'automotive_design', 1998, #248 ) ;
#239 = ORIENTED_EDGE ( 'NONE', *, *, #102, .T. ) ;
#240 = MECHANICAL_DESIGN_GEOMETRIC_PRESENTATION_REPRESENTATION (  '', ( #48 ), #26 ) ;
#241 = STYLED_ITEM ( 'NONE', ( #74 ), #82 ) ;
#242 = DIRECTION ( 'NONE',  ( -1.000000000000000000, 0.000000000000000000, 0.000000000000000000 ) ) ;
#243 = DIMENSIONAL_EXPONENTS ( 1.000000000000000000, 0.000000000000000000, 0.000000000000000000, 0.000000000000000000, 0.000000000000000000, 0.000000000000000000, 0.000000000000000000 ) ;
#244 =( NAMED_UNIT ( * ) SI_UNIT ( $, .STERADIAN. ) SOLID_ANGLE_UNIT ( ) );
#245 = DIRECTION ( 'NONE',  ( 1.000000000000000000, 9.633888153292509464E-17, 0.000000000000000000 ) ) ;
#246 = COLOUR_RGB ( '',1.000000000000000000, 0.000000000000000000, 0.000000000000000000 ) ;
#247 =( NAMED_UNIT ( * ) SI_UNIT ( $, .STERADIAN. ) SOLID_ANGLE_UNIT ( ) );
#248 = APPLICATION_CONTEXT ( 'automotive_design' ) ;
#249 = DIRECTION ( 'NONE',  ( -9.633888153292509464E-17, 1.000000000000000000, -0.000000000000000000 ) ) ;
#250 = MANIFOLD_SOLID_BREP ( 'Revolve - Tool Body (Pointed)', #129 ) ;
#251 = SURFACE_SIDE_STYLE ('',( #190 ) ) ;
#252 =( NAMED_UNIT ( * ) PLANE_ANGLE_UNIT ( ) SI_UNIT ( $, .RADIAN. ) );
#253 = AXIS2_PLACEMENT_3D ( 'NONE', #258, #96, #156 ) ;
#254 = SURFACE_STYLE_FILL_AREA ( #116 ) ;
#255 = PRODUCT_DEFINITION ( 'UNKNOWN', '', #75, #207 ) ;
#256 = SURFACE_STYLE_USAGE ( .BOTH. , #235 ) ;
#257 = CARTESIAN_POINT ( 'NONE',  ( 6.123233995736772199E-17, 2.500000000000000000, 0.000000000000000000 ) ) ;
#258 = CARTESIAN_POINT ( 'NONE',  ( 6.123233995736772199E-17, 2.500000000000000000, 0.000000000000000000 ) ) ;
#259 = FILL_AREA_STYLE_COLOUR ( '', #155 ) ;
#260 = MECHANICAL_DESIGN_GEOMETRIC_PRESENTATION_REPRESENTATION (  '', ( #14 ), #214 ) ;
#261 = PRESENTATION_STYLE_ASSIGNMENT (( #202 ) ) ;
#262 = ORIENTED_EDGE ( 'NONE', *, *, #179, .T. ) ;
#263 = DIRECTION ( 'NONE',  ( 0.000000000000000000, 0.000000000000000000, 1.000000000000000000 ) ) ;
#264 = EDGE_CURVE ( 'NONE', #79, #100, #145, .T. ) ;
#265 = ORIENTED_EDGE ( 'NONE', *, *, #51, .F. ) ;
ENDSEC;
END-ISO-10303-21;
