ISO-10303-21;
HEADER;
FILE_DESCRIPTION (( 'STEP AP214' ),
    '1' );
FILE_NAME ('01452.STEP',
    '2023-06-22T14:32:09',
    ( '' ),
    ( '' ),
    'SwSTEP 2.0',
    'SolidWorks 2023',
    '' );
FILE_SCHEMA (( 'AUTOMOTIVE_DESIGN' ));
ENDSEC;

DATA;
#1 = PRESENTATION_STYLE_ASSIGNMENT (( #22 ) ) ;
#2 = DIRECTION ( 'NONE',  ( -0.000000000000000000, -1.000000000000000000, -0.000000000000000000 ) ) ;
#3 = CARTESIAN_POINT ( 'NONE',  ( 0.000000000000000000, 1.000000000000000000, 0.000000000000000000 ) ) ;
#4 = EDGE_LOOP ( 'NONE', ( #107, #196, #148, #240 ) ) ;
#5 = ADVANCED_FACE ( 'NONE', ( #31 ), #269, .F. ) ;
#6 = MECHANICAL_DESIGN_GEOMETRIC_PRESENTATION_REPRESENTATION (  '', ( #137 ), #154 ) ;
#7 = FILL_AREA_STYLE_COLOUR ( '', #37 ) ;
#8 = ORIENTED_EDGE ( 'NONE', *, *, #161, .T. ) ;
#9 = CYLINDRICAL_SURFACE ( 'NONE', #117, 0.2500000000000000000 ) ;
#10 = FILL_AREA_STYLE_COLOUR ( '', #58 ) ;
#11 = LENGTH_MEASURE_WITH_UNIT ( LENGTH_MEASURE( 0.02539999999999999897 ), #289 );
#12 =( LENGTH_UNIT ( ) NAMED_UNIT ( * ) SI_UNIT ( $, .METRE. ) );
#13 = AXIS2_PLACEMENT_3D ( 'NONE', #110, #306, #183 ) ;
#14 = ORIENTED_EDGE ( 'NONE', *, *, #81, .F. ) ;
#15 =( NAMED_UNIT ( * ) PLANE_ANGLE_UNIT ( ) SI_UNIT ( $, .RADIAN. ) );
#16 = DIMENSIONAL_EXPONENTS ( 1.000000000000000000, 0.000000000000000000, 0.000000000000000000, 0.000000000000000000, 0.000000000000000000, 0.000000000000000000, 0.000000000000000000 ) ;
#17 = CARTESIAN_POINT ( 'NONE',  ( 7.582401355855259480E-33, 1.000000000000000000, 0.000000000000000000 ) ) ;
#18 = UNCERTAINTY_MEASURE_WITH_UNIT (LENGTH_MEASURE( 1.000000000000000082E-05 ), #288, 'distance_accuracy_value', 'NONE');
#19 =( NAMED_UNIT ( * ) SI_UNIT ( $, .STERADIAN. ) SOLID_ANGLE_UNIT ( ) );
#20 = DIRECTION ( 'NONE',  ( -1.000000000000000000, 0.000000000000000000, 0.000000000000000000 ) ) ;
#21 = ADVANCED_FACE ( 'NONE', ( #193 ), #126, .T. ) ;
#22 = SURFACE_STYLE_USAGE ( .BOTH. , #210 ) ;
#23 = COLOUR_RGB ( '',0.7921568627450980005, 0.8196078431372548767, 0.9333333333333333481 ) ;
#24 = CARTESIAN_POINT ( 'NONE',  ( 1.171687330204578608E-34, 1.000000000000000000, 0.000000000000000000 ) ) ;
#25 =( NAMED_UNIT ( * ) SI_UNIT ( $, .STERADIAN. ) SOLID_ANGLE_UNIT ( ) );
#26 = ORIENTED_EDGE ( 'NONE', *, *, #250, .T. ) ;
#27 = EDGE_CURVE ( 'NONE', #100, #290, #176, .T. ) ;
#28 =( LENGTH_UNIT ( ) NAMED_UNIT ( * ) SI_UNIT ( $, .METRE. ) );
#29 = EDGE_LOOP ( 'NONE', ( #222, #8 ) ) ;
#30 = DIRECTION ( 'NONE',  ( -0.000000000000000000, -1.000000000000000000, -0.000000000000000000 ) ) ;
#31 = FACE_OUTER_BOUND ( 'NONE', #178, .T. ) ;
#32 = LINE ( 'NONE', #149, #59 ) ;
#33 = ORIENTED_EDGE ( 'NONE', *, *, #241, .F. ) ;
#34 = ORIENTED_EDGE ( 'NONE', *, *, #129, .F. ) ;
#35 = DIMENSIONAL_EXPONENTS ( 1.000000000000000000, 0.000000000000000000, 0.000000000000000000, 0.000000000000000000, 0.000000000000000000, 0.000000000000000000, 0.000000000000000000 ) ;
#36 = MECHANICAL_DESIGN_GEOMETRIC_PRESENTATION_REPRESENTATION (  '', ( #258 ), #153 ) ;
#37 = COLOUR_RGB ( '',1.000000000000000000, 0.000000000000000000, 0.000000000000000000 ) ;
#38 = DIRECTION ( 'NONE',  ( -1.000000000000000000, 0.000000000000000000, 0.000000000000000000 ) ) ;
#39 = APPLICATION_PROTOCOL_DEFINITION ( 'draft international standard', 'automotive_design', 1998, #128 ) ;
#40 = SURFACE_STYLE_USAGE ( .BOTH. , #182 ) ;
#41 = LENGTH_MEASURE_WITH_UNIT ( LENGTH_MEASURE( 0.02539999999999999897 ), #304 );
#42 = AXIS2_PLACEMENT_3D ( 'NONE', #44, #303, #38 ) ;
#43 = COLOUR_RGB ( '',1.000000000000000000, 0.000000000000000000, 0.000000000000000000 ) ;
#44 = CARTESIAN_POINT ( 'NONE',  ( -6.123233995736772199E-17, 3.000000000000000444, 0.000000000000000000 ) ) ;
#45 = PLANE ( 'NONE',  #287 ) ;
#46 = UNCERTAINTY_MEASURE_WITH_UNIT (LENGTH_MEASURE( 1.000000000000000082E-05 ), #173, 'distance_accuracy_value', 'NONE');
#47 =( GEOMETRIC_REPRESENTATION_CONTEXT ( 3 ) GLOBAL_UNCERTAINTY_ASSIGNED_CONTEXT ( ( #254 ) ) GLOBAL_UNIT_ASSIGNED_CONTEXT ( ( #251, #15, #84 ) ) REPRESENTATION_CONTEXT ( 'NONE', 'WORKASPACE' ) );
#48 = FILL_AREA_STYLE ('',( #94 ) ) ;
#49 = PRODUCT_DEFINITION_SHAPE ( 'NONE', 'NONE',  #68 ) ;
#50 =( LENGTH_UNIT ( ) NAMED_UNIT ( * ) SI_UNIT ( $, .METRE. ) );
#51 = AXIS2_PLACEMENT_3D ( 'NONE', #155, #134, #226 ) ;
#52 = DIRECTION ( 'NONE',  ( -3.061616997868386099E-17, 1.000000000000000000, -0.000000000000000000 ) ) ;
#53 = VERTEX_POINT ( 'NONE', #225 ) ;
#54 = DIRECTION ( 'NONE',  ( 0.000000000000000000, 0.000000000000000000, -1.000000000000000000 ) ) ;
#55 = ORIENTED_EDGE ( 'NONE', *, *, #27, .F. ) ;
#56 = ORIENTED_EDGE ( 'NONE', *, *, #161, .F. ) ;
#57 = DIRECTION ( 'NONE',  ( -0.000000000000000000, -1.000000000000000000, -0.000000000000000000 ) ) ;
#58 = COLOUR_RGB ( '',1.000000000000000000, 0.000000000000000000, 0.000000000000000000 ) ;
#59 = VECTOR ( 'NONE', #127, 39.37007874015748143 ) ;
#60 = FACE_OUTER_BOUND ( 'NONE', #4, .T. ) ;
#61 = CARTESIAN_POINT ( 'NONE',  ( 0.000000000000000000, 1.000000000000000000, -0.2500000000000000000 ) ) ;
#62 = DIRECTION ( 'NONE',  ( 0.000000000000000000, 0.000000000000000000, -1.000000000000000000 ) ) ;
#63 = LENGTH_MEASURE_WITH_UNIT ( LENGTH_MEASURE( 0.02539999999999999897 ), #249 );
#64 = EDGE_CURVE ( 'NONE', #201, #238, #309, .T. ) ;
#65 = SURFACE_STYLE_FILL_AREA ( #276 ) ;
#66 =( CONVERSION_BASED_UNIT ( 'INCH', #138 ) LENGTH_UNIT ( ) NAMED_UNIT ( #301 ) );
#67 = PRESENTATION_STYLE_ASSIGNMENT (( #83 ) ) ;
#68 = PRODUCT_DEFINITION ( 'UNKNOWN', '', #219, #140 ) ;
#69 = VECTOR ( 'NONE', #2, 39.37007874015748143 ) ;
#70 = FACE_OUTER_BOUND ( 'NONE', #147, .T. ) ;
#71 =( CONVERSION_BASED_UNIT ( 'INCH', #11 ) LENGTH_UNIT ( ) NAMED_UNIT ( #206 ) );
#72 = STYLED_ITEM ( 'NONE', ( #286 ), #302 ) ;
#73 = ORIENTED_EDGE ( 'NONE', *, *, #64, .T. ) ;
#74 = ORIENTED_EDGE ( 'NONE', *, *, #207, .F. ) ;
#75 = PRESENTATION_STYLE_ASSIGNMENT (( #292 ) ) ;
#76 = ADVANCED_FACE ( 'NONE', ( #109 ), #205, .T. ) ;
#77 = VECTOR ( 'NONE', #179, 39.37007874015748143 ) ;
#78 =( NAMED_UNIT ( * ) SI_UNIT ( $, .STERADIAN. ) SOLID_ANGLE_UNIT ( ) );
#79 = ORIENTED_EDGE ( 'NONE', *, *, #207, .T. ) ;
#80 = ORIENTED_EDGE ( 'NONE', *, *, #246, .T. ) ;
#81 = EDGE_CURVE ( 'NONE', #53, #200, #112, .T. ) ;
#82 = DIRECTION ( 'NONE',  ( 1.000000000000000000, 0.000000000000000000, 0.000000000000000000 ) ) ;
#83 = SURFACE_STYLE_USAGE ( .BOTH. , #160 ) ;
#84 =( NAMED_UNIT ( * ) SI_UNIT ( $, .STERADIAN. ) SOLID_ANGLE_UNIT ( ) );
#85 =( GEOMETRIC_REPRESENTATION_CONTEXT ( 3 ) GLOBAL_UNCERTAINTY_ASSIGNED_CONTEXT ( ( #18 ) ) GLOBAL_UNIT_ASSIGNED_CONTEXT ( ( #288, #262, #248 ) ) REPRESENTATION_CONTEXT ( 'NONE', 'WORKASPACE' ) );
#86 = STYLED_ITEM ( 'NONE', ( #1 ), #191 ) ;
#87 = FILL_AREA_STYLE ('',( #298 ) ) ;
#88 = DIRECTION ( 'NONE',  ( 0.000000000000000000, 1.000000000000000000, 0.000000000000000000 ) ) ;
#89 = FILL_AREA_STYLE_COLOUR ( '', #23 ) ;
#90 =( LENGTH_UNIT ( ) NAMED_UNIT ( * ) SI_UNIT ( $, .METRE. ) );
#91 = CIRCLE ( 'NONE', #213, 0.2500000000000000555 ) ;
#92 = UNCERTAINTY_MEASURE_WITH_UNIT (LENGTH_MEASURE( 1.000000000000000082E-05 ), #158, 'distance_accuracy_value', 'NONE');
#93 = CARTESIAN_POINT ( 'NONE',  ( 3.061616997868383018E-17, 0.000000000000000000, 0.2500000000000000000 ) ) ;
#94 = FILL_AREA_STYLE_COLOUR ( '', #43 ) ;
#95 = AXIS2_PLACEMENT_3D ( 'NONE', #220, #243, #260 ) ;
#96 = CIRCLE ( 'NONE', #267, 0.2500000000000000000 ) ;
#97 = ADVANCED_FACE ( 'NONE', ( #60 ), #273, .T. ) ;
#98 = APPLICATION_CONTEXT ( 'automotive_design' ) ;
#99 = SURFACE_STYLE_FILL_AREA ( #123 ) ;
#100 = VERTEX_POINT ( 'NONE', #271 ) ;
#101 = CIRCLE ( 'NONE', #13, 0.2500000000000000000 ) ;
#102 = CARTESIAN_POINT ( 'NONE',  ( -6.123233995736772199E-17, 3.000000000000000444, 0.000000000000000000 ) ) ;
#103 = VERTEX_POINT ( 'NONE', #61 ) ;
#104 = PRODUCT ( '01452', '01452', '', ( #297 ) ) ;
#105 = ORIENTED_EDGE ( 'NONE', *, *, #275, .F. ) ;
#106 = EDGE_LOOP ( 'NONE', ( #74, #124 ) ) ;
#107 = ORIENTED_EDGE ( 'NONE', *, *, #284, .F. ) ;
#108 = DIRECTION ( 'NONE',  ( -0.000000000000000000, -1.000000000000000000, -0.000000000000000000 ) ) ;
#109 = FACE_OUTER_BOUND ( 'NONE', #119, .T. ) ;
#110 = CARTESIAN_POINT ( 'NONE',  ( 7.582401355855259480E-33, 1.000000000000000000, 0.000000000000000000 ) ) ;
#111 = DIMENSIONAL_EXPONENTS ( 1.000000000000000000, 0.000000000000000000, 0.000000000000000000, 0.000000000000000000, 0.000000000000000000, 0.000000000000000000, 0.000000000000000000 ) ;
#112 = LINE ( 'NONE', #202, #77 ) ;
#113 = AXIS2_PLACEMENT_3D ( 'NONE', #268, #30, #261 ) ;
#114 = DIRECTION ( 'NONE',  ( 0.000000000000000000, 0.000000000000000000, -1.000000000000000000 ) ) ;
#115 = CARTESIAN_POINT ( 'NONE',  ( 0.000000000000000000, 1.000000000000000000, 0.000000000000000000 ) ) ;
#116 = DIRECTION ( 'NONE',  ( 0.000000000000000000, 0.000000000000000000, -1.000000000000000000 ) ) ;
#117 = AXIS2_PLACEMENT_3D ( 'NONE', #199, #108, #62 ) ;
#118 =( NAMED_UNIT ( * ) PLANE_ANGLE_UNIT ( ) SI_UNIT ( $, .RADIAN. ) );
#119 = EDGE_LOOP ( 'NONE', ( #121, #175, #33, #236 ) ) ;
#120 = CARTESIAN_POINT ( 'NONE',  ( 0.000000000000000000, 0.000000000000000000, 0.000000000000000000 ) ) ;
#121 = ORIENTED_EDGE ( 'NONE', *, *, #27, .T. ) ;
#122 = CIRCLE ( 'NONE', #177, 0.2500000000000000000 ) ;
#123 = FILL_AREA_STYLE ('',( #7 ) ) ;
#124 = ORIENTED_EDGE ( 'NONE', *, *, #246, .F. ) ;
#125 = SURFACE_SIDE_STYLE ('',( #99 ) ) ;
#126 = PLANE ( 'NONE',  #255 ) ;
#127 = DIRECTION ( 'NONE',  ( -3.061616997868386099E-17, 1.000000000000000000, -0.000000000000000000 ) ) ;
#128 = APPLICATION_CONTEXT ( 'automotive_design' ) ;
#129 = EDGE_CURVE ( 'NONE', #290, #100, #101, .T. ) ;
#130 =( GEOMETRIC_REPRESENTATION_CONTEXT ( 3 ) GLOBAL_UNCERTAINTY_ASSIGNED_CONTEXT ( ( #186 ) ) GLOBAL_UNIT_ASSIGNED_CONTEXT ( ( #71, #244, #265 ) ) REPRESENTATION_CONTEXT ( 'NONE', 'WORKASPACE' ) );
#131 = MANIFOLD_SOLID_BREP ( 'Revolve - Tool Body (Straight Shanked)', #233 ) ;
#132 = DIRECTION ( 'NONE',  ( -3.061616997868386099E-17, 1.000000000000000000, -0.000000000000000000 ) ) ;
#133 = MANIFOLD_SOLID_BREP ( 'Revolve - Cutting Edge', #165 ) ;
#134 = DIRECTION ( 'NONE',  ( -3.061616997868386099E-17, 1.000000000000000000, -0.000000000000000000 ) ) ;
#135 = MECHANICAL_DESIGN_GEOMETRIC_PRESENTATION_REPRESENTATION (  '', ( #143 ), #85 ) ;
#136 =( NAMED_UNIT ( * ) PLANE_ANGLE_UNIT ( ) SI_UNIT ( $, .RADIAN. ) );
#137 = STYLED_ITEM ( 'NONE', ( #67 ), #133 ) ;
#138 = LENGTH_MEASURE_WITH_UNIT ( LENGTH_MEASURE( 0.02539999999999999897 ), #50 );
#139 = PRESENTATION_LAYER_ASSIGNMENT (  '', '', ( #72 ) ) ;
#140 = PRODUCT_DEFINITION_CONTEXT ( 'detailed design', #128, 'design' ) ;
#141 = FILL_AREA_STYLE ('',( #256 ) ) ;
#142 = FACE_OUTER_BOUND ( 'NONE', #29, .T. ) ;
#143 = STYLED_ITEM ( 'NONE', ( #75 ), #21 ) ;
#144 = STYLED_ITEM ( 'NONE', ( #192 ), #221 ) ;
#145 = LINE ( 'NONE', #237, #69 ) ;
#146 = DIRECTION ( 'NONE',  ( -1.000000000000000000, 0.000000000000000000, 0.000000000000000000 ) ) ;
#147 = EDGE_LOOP ( 'NONE', ( #14, #80, #26, #56 ) ) ;
#148 = ORIENTED_EDGE ( 'NONE', *, *, #171, .T. ) ;
#149 = CARTESIAN_POINT ( 'NONE',  ( 0.2499999999999999722, 3.000000000000000444, 3.061616997868383634E-17 ) ) ;
#150 = ORIENTED_EDGE ( 'NONE', *, *, #241, .T. ) ;
#151 = LENGTH_MEASURE_WITH_UNIT ( LENGTH_MEASURE( 0.02539999999999999897 ), #12 );
#152 = CARTESIAN_POINT ( 'NONE',  ( -6.123233995736772199E-17, 3.000000000000000444, 0.000000000000000000 ) ) ;
#153 =( GEOMETRIC_REPRESENTATION_CONTEXT ( 3 ) GLOBAL_UNCERTAINTY_ASSIGNED_CONTEXT ( ( #92 ) ) GLOBAL_UNIT_ASSIGNED_CONTEXT ( ( #158, #136, #19 ) ) REPRESENTATION_CONTEXT ( 'NONE', 'WORKASPACE' ) );
#154 =( GEOMETRIC_REPRESENTATION_CONTEXT ( 3 ) GLOBAL_UNCERTAINTY_ASSIGNED_CONTEXT ( ( #280 ) ) GLOBAL_UNIT_ASSIGNED_CONTEXT ( ( #66, #281, #25 ) ) REPRESENTATION_CONTEXT ( 'NONE', 'WORKASPACE' ) );
#155 = CARTESIAN_POINT ( 'NONE',  ( -6.123233995736772199E-17, 3.000000000000000444, 0.000000000000000000 ) ) ;
#156 = DIRECTION ( 'NONE',  ( 0.000000000000000000, 0.000000000000000000, 1.000000000000000000 ) ) ;
#157 = PRESENTATION_STYLE_ASSIGNMENT (( #40 ) ) ;
#158 =( CONVERSION_BASED_UNIT ( 'INCH', #63 ) LENGTH_UNIT ( ) NAMED_UNIT ( #279 ) );
#159 = AXIS2_PLACEMENT_3D ( 'NONE', #270, #156, #82 ) ;
#160 = SURFACE_SIDE_STYLE ('',( #65 ) ) ;
#161 = EDGE_CURVE ( 'NONE', #200, #218, #188, .T. ) ;
#162 = DIRECTION ( 'NONE',  ( -3.061616997868386099E-17, 1.000000000000000000, -0.000000000000000000 ) ) ;
#163 = UNCERTAINTY_MEASURE_WITH_UNIT (LENGTH_MEASURE( 1.000000000000000082E-05 ), #212, 'distance_accuracy_value', 'NONE');
#164 =( NAMED_UNIT ( * ) SI_UNIT ( $, .STERADIAN. ) SOLID_ANGLE_UNIT ( ) );
#165 = CLOSED_SHELL ( 'NONE', ( #302, #21, #221, #191 ) ) ;
#166 = DIRECTION ( 'NONE',  ( -0.000000000000000000, -1.000000000000000000, -0.000000000000000000 ) ) ;
#167 = MECHANICAL_DESIGN_GEOMETRIC_PRESENTATION_REPRESENTATION (  '', ( #86 ), #224 ) ;
#168 = CYLINDRICAL_SURFACE ( 'NONE', #113, 0.2500000000000000000 ) ;
#169 = CARTESIAN_POINT ( 'NONE',  ( 0.000000000000000000, 0.000000000000000000, 0.000000000000000000 ) ) ;
#170 = PRESENTATION_LAYER_ASSIGNMENT (  '', '', ( #258 ) ) ;
#171 = EDGE_CURVE ( 'NONE', #100, #238, #257, .T. ) ;
#172 = FILL_AREA_STYLE ('',( #10 ) ) ;
#173 =( CONVERSION_BASED_UNIT ( 'INCH', #291 ) LENGTH_UNIT ( ) NAMED_UNIT ( #35 ) );
#174 = EDGE_LOOP ( 'NONE', ( #79, #295, #105, #216 ) ) ;
#175 = ORIENTED_EDGE ( 'NONE', *, *, #284, .T. ) ;
#176 = CIRCLE ( 'NONE', #203, 0.2500000000000000000 ) ;
#177 = AXIS2_PLACEMENT_3D ( 'NONE', #115, #166, #190 ) ;
#178 = EDGE_LOOP ( 'NONE', ( #150, #73 ) ) ;
#179 = DIRECTION ( 'NONE',  ( -0.000000000000000000, -1.000000000000000000, -0.000000000000000000 ) ) ;
#180 = PRESENTATION_LAYER_ASSIGNMENT (  '', '', ( #137 ) ) ;
#181 = SHAPE_DEFINITION_REPRESENTATION ( #49, #278 ) ;
#182 = SURFACE_SIDE_STYLE ('',( #184 ) ) ;
#183 = DIRECTION ( 'NONE',  ( -1.000000000000000000, 0.000000000000000000, 0.000000000000000000 ) ) ;
#184 = SURFACE_STYLE_FILL_AREA ( #87 ) ;
#185 = PRESENTATION_LAYER_ASSIGNMENT (  '', '', ( #86 ) ) ;
#186 = UNCERTAINTY_MEASURE_WITH_UNIT (LENGTH_MEASURE( 1.000000000000000082E-05 ), #71, 'distance_accuracy_value', 'NONE');
#187 = CARTESIAN_POINT ( 'NONE',  ( 0.2500000000000000000, 3.000000000000000444, 3.061616997868383634E-17 ) ) ;
#188 = CIRCLE ( 'NONE', #228, 0.2500000000000000000 ) ;
#189 = DIRECTION ( 'NONE',  ( -3.061616997868386099E-17, 1.000000000000000000, 0.000000000000000000 ) ) ;
#190 = DIRECTION ( 'NONE',  ( 0.000000000000000000, 0.000000000000000000, -1.000000000000000000 ) ) ;
#191 = ADVANCED_FACE ( 'NONE', ( #142 ), #45, .T. ) ;
#192 = PRESENTATION_STYLE_ASSIGNMENT (( #263 ) ) ;
#193 = FACE_OUTER_BOUND ( 'NONE', #106, .T. ) ;
#194 =( GEOMETRIC_REPRESENTATION_CONTEXT ( 3 ) GLOBAL_UNCERTAINTY_ASSIGNED_CONTEXT ( ( #46 ) ) GLOBAL_UNIT_ASSIGNED_CONTEXT ( ( #173, #118, #78 ) ) REPRESENTATION_CONTEXT ( 'NONE', 'WORKASPACE' ) );
#195 = SURFACE_STYLE_USAGE ( .BOTH. , #125 ) ;
#196 = ORIENTED_EDGE ( 'NONE', *, *, #129, .T. ) ;
#197 = PRODUCT_RELATED_PRODUCT_CATEGORY ( 'part', '', ( #104 ) ) ;
#198 = SURFACE_SIDE_STYLE ('',( #245 ) ) ;
#199 = CARTESIAN_POINT ( 'NONE',  ( 0.000000000000000000, 0.000000000000000000, 0.000000000000000000 ) ) ;
#200 = VERTEX_POINT ( 'NONE', #93 ) ;
#201 = VERTEX_POINT ( 'NONE', #187 ) ;
#202 = CARTESIAN_POINT ( 'NONE',  ( 3.061616997868383018E-17, 0.000000000000000000, 0.2500000000000000000 ) ) ;
#203 = AXIS2_PLACEMENT_3D ( 'NONE', #17, #132, #252 ) ;
#204 = AXIS2_PLACEMENT_3D ( 'NONE', #120, #217, #293 ) ;
#205 = CYLINDRICAL_SURFACE ( 'NONE', #42, 0.2500000000000000555 ) ;
#206 = DIMENSIONAL_EXPONENTS ( 1.000000000000000000, 0.000000000000000000, 0.000000000000000000, 0.000000000000000000, 0.000000000000000000, 0.000000000000000000, 0.000000000000000000 ) ;
#207 = EDGE_CURVE ( 'NONE', #103, #53, #122, .T. ) ;
#208 = AXIS2_PLACEMENT_3D ( 'NONE', #24, #189, #285 ) ;
#209 = CARTESIAN_POINT ( 'NONE',  ( -0.2500000000000001110, 3.000000000000000444, 0.000000000000000000 ) ) ;
#210 = SURFACE_SIDE_STYLE ('',( #235 ) ) ;
#211 = ADVANCED_FACE ( 'NONE', ( #231 ), #214, .F. ) ;
#212 =( CONVERSION_BASED_UNIT ( 'INCH', #282 ) LENGTH_UNIT ( ) NAMED_UNIT ( #111 ) );
#213 = AXIS2_PLACEMENT_3D ( 'NONE', #102, #52, #146 ) ;
#214 = PLANE ( 'NONE',  #208 ) ;
#215 = CARTESIAN_POINT ( 'NONE',  ( -0.2500000000000001110, 3.000000000000000444, 0.000000000000000000 ) ) ;
#216 = ORIENTED_EDGE ( 'NONE', *, *, #250, .F. ) ;
#217 = DIRECTION ( 'NONE',  ( -0.000000000000000000, -1.000000000000000000, -0.000000000000000000 ) ) ;
#218 = VERTEX_POINT ( 'NONE', #283 ) ;
#219 = PRODUCT_DEFINITION_FORMATION_WITH_SPECIFIED_SOURCE ( 'ANY', '', #104, .NOT_KNOWN. ) ;
#220 = CARTESIAN_POINT ( 'NONE',  ( 0.2500000000000000000, 3.000000000000000444, 0.000000000000000000 ) ) ;
#221 = ADVANCED_FACE ( 'NONE', ( #70 ), #168, .T. ) ;
#222 = ORIENTED_EDGE ( 'NONE', *, *, #275, .T. ) ;
#223 = COLOUR_RGB ( '',0.7921568627450980005, 0.8196078431372548767, 0.9333333333333333481 ) ;
#224 =( GEOMETRIC_REPRESENTATION_CONTEXT ( 3 ) GLOBAL_UNCERTAINTY_ASSIGNED_CONTEXT ( ( #163 ) ) GLOBAL_UNIT_ASSIGNED_CONTEXT ( ( #212, #308, #164 ) ) REPRESENTATION_CONTEXT ( 'NONE', 'WORKASPACE' ) );
#225 = CARTESIAN_POINT ( 'NONE',  ( 3.061616997868383018E-17, 1.000000000000000000, 0.2500000000000000000 ) ) ;
#226 = DIRECTION ( 'NONE',  ( -1.000000000000000000, 0.000000000000000000, 0.000000000000000000 ) ) ;
#227 = DIRECTION ( 'NONE',  ( 0.000000000000000000, -0.000000000000000000, 1.000000000000000000 ) ) ;
#228 = AXIS2_PLACEMENT_3D ( 'NONE', #247, #296, #114 ) ;
#229 = DIRECTION ( 'NONE',  ( -3.061616997868386099E-17, 1.000000000000000000, -0.000000000000000000 ) ) ;
#230 = MECHANICAL_DESIGN_GEOMETRIC_PRESENTATION_REPRESENTATION (  '', ( #72 ), #130 ) ;
#231 = FACE_OUTER_BOUND ( 'NONE', #264, .T. ) ;
#232 = SURFACE_STYLE_FILL_AREA ( #141 ) ;
#233 = CLOSED_SHELL ( 'NONE', ( #76, #211, #97, #5 ) ) ;
#234 = CIRCLE ( 'NONE', #204, 0.2500000000000000000 ) ;
#235 = SURFACE_STYLE_FILL_AREA ( #48 ) ;
#236 = ORIENTED_EDGE ( 'NONE', *, *, #171, .F. ) ;
#237 = CARTESIAN_POINT ( 'NONE',  ( 0.000000000000000000, 0.000000000000000000, -0.2500000000000000000 ) ) ;
#238 = VERTEX_POINT ( 'NONE', #215 ) ;
#239 = FACE_OUTER_BOUND ( 'NONE', #174, .T. ) ;
#240 = ORIENTED_EDGE ( 'NONE', *, *, #64, .F. ) ;
#241 = EDGE_CURVE ( 'NONE', #238, #201, #91, .T. ) ;
#242 = CARTESIAN_POINT ( 'NONE',  ( 0.2500000000000000000, 1.000000000000000000, 3.061616997868383634E-17 ) ) ;
#243 = DIRECTION ( 'NONE',  ( 3.061616997868386099E-17, -1.000000000000000000, 0.000000000000000000 ) ) ;
#244 =( NAMED_UNIT ( * ) PLANE_ANGLE_UNIT ( ) SI_UNIT ( $, .RADIAN. ) );
#245 = SURFACE_STYLE_FILL_AREA ( #172 ) ;
#246 = EDGE_CURVE ( 'NONE', #53, #103, #96, .T. ) ;
#247 = CARTESIAN_POINT ( 'NONE',  ( 0.000000000000000000, 0.000000000000000000, 0.000000000000000000 ) ) ;
#248 =( NAMED_UNIT ( * ) SI_UNIT ( $, .STERADIAN. ) SOLID_ANGLE_UNIT ( ) );
#249 =( LENGTH_UNIT ( ) NAMED_UNIT ( * ) SI_UNIT ( $, .METRE. ) );
#250 = EDGE_CURVE ( 'NONE', #103, #218, #145, .T. ) ;
#251 =( CONVERSION_BASED_UNIT ( 'INCH', #41 ) LENGTH_UNIT ( ) NAMED_UNIT ( #305 ) );
#252 = DIRECTION ( 'NONE',  ( -1.000000000000000000, 0.000000000000000000, 0.000000000000000000 ) ) ;
#253 = DIRECTION ( 'NONE',  ( 0.000000000000000000, -1.000000000000000000, -0.000000000000000000 ) ) ;
#254 = UNCERTAINTY_MEASURE_WITH_UNIT (LENGTH_MEASURE( 1.000000000000000082E-05 ), #251, 'distance_accuracy_value', 'NONE');
#255 = AXIS2_PLACEMENT_3D ( 'NONE', #272, #88, #227 ) ;
#256 = FILL_AREA_STYLE_COLOUR ( '', #294 ) ;
#257 = LINE ( 'NONE', #209, #277 ) ;
#258 = STYLED_ITEM ( 'NONE', ( #157 ), #131 ) ;
#259 = SURFACE_SIDE_STYLE ('',( #232 ) ) ;
#260 = DIRECTION ( 'NONE',  ( 1.000000000000000000, 3.061616997868386099E-17, 0.000000000000000000 ) ) ;
#261 = DIRECTION ( 'NONE',  ( 0.000000000000000000, 0.000000000000000000, -1.000000000000000000 ) ) ;
#262 =( NAMED_UNIT ( * ) PLANE_ANGLE_UNIT ( ) SI_UNIT ( $, .RADIAN. ) );
#263 = SURFACE_STYLE_USAGE ( .BOTH. , #259 ) ;
#264 = EDGE_LOOP ( 'NONE', ( #55, #34 ) ) ;
#265 =( NAMED_UNIT ( * ) SI_UNIT ( $, .STERADIAN. ) SOLID_ANGLE_UNIT ( ) );
#266 = PRESENTATION_LAYER_ASSIGNMENT (  '', '', ( #143 ) ) ;
#267 = AXIS2_PLACEMENT_3D ( 'NONE', #3, #57, #54 ) ;
#268 = CARTESIAN_POINT ( 'NONE',  ( 0.000000000000000000, 0.000000000000000000, 0.000000000000000000 ) ) ;
#269 = PLANE ( 'NONE',  #95 ) ;
#270 = CARTESIAN_POINT ( 'NONE',  ( 0.000000000000000000, 0.000000000000000000, 0.000000000000000000 ) ) ;
#271 = CARTESIAN_POINT ( 'NONE',  ( -0.2500000000000000000, 1.000000000000000000, 0.000000000000000000 ) ) ;
#272 = CARTESIAN_POINT ( 'NONE',  ( 0.000000000000000000, 1.000000000000000000, 0.000000000000000000 ) ) ;
#273 = CYLINDRICAL_SURFACE ( 'NONE', #51, 0.2500000000000000555 ) ;
#274 = APPLICATION_PROTOCOL_DEFINITION ( 'draft international standard', 'automotive_design', 1998, #98 ) ;
#275 = EDGE_CURVE ( 'NONE', #218, #200, #234, .T. ) ;
#276 = FILL_AREA_STYLE ('',( #89 ) ) ;
#277 = VECTOR ( 'NONE', #162, 39.37007874015748143 ) ;
#278 = ADVANCED_BREP_SHAPE_REPRESENTATION ( '01452', ( #133, #131, #159 ), #47 ) ;
#279 = DIMENSIONAL_EXPONENTS ( 1.000000000000000000, 0.000000000000000000, 0.000000000000000000, 0.000000000000000000, 0.000000000000000000, 0.000000000000000000, 0.000000000000000000 ) ;
#280 = UNCERTAINTY_MEASURE_WITH_UNIT (LENGTH_MEASURE( 1.000000000000000082E-05 ), #66, 'distance_accuracy_value', 'NONE');
#281 =( NAMED_UNIT ( * ) PLANE_ANGLE_UNIT ( ) SI_UNIT ( $, .RADIAN. ) );
#282 = LENGTH_MEASURE_WITH_UNIT ( LENGTH_MEASURE( 0.02539999999999999897 ), #90 );
#283 = CARTESIAN_POINT ( 'NONE',  ( 0.000000000000000000, 0.000000000000000000, -0.2500000000000000000 ) ) ;
#284 = EDGE_CURVE ( 'NONE', #290, #201, #32, .T. ) ;
#285 = DIRECTION ( 'NONE',  ( -1.000000000000000000, -3.061616997868386099E-17, 0.000000000000000000 ) ) ;
#286 = PRESENTATION_STYLE_ASSIGNMENT (( #195 ) ) ;
#287 = AXIS2_PLACEMENT_3D ( 'NONE', #169, #253, #116 ) ;
#288 =( CONVERSION_BASED_UNIT ( 'INCH', #151 ) LENGTH_UNIT ( ) NAMED_UNIT ( #16 ) );
#289 =( LENGTH_UNIT ( ) NAMED_UNIT ( * ) SI_UNIT ( $, .METRE. ) );
#290 = VERTEX_POINT ( 'NONE', #242 ) ;
#291 = LENGTH_MEASURE_WITH_UNIT ( LENGTH_MEASURE( 0.02539999999999999897 ), #28 );
#292 = SURFACE_STYLE_USAGE ( .BOTH. , #198 ) ;
#293 = DIRECTION ( 'NONE',  ( 0.000000000000000000, 0.000000000000000000, -1.000000000000000000 ) ) ;
#294 = COLOUR_RGB ( '',1.000000000000000000, 0.000000000000000000, 0.000000000000000000 ) ;
#295 = ORIENTED_EDGE ( 'NONE', *, *, #81, .T. ) ;
#296 = DIRECTION ( 'NONE',  ( -0.000000000000000000, -1.000000000000000000, -0.000000000000000000 ) ) ;
#297 = PRODUCT_CONTEXT ( 'NONE', #98, 'mechanical' ) ;
#298 = FILL_AREA_STYLE_COLOUR ( '', #223 ) ;
#299 = AXIS2_PLACEMENT_3D ( 'NONE', #152, #229, #20 ) ;
#300 = PRESENTATION_LAYER_ASSIGNMENT (  '', '', ( #144 ) ) ;
#301 = DIMENSIONAL_EXPONENTS ( 1.000000000000000000, 0.000000000000000000, 0.000000000000000000, 0.000000000000000000, 0.000000000000000000, 0.000000000000000000, 0.000000000000000000 ) ;
#302 = ADVANCED_FACE ( 'NONE', ( #239 ), #9, .T. ) ;
#303 = DIRECTION ( 'NONE',  ( -3.061616997868386099E-17, 1.000000000000000000, -0.000000000000000000 ) ) ;
#304 =( LENGTH_UNIT ( ) NAMED_UNIT ( * ) SI_UNIT ( $, .METRE. ) );
#305 = DIMENSIONAL_EXPONENTS ( 1.000000000000000000, 0.000000000000000000, 0.000000000000000000, 0.000000000000000000, 0.000000000000000000, 0.000000000000000000, 0.000000000000000000 ) ;
#306 = DIRECTION ( 'NONE',  ( -3.061616997868386099E-17, 1.000000000000000000, -0.000000000000000000 ) ) ;
#307 = MECHANICAL_DESIGN_GEOMETRIC_PRESENTATION_REPRESENTATION (  '', ( #144 ), #194 ) ;
#308 =( NAMED_UNIT ( * ) PLANE_ANGLE_UNIT ( ) SI_UNIT ( $, .RADIAN. ) );
#309 = CIRCLE ( 'NONE', #299, 0.2500000000000000555 ) ;
ENDSEC;
END-ISO-10303-21;
