ISO-10303-21;
HEADER;
FILE_DESCRIPTION (( 'STEP AP214' ),
    '1' );
FILE_NAME ('56137.STEP',
    '2023-06-30T22:05:50',
    ( '' ),
    ( '' ),
    'SwSTEP 2.0',
    'SolidWorks 2023',
    '' );
FILE_SCHEMA (( 'AUTOMOTIVE_DESIGN' ));
ENDSEC;

DATA;
#1 = CARTESIAN_POINT ( 'NONE',  ( 6.123233995736766036E-17, 2.000000000000000000, 0.000000000000000000 ) ) ;
#2 =( GEOMETRIC_REPRESENTATION_CONTEXT ( 3 ) GLOBAL_UNCERTAINTY_ASSIGNED_CONTEXT ( ( #174 ) ) GLOBAL_UNIT_ASSIGNED_CONTEXT ( ( #96, #20, #75 ) ) REPRESENTATION_CONTEXT ( 'NONE', 'WORKASPACE' ) );
#3 = CARTESIAN_POINT ( 'NONE',  ( 0.1250000000000000000, 0.1250000000000000278, 0.000000000000000000 ) ) ;
#4 = DIRECTION ( 'NONE',  ( 0.000000000000000000, 0.000000000000000000, 1.000000000000000000 ) ) ;
#5 = VERTEX_POINT ( 'NONE', #325 ) ;
#6 =( CONVERSION_BASED_UNIT ( 'INCH', #228 ) LENGTH_UNIT ( ) NAMED_UNIT ( #363 ) );
#7 = DIRECTION ( 'NONE',  ( -1.237316121277553448E-16, 1.000000000000000000, -0.000000000000000000 ) ) ;
#8 = VERTEX_POINT ( 'NONE', #67 ) ;
#9 = AXIS2_PLACEMENT_3D ( 'NONE', #81, #49, #134 ) ;
#10 =( NAMED_UNIT ( * ) SI_UNIT ( $, .STERADIAN. ) SOLID_ANGLE_UNIT ( ) );
#11 = PRESENTATION_LAYER_ASSIGNMENT (  '', '', ( #339 ) ) ;
#12 = SURFACE_STYLE_FILL_AREA ( #150 ) ;
#13 = DIRECTION ( 'NONE',  ( -0.000000000000000000, -1.000000000000000000, -0.000000000000000000 ) ) ;
#14 = FILL_AREA_STYLE_COLOUR ( '', #19 ) ;
#15 = MECHANICAL_DESIGN_GEOMETRIC_PRESENTATION_REPRESENTATION (  '', ( #110 ), #252 ) ;
#16 = CARTESIAN_POINT ( 'NONE',  ( -7.654042494670957545E-18, 0.000000000000000000, 0.000000000000000000 ) ) ;
#17 =( GEOMETRIC_REPRESENTATION_CONTEXT ( 3 ) GLOBAL_UNCERTAINTY_ASSIGNED_CONTEXT ( ( #40 ) ) GLOBAL_UNIT_ASSIGNED_CONTEXT ( ( #307, #361, #217 ) ) REPRESENTATION_CONTEXT ( 'NONE', 'WORKASPACE' ) );
#18 = LENGTH_MEASURE_WITH_UNIT ( LENGTH_MEASURE( 0.02539999999999999897 ), #368 );
#19 = COLOUR_RGB ( '',0.7921568627450980005, 0.8196078431372548767, 0.9333333333333333481 ) ;
#20 =( NAMED_UNIT ( * ) PLANE_ANGLE_UNIT ( ) SI_UNIT ( $, .RADIAN. ) );
#21 = CARTESIAN_POINT ( 'NONE',  ( 0.000000000000000000, 0.3750000000000000555, 0.000000000000000000 ) ) ;
#22 = MANIFOLD_SOLID_BREP ( 'Revolve - Tool Body (Straight Shanked)', #308 ) ;
#23 =( CONVERSION_BASED_UNIT ( 'INCH', #18 ) LENGTH_UNIT ( ) NAMED_UNIT ( #84 ) );
#24 = CARTESIAN_POINT ( 'NONE',  ( 2.622962096649701172E-16, 0.3750000000000000555, 0.000000000000000000 ) ) ;
#25 = PRESENTATION_LAYER_ASSIGNMENT (  '', '', ( #87 ) ) ;
#26 = FILL_AREA_STYLE ('',( #63 ) ) ;
#27 = PRODUCT_CONTEXT ( 'NONE', #191, 'mechanical' ) ;
#28 = EDGE_CURVE ( 'NONE', #263, #5, #338, .T. ) ;
#29 = DIRECTION ( 'NONE',  ( -1.237316121277553448E-16, 1.000000000000000000, -0.000000000000000000 ) ) ;
#30 = CARTESIAN_POINT ( 'NONE',  ( 0.000000000000000000, 0.1250000000000000278, 0.000000000000000000 ) ) ;
#31 = EDGE_LOOP ( 'NONE', ( #122, #239, #97, #175 ) ) ;
#32 = CIRCLE ( 'NONE', #194, 0.1249999999999999029 ) ;
#33 = CIRCLE ( 'NONE', #101, 0.1250000000000000000 ) ;
#34 =( CONVERSION_BASED_UNIT ( 'INCH', #293 ) LENGTH_UNIT ( ) NAMED_UNIT ( #56 ) );
#35 = SURFACE_SIDE_STYLE ('',( #295 ) ) ;
#36 = ORIENTED_EDGE ( 'NONE', *, *, #336, .F. ) ;
#37 = DIRECTION ( 'NONE',  ( -0.000000000000000000, -1.000000000000000000, -0.000000000000000000 ) ) ;
#38 = VERTEX_POINT ( 'NONE', #199 ) ;
#39 = ADVANCED_FACE ( 'NONE', ( #284 ), #59, .T. ) ;
#40 = UNCERTAINTY_MEASURE_WITH_UNIT (LENGTH_MEASURE( 1.000000000000000082E-05 ), #307, 'distance_accuracy_value', 'NONE');
#41 = LINE ( 'NONE', #109, #79 ) ;
#42 = ORIENTED_EDGE ( 'NONE', *, *, #28, .F. ) ;
#43 = ORIENTED_EDGE ( 'NONE', *, *, #336, .T. ) ;
#44 = PRESENTATION_LAYER_ASSIGNMENT (  '', '', ( #78 ) ) ;
#45 = DIRECTION ( 'NONE',  ( 0.000000000000000000, 0.000000000000000000, -1.000000000000000000 ) ) ;
#46 = FILL_AREA_STYLE ('',( #53 ) ) ;
#47 = ORIENTED_EDGE ( 'NONE', *, *, #275, .T. ) ;
#48 = PRESENTATION_STYLE_ASSIGNMENT (( #183 ) ) ;
#49 = DIRECTION ( 'NONE',  ( 0.000000000000000000, 1.000000000000000000, 0.000000000000000000 ) ) ;
#50 = MECHANICAL_DESIGN_GEOMETRIC_PRESENTATION_REPRESENTATION (  '', ( #71 ), #144 ) ;
#51 = SURFACE_STYLE_USAGE ( .BOTH. , #312 ) ;
#52 = DIMENSIONAL_EXPONENTS ( 1.000000000000000000, 0.000000000000000000, 0.000000000000000000, 0.000000000000000000, 0.000000000000000000, 0.000000000000000000, 0.000000000000000000 ) ;
#53 = FILL_AREA_STYLE_COLOUR ( '', #241 ) ;
#54 = AXIS2_PLACEMENT_3D ( 'NONE', #30, #58, #289 ) ;
#55 = MECHANICAL_DESIGN_GEOMETRIC_PRESENTATION_REPRESENTATION (  '', ( #294 ), #17 ) ;
#56 = DIMENSIONAL_EXPONENTS ( 1.000000000000000000, 0.000000000000000000, 0.000000000000000000, 0.000000000000000000, 0.000000000000000000, 0.000000000000000000, 0.000000000000000000 ) ;
#57 = ADVANCED_FACE ( 'NONE', ( #285 ), #92, .T. ) ;
#58 = DIRECTION ( 'NONE',  ( -0.000000000000000000, -1.000000000000000000, -0.000000000000000000 ) ) ;
#59 = CYLINDRICAL_SURFACE ( 'NONE', #184, 0.1249999999999997918 ) ;
#60 = SURFACE_SIDE_STYLE ('',( #317 ) ) ;
#61 = COLOUR_RGB ( '',1.000000000000000000, 0.000000000000000000, 0.000000000000000000 ) ;
#62 = PRODUCT_DEFINITION_FORMATION_WITH_SPECIFIED_SOURCE ( 'ANY', '', #269, .NOT_KNOWN. ) ;
#63 = FILL_AREA_STYLE_COLOUR ( '', #369 ) ;
#64 =( LENGTH_UNIT ( ) NAMED_UNIT ( * ) SI_UNIT ( $, .METRE. ) );
#65 = ADVANCED_FACE ( 'NONE', ( #136 ), #283, .F. ) ;
#66 =( NAMED_UNIT ( * ) SI_UNIT ( $, .STERADIAN. ) SOLID_ANGLE_UNIT ( ) );
#67 = CARTESIAN_POINT ( 'NONE',  ( 1.530808498934191817E-17, 0.1250000000000000278, 0.1250000000000000278 ) ) ;
#68 = UNCERTAINTY_MEASURE_WITH_UNIT (LENGTH_MEASURE( 1.000000000000000082E-05 ), #304, 'distance_accuracy_value', 'NONE');
#69 = DIRECTION ( 'NONE',  ( -0.000000000000000000, -1.000000000000000000, -0.000000000000000000 ) ) ;
#70 = DIRECTION ( 'NONE',  ( -0.000000000000000000, -1.000000000000000000, -0.000000000000000000 ) ) ;
#71 = STYLED_ITEM ( 'NONE', ( #176 ), #250 ) ;
#72 =( GEOMETRIC_REPRESENTATION_CONTEXT ( 3 ) GLOBAL_UNCERTAINTY_ASSIGNED_CONTEXT ( ( #105 ) ) GLOBAL_UNIT_ASSIGNED_CONTEXT ( ( #6, #73, #66 ) ) REPRESENTATION_CONTEXT ( 'NONE', 'WORKASPACE' ) );
#73 =( NAMED_UNIT ( * ) PLANE_ANGLE_UNIT ( ) SI_UNIT ( $, .RADIAN. ) );
#74 =( NAMED_UNIT ( * ) PLANE_ANGLE_UNIT ( ) SI_UNIT ( $, .RADIAN. ) );
#75 =( NAMED_UNIT ( * ) SI_UNIT ( $, .STERADIAN. ) SOLID_ANGLE_UNIT ( ) );
#76 = DIRECTION ( 'NONE',  ( -0.000000000000000000, -1.000000000000000000, -0.000000000000000000 ) ) ;
#77 = DIRECTION ( 'NONE',  ( -1.237316121277553448E-16, 1.000000000000000000, 0.000000000000000000 ) ) ;
#78 = STYLED_ITEM ( 'NONE', ( #315 ), #57 ) ;
#79 = VECTOR ( 'NONE', #359, 39.37007874015748143 ) ;
#80 = CARTESIAN_POINT ( 'NONE',  ( 6.123233995736766036E-17, 2.000000000000000000, 0.000000000000000000 ) ) ;
#81 = CARTESIAN_POINT ( 'NONE',  ( 0.000000000000000000, 0.3750000000000000555, 0.000000000000000000 ) ) ;
#82 = STYLED_ITEM ( 'NONE', ( #267 ), #22 ) ;
#83 = SPHERICAL_SURFACE ( 'NONE', #323, 0.1250000000000000000 ) ;
#84 = DIMENSIONAL_EXPONENTS ( 1.000000000000000000, 0.000000000000000000, 0.000000000000000000, 0.000000000000000000, 0.000000000000000000, 0.000000000000000000, 0.000000000000000000 ) ;
#85 = CARTESIAN_POINT ( 'NONE',  ( -1.530808498934191509E-17, 0.1250000000000000000, 0.000000000000000000 ) ) ;
#86 = PLANE ( 'NONE',  #9 ) ;
#87 = STYLED_ITEM ( 'NONE', ( #343 ), #127 ) ;
#88 = DIRECTION ( 'NONE',  ( -0.000000000000000000, -1.000000000000000000, -0.000000000000000000 ) ) ;
#89 = CIRCLE ( 'NONE', #222, 0.1250000000000000000 ) ;
#90 = DIRECTION ( 'NONE',  ( -1.237316121277553448E-16, 1.000000000000000000, -0.000000000000000000 ) ) ;
#91 = CARTESIAN_POINT ( 'NONE',  ( 0.1249999999999999445, 0.3749999999999999445, 1.530808498934189660E-17 ) ) ;
#92 = CYLINDRICAL_SURFACE ( 'NONE', #365, 0.1249999999999999861 ) ;
#93 = DIRECTION ( 'NONE',  ( 0.000000000000000000, 0.000000000000000000, -1.000000000000000000 ) ) ;
#94 = DIRECTION ( 'NONE',  ( 0.000000000000000000, 0.000000000000000000, -1.000000000000000000 ) ) ;
#95 = AXIS2_PLACEMENT_3D ( 'NONE', #232, #333, #271 ) ;
#96 =( CONVERSION_BASED_UNIT ( 'INCH', #346 ) LENGTH_UNIT ( ) NAMED_UNIT ( #187 ) );
#97 = ORIENTED_EDGE ( 'NONE', *, *, #275, .F. ) ;
#98 = UNCERTAINTY_MEASURE_WITH_UNIT (LENGTH_MEASURE( 1.000000000000000082E-05 ), #34, 'distance_accuracy_value', 'NONE');
#99 = VERTEX_POINT ( 'NONE', #177 ) ;
#100 = PRODUCT_DEFINITION_SHAPE ( 'NONE', 'NONE',  #213 ) ;
#101 = AXIS2_PLACEMENT_3D ( 'NONE', #335, #37, #45 ) ;
#102 = DIRECTION ( 'NONE',  ( 1.224646799147353207E-16, -0.000000000000000000, 1.000000000000000000 ) ) ;
#103 = ORIENTED_EDGE ( 'NONE', *, *, #288, .T. ) ;
#104 = DIRECTION ( 'NONE',  ( 0.000000000000000000, 0.000000000000000000, 1.000000000000000000 ) ) ;
#105 = UNCERTAINTY_MEASURE_WITH_UNIT (LENGTH_MEASURE( 1.000000000000000082E-05 ), #6, 'distance_accuracy_value', 'NONE');
#106 = DIRECTION ( 'NONE',  ( -1.000000000000000000, 0.000000000000000000, 0.000000000000000000 ) ) ;
#107 = DIRECTION ( 'NONE',  ( -1.000000000000000000, 0.000000000000000000, 0.000000000000000000 ) ) ;
#108 = FACE_OUTER_BOUND ( 'NONE', #31, .T. ) ;
#109 = CARTESIAN_POINT ( 'NONE',  ( 1.530808498934191201E-17, 0.000000000000000000, 0.1249999999999999861 ) ) ;
#110 = STYLED_ITEM ( 'NONE', ( #164 ), #188 ) ;
#111 = SURFACE_STYLE_USAGE ( .BOTH. , #262 ) ;
#112 = ADVANCED_BREP_SHAPE_REPRESENTATION ( '56137', ( #279, #22, #302 ), #72 ) ;
#113 =( GEOMETRIC_REPRESENTATION_CONTEXT ( 3 ) GLOBAL_UNCERTAINTY_ASSIGNED_CONTEXT ( ( #207 ) ) GLOBAL_UNIT_ASSIGNED_CONTEXT ( ( #360, #186, #305 ) ) REPRESENTATION_CONTEXT ( 'NONE', 'WORKASPACE' ) );
#114 = DIRECTION ( 'NONE',  ( -1.237316121277553448E-16, 1.000000000000000000, -0.000000000000000000 ) ) ;
#115 = EDGE_LOOP ( 'NONE', ( #220, #364, #145, #291 ) ) ;
#116 =( GEOMETRIC_REPRESENTATION_CONTEXT ( 3 ) GLOBAL_UNCERTAINTY_ASSIGNED_CONTEXT ( ( #68 ) ) GLOBAL_UNIT_ASSIGNED_CONTEXT ( ( #304, #209, #189 ) ) REPRESENTATION_CONTEXT ( 'NONE', 'WORKASPACE' ) );
#117 = CARTESIAN_POINT ( 'NONE',  ( 0.000000000000000000, 0.1250000000000000278, 0.000000000000000000 ) ) ;
#118 = ORIENTED_EDGE ( 'NONE', *, *, #287, .F. ) ;
#119 = PRODUCT_RELATED_PRODUCT_CATEGORY ( 'part', '', ( #269 ) ) ;
#120 = CARTESIAN_POINT ( 'NONE',  ( 6.123233995736766036E-17, 2.000000000000000000, 0.000000000000000000 ) ) ;
#121 = ORIENTED_EDGE ( 'NONE', *, *, #340, .T. ) ;
#122 = ORIENTED_EDGE ( 'NONE', *, *, #257, .T. ) ;
#123 = MECHANICAL_DESIGN_GEOMETRIC_PRESENTATION_REPRESENTATION (  '', ( #78 ), #2 ) ;
#124 = AXIS2_PLACEMENT_3D ( 'NONE', #358, #76, #214 ) ;
#125 = CARTESIAN_POINT ( 'NONE',  ( -1.530808498934191509E-17, 0.1250000000000000000, 0.000000000000000000 ) ) ;
#126 = EDGE_CURVE ( 'NONE', #38, #99, #240, .T. ) ;
#127 = ADVANCED_FACE ( 'NONE', ( #147 ), #86, .T. ) ;
#128 = LENGTH_MEASURE_WITH_UNIT ( LENGTH_MEASURE( 0.02539999999999999897 ), #156 );
#129 = LINE ( 'NONE', #274, #370 ) ;
#130 = PLANE ( 'NONE',  #318 ) ;
#131 = FACE_OUTER_BOUND ( 'NONE', #328, .T. ) ;
#132 = CARTESIAN_POINT ( 'NONE',  ( 0.000000000000000000, 0.000000000000000000, 0.000000000000000000 ) ) ;
#133 = ORIENTED_EDGE ( 'NONE', *, *, #287, .T. ) ;
#134 = DIRECTION ( 'NONE',  ( 0.000000000000000000, -0.000000000000000000, 1.000000000000000000 ) ) ;
#135 =( NAMED_UNIT ( * ) SI_UNIT ( $, .STERADIAN. ) SOLID_ANGLE_UNIT ( ) );
#136 = FACE_OUTER_BOUND ( 'NONE', #337, .T. ) ;
#137 = DIRECTION ( 'NONE',  ( -1.000000000000000000, 0.000000000000000000, 0.000000000000000000 ) ) ;
#138 = PRESENTATION_LAYER_ASSIGNMENT (  '', '', ( #110 ) ) ;
#139 = ORIENTED_EDGE ( 'NONE', *, *, #257, .F. ) ;
#140 = APPLICATION_PROTOCOL_DEFINITION ( 'draft international standard', 'automotive_design', 1998, #258 ) ;
#141 = SURFACE_SIDE_STYLE ('',( #225 ) ) ;
#142 = ORIENTED_EDGE ( 'NONE', *, *, #356, .T. ) ;
#143 = COLOUR_RGB ( '',0.7921568627450980005, 0.8196078431372548767, 0.9333333333333333481 ) ;
#144 =( GEOMETRIC_REPRESENTATION_CONTEXT ( 3 ) GLOBAL_UNCERTAINTY_ASSIGNED_CONTEXT ( ( #98 ) ) GLOBAL_UNIT_ASSIGNED_CONTEXT ( ( #34, #74, #10 ) ) REPRESENTATION_CONTEXT ( 'NONE', 'WORKASPACE' ) );
#145 = ORIENTED_EDGE ( 'NONE', *, *, #238, .T. ) ;
#146 = EDGE_CURVE ( 'NONE', #212, #353, #221, .T. ) ;
#147 = FACE_OUTER_BOUND ( 'NONE', #268, .T. ) ;
#148 = SURFACE_STYLE_USAGE ( .BOTH. , #35 ) ;
#149 = SHAPE_DEFINITION_REPRESENTATION ( #100, #112 ) ;
#150 = FILL_AREA_STYLE ('',( #14 ) ) ;
#151 = ORIENTED_EDGE ( 'NONE', *, *, #203, .T. ) ;
#152 = CARTESIAN_POINT ( 'NONE',  ( -0.1250000000000000000, 0.1250000000000000278, 1.530808498934191201E-17 ) ) ;
#153 = ORIENTED_EDGE ( 'NONE', *, *, #126, .T. ) ;
#154 = AXIS2_PLACEMENT_3D ( 'NONE', #125, #104, #158 ) ;
#155 = SURFACE_STYLE_USAGE ( .BOTH. , #281 ) ;
#156 =( LENGTH_UNIT ( ) NAMED_UNIT ( * ) SI_UNIT ( $, .METRE. ) );
#157 = DIMENSIONAL_EXPONENTS ( 1.000000000000000000, 0.000000000000000000, 0.000000000000000000, 0.000000000000000000, 0.000000000000000000, 0.000000000000000000, 0.000000000000000000 ) ;
#158 = DIRECTION ( 'NONE',  ( 1.000000000000000000, 0.000000000000000000, 0.000000000000000000 ) ) ;
#159 = PRESENTATION_LAYER_ASSIGNMENT (  '', '', ( #71 ) ) ;
#160 = MECHANICAL_DESIGN_GEOMETRIC_PRESENTATION_REPRESENTATION (  '', ( #339 ), #113 ) ;
#161 = CARTESIAN_POINT ( 'NONE',  ( -1.530808498934191509E-17, 0.1250000000000000000, 0.000000000000000000 ) ) ;
#162 = CYLINDRICAL_SURFACE ( 'NONE', #224, 0.1249999999999999861 ) ;
#163 = ORIENTED_EDGE ( 'NONE', *, *, #278, .T. ) ;
#164 = PRESENTATION_STYLE_ASSIGNMENT (( #51 ) ) ;
#165 =( NAMED_UNIT ( * ) PLANE_ANGLE_UNIT ( ) SI_UNIT ( $, .RADIAN. ) );
#166 = LINE ( 'NONE', #255, #314 ) ;
#167 = EDGE_CURVE ( 'NONE', #231, #180, #166, .T. ) ;
#168 =( NAMED_UNIT ( * ) SI_UNIT ( $, .STERADIAN. ) SOLID_ANGLE_UNIT ( ) );
#169 = SURFACE_STYLE_USAGE ( .BOTH. , #60 ) ;
#170 = MECHANICAL_DESIGN_GEOMETRIC_PRESENTATION_REPRESENTATION (  '', ( #82 ), #276 ) ;
#171 = SURFACE_STYLE_USAGE ( .BOTH. , #141 ) ;
#172 = AXIS2_PLACEMENT_3D ( 'NONE', #21, #316, #93 ) ;
#173 = SURFACE_STYLE_FILL_AREA ( #26 ) ;
#174 = UNCERTAINTY_MEASURE_WITH_UNIT (LENGTH_MEASURE( 1.000000000000000082E-05 ), #96, 'distance_accuracy_value', 'NONE');
#175 = ORIENTED_EDGE ( 'NONE', *, *, #167, .F. ) ;
#176 = PRESENTATION_STYLE_ASSIGNMENT (( #169 ) ) ;
#177 = CARTESIAN_POINT ( 'NONE',  ( 0.000000000000000000, 0.3750000000000000555, -0.1249999999999999584 ) ) ;
#178 = FILL_AREA_STYLE_COLOUR ( '', #143 ) ;
#179 = COLOUR_RGB ( '',1.000000000000000000, 0.000000000000000000, 0.000000000000000000 ) ;
#180 = VERTEX_POINT ( 'NONE', #190 ) ;
#181 = DIRECTION ( 'NONE',  ( -1.237316121277553448E-16, 1.000000000000000000, -0.000000000000000000 ) ) ;
#182 = ORIENTED_EDGE ( 'NONE', *, *, #340, .F. ) ;
#183 = SURFACE_STYLE_USAGE ( .BOTH. , #329 ) ;
#184 = AXIS2_PLACEMENT_3D ( 'NONE', #367, #90, #201 ) ;
#185 =( LENGTH_UNIT ( ) NAMED_UNIT ( * ) SI_UNIT ( $, .METRE. ) );
#186 =( NAMED_UNIT ( * ) PLANE_ANGLE_UNIT ( ) SI_UNIT ( $, .RADIAN. ) );
#187 = DIMENSIONAL_EXPONENTS ( 1.000000000000000000, 0.000000000000000000, 0.000000000000000000, 0.000000000000000000, 0.000000000000000000, 0.000000000000000000, 0.000000000000000000 ) ;
#188 = ADVANCED_FACE ( 'NONE', ( #131 ), #83, .T. ) ;
#189 =( NAMED_UNIT ( * ) SI_UNIT ( $, .STERADIAN. ) SOLID_ANGLE_UNIT ( ) );
#190 = CARTESIAN_POINT ( 'NONE',  ( -0.1249999999999998335, 2.000000000000000000, 0.000000000000000000 ) ) ;
#191 = APPLICATION_CONTEXT ( 'automotive_design' ) ;
#192 = FILL_AREA_STYLE ('',( #310 ) ) ;
#193 = DIRECTION ( 'NONE',  ( 0.000000000000000000, 0.000000000000000000, 1.000000000000000000 ) ) ;
#194 = AXIS2_PLACEMENT_3D ( 'NONE', #1, #114, #137 ) ;
#195 = DIRECTION ( 'NONE',  ( 0.000000000000000000, 0.000000000000000000, -1.000000000000000000 ) ) ;
#196 = LENGTH_MEASURE_WITH_UNIT ( LENGTH_MEASURE( 0.02539999999999999897 ), #227 );
#197 = DIRECTION ( 'NONE',  ( 0.000000000000000000, 0.000000000000000000, -1.000000000000000000 ) ) ;
#198 = EDGE_CURVE ( 'NONE', #236, #211, #249, .T. ) ;
#199 = CARTESIAN_POINT ( 'NONE',  ( 1.530808498934191201E-17, 0.3750000000000000555, 0.1249999999999999584 ) ) ;
#200 = FILL_AREA_STYLE_COLOUR ( '', #342 ) ;
#201 = DIRECTION ( 'NONE',  ( -1.000000000000000000, 0.000000000000000000, 0.000000000000000000 ) ) ;
#202 = CIRCLE ( 'NONE', #172, 0.1249999999999999584 ) ;
#203 = EDGE_CURVE ( 'NONE', #211, #180, #32, .T. ) ;
#204 = FILL_AREA_STYLE ('',( #226 ) ) ;
#205 = ORIENTED_EDGE ( 'NONE', *, *, #198, .F. ) ;
#206 = FILL_AREA_STYLE ('',( #178 ) ) ;
#207 = UNCERTAINTY_MEASURE_WITH_UNIT (LENGTH_MEASURE( 1.000000000000000082E-05 ), #360, 'distance_accuracy_value', 'NONE');
#208 = EDGE_LOOP ( 'NONE', ( #205, #133, #233, #219 ) ) ;
#209 =( NAMED_UNIT ( * ) PLANE_ANGLE_UNIT ( ) SI_UNIT ( $, .RADIAN. ) );
#210 = CARTESIAN_POINT ( 'NONE',  ( 2.622962096649701172E-16, 0.3749999999999999445, 0.000000000000000000 ) ) ;
#211 = VERTEX_POINT ( 'NONE', #260 ) ;
#212 = VERTEX_POINT ( 'NONE', #3 ) ;
#213 = PRODUCT_DEFINITION ( 'UNKNOWN', '', #62, #326 ) ;
#214 = DIRECTION ( 'NONE',  ( 0.000000000000000000, 0.000000000000000000, -1.000000000000000000 ) ) ;
#215 = DIRECTION ( 'NONE',  ( -0.000000000000000000, -1.000000000000000000, -0.000000000000000000 ) ) ;
#216 = SURFACE_STYLE_FILL_AREA ( #46 ) ;
#217 =( NAMED_UNIT ( * ) SI_UNIT ( $, .STERADIAN. ) SOLID_ANGLE_UNIT ( ) );
#218 = DIRECTION ( 'NONE',  ( -1.237316121277553448E-16, 1.000000000000000000, -0.000000000000000000 ) ) ;
#219 = ORIENTED_EDGE ( 'NONE', *, *, #203, .F. ) ;
#220 = ORIENTED_EDGE ( 'NONE', *, *, #309, .F. ) ;
#221 = CIRCLE ( 'NONE', #286, 0.1250000000000000000 ) ;
#222 = AXIS2_PLACEMENT_3D ( 'NONE', #355, #102, #327 ) ;
#223 =( NAMED_UNIT ( * ) PLANE_ANGLE_UNIT ( ) SI_UNIT ( $, .RADIAN. ) );
#224 = AXIS2_PLACEMENT_3D ( 'NONE', #132, #215, #306 ) ;
#225 = SURFACE_STYLE_FILL_AREA ( #204 ) ;
#226 = FILL_AREA_STYLE_COLOUR ( '', #179 ) ;
#227 =( LENGTH_UNIT ( ) NAMED_UNIT ( * ) SI_UNIT ( $, .METRE. ) );
#228 = LENGTH_MEASURE_WITH_UNIT ( LENGTH_MEASURE( 0.02539999999999999897 ), #64 );
#229 = CARTESIAN_POINT ( 'NONE',  ( -0.1249999999999994310, 0.3749999999999999445, 0.000000000000000000 ) ) ;
#230 = MECHANICAL_DESIGN_GEOMETRIC_PRESENTATION_REPRESENTATION (  '', ( #87 ), #116 ) ;
#231 = VERTEX_POINT ( 'NONE', #229 ) ;
#232 = CARTESIAN_POINT ( 'NONE',  ( 2.622962096649701172E-16, 0.3749999999999999445, 0.000000000000000000 ) ) ;
#233 = ORIENTED_EDGE ( 'NONE', *, *, #167, .T. ) ;
#234 = UNCERTAINTY_MEASURE_WITH_UNIT (LENGTH_MEASURE( 1.000000000000000082E-05 ), #23, 'distance_accuracy_value', 'NONE');
#235 = DIRECTION ( 'NONE',  ( 1.000000000000000000, 0.000000000000000000, 0.000000000000000000 ) ) ;
#236 = VERTEX_POINT ( 'NONE', #91 ) ;
#237 = FACE_OUTER_BOUND ( 'NONE', #320, .T. ) ;
#238 = EDGE_CURVE ( 'NONE', #5, #212, #246, .T. ) ;
#239 = ORIENTED_EDGE ( 'NONE', *, *, #198, .T. ) ;
#240 = CIRCLE ( 'NONE', #347, 0.1249999999999999584 ) ;
#241 = COLOUR_RGB ( '',1.000000000000000000, 0.000000000000000000, 0.000000000000000000 ) ;
#242 = DIRECTION ( 'NONE',  ( -1.000000000000000000, 0.000000000000000000, 0.000000000000000000 ) ) ;
#243 = DIRECTION ( 'NONE',  ( 1.000000000000000000, 1.237316121277553448E-16, 0.000000000000000000 ) ) ;
#244 = CARTESIAN_POINT ( 'NONE',  ( 0.1249999999999999584, 2.000000000000000000, 0.000000000000000000 ) ) ;
#245 = LENGTH_MEASURE_WITH_UNIT ( LENGTH_MEASURE( 0.02539999999999999897 ), #185 );
#246 = CIRCLE ( 'NONE', #292, 0.1250000000000000000 ) ;
#247 = CIRCLE ( 'NONE', #348, 0.1249999999999999029 ) ;
#248 = DIMENSIONAL_EXPONENTS ( 1.000000000000000000, 0.000000000000000000, 0.000000000000000000, 0.000000000000000000, 0.000000000000000000, 0.000000000000000000, 0.000000000000000000 ) ;
#249 = LINE ( 'NONE', #265, #264 ) ;
#250 = ADVANCED_FACE ( 'NONE', ( #349 ), #273, .T. ) ;
#251 = DIRECTION ( 'NONE',  ( 0.000000000000000000, 0.000000000000000000, -1.000000000000000000 ) ) ;
#252 =( GEOMETRIC_REPRESENTATION_CONTEXT ( 3 ) GLOBAL_UNCERTAINTY_ASSIGNED_CONTEXT ( ( #234 ) ) GLOBAL_UNIT_ASSIGNED_CONTEXT ( ( #23, #223, #135 ) ) REPRESENTATION_CONTEXT ( 'NONE', 'WORKASPACE' ) );
#253 = AXIS2_PLACEMENT_3D ( 'NONE', #210, #218, #242 ) ;
#254 = SURFACE_STYLE_FILL_AREA ( #192 ) ;
#255 = CARTESIAN_POINT ( 'NONE',  ( -0.1249999999999997224, 2.000000000000000000, 0.000000000000000000 ) ) ;
#256 = CARTESIAN_POINT ( 'NONE',  ( 0.000000000000000000, 0.000000000000000000, 0.000000000000000000 ) ) ;
#257 = EDGE_CURVE ( 'NONE', #231, #236, #362, .T. ) ;
#258 = APPLICATION_CONTEXT ( 'automotive_design' ) ;
#259 = CIRCLE ( 'NONE', #124, 0.1250000000000000000 ) ;
#260 = CARTESIAN_POINT ( 'NONE',  ( 0.1249999999999999584, 2.000000000000000000, 1.530808498934189660E-17 ) ) ;
#261 = ORIENTED_EDGE ( 'NONE', *, *, #288, .F. ) ;
#262 = SURFACE_SIDE_STYLE ('',( #173 ) ) ;
#263 = VERTEX_POINT ( 'NONE', #152 ) ;
#264 = VECTOR ( 'NONE', #29, 39.37007874015748143 ) ;
#265 = CARTESIAN_POINT ( 'NONE',  ( 0.1249999999999998612, 2.000000000000000000, 1.530808498934189044E-17 ) ) ;
#266 = ORIENTED_EDGE ( 'NONE', *, *, #146, .F. ) ;
#267 = PRESENTATION_STYLE_ASSIGNMENT (( #148 ) ) ;
#268 = EDGE_LOOP ( 'NONE', ( #319, #290 ) ) ;
#269 = PRODUCT ( '56137', '56137', '', ( #27 ) ) ;
#270 = ADVANCED_FACE ( 'NONE', ( #237 ), #130, .F. ) ;
#271 = DIRECTION ( 'NONE',  ( -1.000000000000000000, 0.000000000000000000, 0.000000000000000000 ) ) ;
#272 = EDGE_LOOP ( 'NONE', ( #142, #43, #261, #351, #182 ) ) ;
#273 = SPHERICAL_SURFACE ( 'NONE', #154, 0.1250000000000000000 ) ;
#274 = CARTESIAN_POINT ( 'NONE',  ( 0.000000000000000000, 0.000000000000000000, -0.1249999999999999861 ) ) ;
#275 = EDGE_CURVE ( 'NONE', #180, #211, #247, .T. ) ;
#276 =( GEOMETRIC_REPRESENTATION_CONTEXT ( 3 ) GLOBAL_UNCERTAINTY_ASSIGNED_CONTEXT ( ( #352 ) ) GLOBAL_UNIT_ASSIGNED_CONTEXT ( ( #371, #165, #168 ) ) REPRESENTATION_CONTEXT ( 'NONE', 'WORKASPACE' ) );
#277 = DIRECTION ( 'NONE',  ( -1.237316121277553448E-16, 1.000000000000000000, -0.000000000000000000 ) ) ;
#278 = EDGE_CURVE ( 'NONE', #8, #263, #259, .T. ) ;
#279 = MANIFOLD_SOLID_BREP ( 'Revolve - Cutting Edge', #301 ) ;
#280 = ADVANCED_FACE ( 'NONE', ( #108 ), #300, .T. ) ;
#281 = SURFACE_SIDE_STYLE ('',( #216 ) ) ;
#282 = PRESENTATION_LAYER_ASSIGNMENT (  '', '', ( #294 ) ) ;
#283 = PLANE ( 'NONE',  #331 ) ;
#284 = FACE_OUTER_BOUND ( 'NONE', #208, .T. ) ;
#285 = FACE_OUTER_BOUND ( 'NONE', #272, .T. ) ;
#286 = AXIS2_PLACEMENT_3D ( 'NONE', #161, #251, #341 ) ;
#287 = EDGE_CURVE ( 'NONE', #236, #231, #366, .T. ) ;
#288 = EDGE_CURVE ( 'NONE', #212, #8, #33, .T. ) ;
#289 = DIRECTION ( 'NONE',  ( 0.000000000000000000, 0.000000000000000000, -1.000000000000000000 ) ) ;
#290 = ORIENTED_EDGE ( 'NONE', *, *, #126, .F. ) ;
#291 = ORIENTED_EDGE ( 'NONE', *, *, #146, .T. ) ;
#292 = AXIS2_PLACEMENT_3D ( 'NONE', #117, #69, #94 ) ;
#293 = LENGTH_MEASURE_WITH_UNIT ( LENGTH_MEASURE( 0.02539999999999999897 ), #345 );
#294 = STYLED_ITEM ( 'NONE', ( #332 ), #344 ) ;
#295 = SURFACE_STYLE_FILL_AREA ( #206 ) ;
#296 = CARTESIAN_POINT ( 'NONE',  ( 0.000000000000000000, 0.000000000000000000, 0.000000000000000000 ) ) ;
#297 = DIRECTION ( 'NONE',  ( 1.237316121277553448E-16, -1.000000000000000000, 0.000000000000000000 ) ) ;
#298 = EDGE_LOOP ( 'NONE', ( #36, #153, #121, #42, #357 ) ) ;
#299 = ORIENTED_EDGE ( 'NONE', *, *, #309, .T. ) ;
#300 = CYLINDRICAL_SURFACE ( 'NONE', #324, 0.1249999999999997918 ) ;
#301 = CLOSED_SHELL ( 'NONE', ( #188, #57, #127, #344, #250 ) ) ;
#302 = AXIS2_PLACEMENT_3D ( 'NONE', #296, #4, #235 ) ;
#303 = DIRECTION ( 'NONE',  ( -1.000000000000000000, -1.237316121277553448E-16, 0.000000000000000000 ) ) ;
#304 =( CONVERSION_BASED_UNIT ( 'INCH', #330 ) LENGTH_UNIT ( ) NAMED_UNIT ( #52 ) );
#305 =( NAMED_UNIT ( * ) SI_UNIT ( $, .STERADIAN. ) SOLID_ANGLE_UNIT ( ) );
#306 = DIRECTION ( 'NONE',  ( 0.000000000000000000, 0.000000000000000000, -1.000000000000000000 ) ) ;
#307 =( CONVERSION_BASED_UNIT ( 'INCH', #245 ) LENGTH_UNIT ( ) NAMED_UNIT ( #334 ) );
#308 = CLOSED_SHELL ( 'NONE', ( #280, #65, #39, #270 ) ) ;
#309 = EDGE_CURVE ( 'NONE', #263, #353, #89, .T. ) ;
#310 = FILL_AREA_STYLE_COLOUR ( '', #61 ) ;
#311 = FACE_OUTER_BOUND ( 'NONE', #298, .T. ) ;
#312 = SURFACE_SIDE_STYLE ('',( #254 ) ) ;
#313 = DIRECTION ( 'NONE',  ( 1.000000000000000000, 0.000000000000000000, 0.000000000000000000 ) ) ;
#314 = VECTOR ( 'NONE', #277, 39.37007874015748143 ) ;
#315 = PRESENTATION_STYLE_ASSIGNMENT (( #111 ) ) ;
#316 = DIRECTION ( 'NONE',  ( -0.000000000000000000, -1.000000000000000000, -0.000000000000000000 ) ) ;
#317 = SURFACE_STYLE_FILL_AREA ( #321 ) ;
#318 = AXIS2_PLACEMENT_3D ( 'NONE', #244, #297, #243 ) ;
#319 = ORIENTED_EDGE ( 'NONE', *, *, #356, .F. ) ;
#320 = EDGE_LOOP ( 'NONE', ( #47, #151 ) ) ;
#321 = FILL_AREA_STYLE ('',( #200 ) ) ;
#322 = APPLICATION_PROTOCOL_DEFINITION ( 'draft international standard', 'automotive_design', 1998, #191 ) ;
#323 = AXIS2_PLACEMENT_3D ( 'NONE', #85, #193, #313 ) ;
#324 = AXIS2_PLACEMENT_3D ( 'NONE', #80, #7, #107 ) ;
#325 = CARTESIAN_POINT ( 'NONE',  ( 0.000000000000000000, 0.1250000000000000278, -0.1250000000000000000 ) ) ;
#326 = PRODUCT_DEFINITION_CONTEXT ( 'detailed design', #258, 'design' ) ;
#327 = DIRECTION ( 'NONE',  ( 1.000000000000000000, 0.000000000000000000, -1.224646799147353207E-16 ) ) ;
#328 = EDGE_LOOP ( 'NONE', ( #163, #299, #266, #103 ) ) ;
#329 = SURFACE_SIDE_STYLE ('',( #12 ) ) ;
#330 = LENGTH_MEASURE_WITH_UNIT ( LENGTH_MEASURE( 0.02539999999999999897 ), #350 );
#331 = AXIS2_PLACEMENT_3D ( 'NONE', #24, #77, #303 ) ;
#332 = PRESENTATION_STYLE_ASSIGNMENT (( #155 ) ) ;
#333 = DIRECTION ( 'NONE',  ( -1.237316121277553448E-16, 1.000000000000000000, -0.000000000000000000 ) ) ;
#334 = DIMENSIONAL_EXPONENTS ( 1.000000000000000000, 0.000000000000000000, 0.000000000000000000, 0.000000000000000000, 0.000000000000000000, 0.000000000000000000, 0.000000000000000000 ) ;
#335 = CARTESIAN_POINT ( 'NONE',  ( 0.000000000000000000, 0.1250000000000000278, 0.000000000000000000 ) ) ;
#336 = EDGE_CURVE ( 'NONE', #38, #8, #41, .T. ) ;
#337 = EDGE_LOOP ( 'NONE', ( #139, #118 ) ) ;
#338 = CIRCLE ( 'NONE', #54, 0.1250000000000000000 ) ;
#339 = STYLED_ITEM ( 'NONE', ( #48 ), #279 ) ;
#340 = EDGE_CURVE ( 'NONE', #99, #5, #129, .T. ) ;
#341 = DIRECTION ( 'NONE',  ( -1.000000000000000000, 0.000000000000000000, 0.000000000000000000 ) ) ;
#342 = COLOUR_RGB ( '',1.000000000000000000, 0.000000000000000000, 0.000000000000000000 ) ;
#343 = PRESENTATION_STYLE_ASSIGNMENT (( #171 ) ) ;
#344 = ADVANCED_FACE ( 'NONE', ( #311 ), #162, .T. ) ;
#345 =( LENGTH_UNIT ( ) NAMED_UNIT ( * ) SI_UNIT ( $, .METRE. ) );
#346 = LENGTH_MEASURE_WITH_UNIT ( LENGTH_MEASURE( 0.02539999999999999897 ), #373 );
#347 = AXIS2_PLACEMENT_3D ( 'NONE', #372, #70, #197 ) ;
#348 = AXIS2_PLACEMENT_3D ( 'NONE', #120, #181, #106 ) ;
#349 = FACE_OUTER_BOUND ( 'NONE', #115, .T. ) ;
#350 =( LENGTH_UNIT ( ) NAMED_UNIT ( * ) SI_UNIT ( $, .METRE. ) );
#351 = ORIENTED_EDGE ( 'NONE', *, *, #238, .F. ) ;
#352 = UNCERTAINTY_MEASURE_WITH_UNIT (LENGTH_MEASURE( 1.000000000000000082E-05 ), #371, 'distance_accuracy_value', 'NONE');
#353 = VERTEX_POINT ( 'NONE', #16 ) ;
#354 = PRESENTATION_LAYER_ASSIGNMENT (  '', '', ( #82 ) ) ;
#355 = CARTESIAN_POINT ( 'NONE',  ( -1.530808498934191509E-17, 0.1250000000000000000, 0.000000000000000000 ) ) ;
#356 = EDGE_CURVE ( 'NONE', #99, #38, #202, .T. ) ;
#357 = ORIENTED_EDGE ( 'NONE', *, *, #278, .F. ) ;
#358 = CARTESIAN_POINT ( 'NONE',  ( 0.000000000000000000, 0.1250000000000000278, 0.000000000000000000 ) ) ;
#359 = DIRECTION ( 'NONE',  ( -0.000000000000000000, -1.000000000000000000, -0.000000000000000000 ) ) ;
#360 =( CONVERSION_BASED_UNIT ( 'INCH', #128 ) LENGTH_UNIT ( ) NAMED_UNIT ( #248 ) );
#361 =( NAMED_UNIT ( * ) PLANE_ANGLE_UNIT ( ) SI_UNIT ( $, .RADIAN. ) );
#362 = CIRCLE ( 'NONE', #95, 0.1249999999999996947 ) ;
#363 = DIMENSIONAL_EXPONENTS ( 1.000000000000000000, 0.000000000000000000, 0.000000000000000000, 0.000000000000000000, 0.000000000000000000, 0.000000000000000000, 0.000000000000000000 ) ;
#364 = ORIENTED_EDGE ( 'NONE', *, *, #28, .T. ) ;
#365 = AXIS2_PLACEMENT_3D ( 'NONE', #256, #88, #195 ) ;
#366 = CIRCLE ( 'NONE', #253, 0.1249999999999996947 ) ;
#367 = CARTESIAN_POINT ( 'NONE',  ( 6.123233995736766036E-17, 2.000000000000000000, 0.000000000000000000 ) ) ;
#368 =( LENGTH_UNIT ( ) NAMED_UNIT ( * ) SI_UNIT ( $, .METRE. ) );
#369 = COLOUR_RGB ( '',1.000000000000000000, 0.000000000000000000, 0.000000000000000000 ) ;
#370 = VECTOR ( 'NONE', #13, 39.37007874015748143 ) ;
#371 =( CONVERSION_BASED_UNIT ( 'INCH', #196 ) LENGTH_UNIT ( ) NAMED_UNIT ( #157 ) );
#372 = CARTESIAN_POINT ( 'NONE',  ( 0.000000000000000000, 0.3750000000000000555, 0.000000000000000000 ) ) ;
#373 =( LENGTH_UNIT ( ) NAMED_UNIT ( * ) SI_UNIT ( $, .METRE. ) );
ENDSEC;
END-ISO-10303-21;
