ISO-10303-21;
HEADER;
FILE_DESCRIPTION (( 'STEP AP214' ),
    '1' );
FILE_NAME ('Micro_MMBM-020-7.STEP',
    '2021-09-03T16:31:43',
    ( '' ),
    ( '' ),
    'SwSTEP 2.0',
    'SolidWorks 2020',
    '' );
FILE_SCHEMA (( 'AUTOMOTIVE_DESIGN' ));
ENDSEC;

DATA;
#1 = DIRECTION ( 'NONE',  ( -0.0000000000000000000, -0.0000000000000000000, -1.000000000000000000 ) ) ;
#2 = EDGE_CURVE ( 'NONE', #96, #113, #3, .T. ) ;
#3 = CIRCLE ( 'NONE', #158, 0.03936606300000000669 ) ;
#4 =( GEOMETRIC_REPRESENTATION_CONTEXT ( 3 ) GLOBAL_UNCERTAINTY_ASSIGNED_CONTEXT ( ( #199 ) ) GLOBAL_UNIT_ASSIGNED_CONTEXT ( ( #348, #341, #22 ) ) REPRESENTATION_CONTEXT ( 'NONE', 'WORKASPACE' ) );
#5 = DIRECTION ( 'NONE',  ( -1.000000000000000000, 0.0000000000000000000, 0.0000000000000000000 ) ) ;
#6 = DIRECTION ( 'NONE',  ( 0.1736481776669306087, 2.126576849575774688E-17, -0.9848077530122080203 ) ) ;
#7 = AXIS2_PLACEMENT_3D ( 'NONE', #229, #84, #54 ) ;
#8 = FACE_OUTER_BOUND ( 'NONE', #174, .T. ) ;
#9 = AXIS2_PLACEMENT_3D ( 'NONE', #68, #182, #64 ) ;
#10 = ORIENTED_EDGE ( 'NONE', *, *, #172, .T. ) ;
#11 = LINE ( 'NONE', #125, #258 ) ;
#12 = VERTEX_POINT ( 'NONE', #136 ) ;
#13 = CARTESIAN_POINT ( 'NONE',  ( 0.0000000000000000000, 0.0000000000000000000, 0.0000000000000000000 ) ) ;
#14 = DIRECTION ( 'NONE',  ( -0.0000000000000000000, -0.0000000000000000000, -1.000000000000000000 ) ) ;
#15 = ORIENTED_EDGE ( 'NONE', *, *, #163, .T. ) ;
#16 = VERTEX_POINT ( 'NONE', #58 ) ;
#17 = FACE_OUTER_BOUND ( 'NONE', #357, .T. ) ;
#18 = CARTESIAN_POINT ( 'NONE',  ( 0.0000000000000000000, 0.0000000000000000000, 2.244094000000000033 ) ) ;
#19 = CARTESIAN_POINT ( 'NONE',  ( -0.1031100000000002570, 0.0000000000000000000, 2.244094000000000033 ) ) ;
#20 = DIRECTION ( 'NONE',  ( -1.000000000000000000, 0.0000000000000000000, 0.0000000000000000000 ) ) ;
#21 = CIRCLE ( 'NONE', #271, 0.03740150000000001113 ) ;
#22 =( NAMED_UNIT ( * ) SI_UNIT ( $, .STERADIAN. ) SOLID_ANGLE_UNIT ( ) );
#23 = CARTESIAN_POINT ( 'NONE',  ( 0.0000000000000000000, 0.0000000000000000000, 2.244094000000000033 ) ) ;
#24 =( LENGTH_UNIT ( ) NAMED_UNIT ( * ) SI_UNIT ( $, .METRE. ) );
#25 = DIRECTION ( 'NONE',  ( 0.0000000000000000000, 0.0000000000000000000, -1.000000000000000000 ) ) ;
#26 = DIRECTION ( 'NONE',  ( -0.0000000000000000000, -0.0000000000000000000, -1.000000000000000000 ) ) ;
#27 = AXIS2_PLACEMENT_3D ( 'NONE', #185, #291, #316 ) ;
#28 = CARTESIAN_POINT ( 'NONE',  ( -0.03936606300000000669, 0.0000000000000000000, 0.07874000000000000443 ) ) ;
#29 = ADVANCED_FACE ( 'NONE', ( #197 ), #87, .T. ) ;
#30 = LENGTH_MEASURE_WITH_UNIT ( LENGTH_MEASURE( 0.02539999999999999897 ), #24 );
#31 = FACE_OUTER_BOUND ( 'NONE', #250, .T. ) ;
#32 = ADVANCED_BREP_SHAPE_REPRESENTATION ( 'Micro_MMBM-020-7', ( #265, #359 ), #4 ) ;
#33 = EDGE_CURVE ( 'NONE', #16, #41, #310, .T. ) ;
#34 = FACE_OUTER_BOUND ( 'NONE', #48, .T. ) ;
#35 = DIRECTION ( 'NONE',  ( -0.0000000000000000000, -0.0000000000000000000, -1.000000000000000000 ) ) ;
#36 = ORIENTED_EDGE ( 'NONE', *, *, #211, .T. ) ;
#37 = CARTESIAN_POINT ( 'NONE',  ( 0.03936606300000000669, 4.820952304798306567E-18, 0.0000000000000000000 ) ) ;
#38 = AXIS2_PLACEMENT_3D ( 'NONE', #76, #43, #107 ) ;
#39 = DIMENSIONAL_EXPONENTS ( 1.000000000000000000, 0.0000000000000000000, 0.0000000000000000000, 0.0000000000000000000, 0.0000000000000000000, 0.0000000000000000000, 0.0000000000000000000 ) ;
#40 = ADVANCED_FACE ( 'NONE', ( #288 ), #262, .T. ) ;
#41 = VERTEX_POINT ( 'NONE', #285 ) ;
#42 = FACE_OUTER_BOUND ( 'NONE', #309, .T. ) ;
#43 = DIRECTION ( 'NONE',  ( 0.0000000000000000000, 0.0000000000000000000, -1.000000000000000000 ) ) ;
#44 = ORIENTED_EDGE ( 'NONE', *, *, #377, .F. ) ;
#45 = DIRECTION ( 'NONE',  ( -0.1736481776669306087, 0.0000000000000000000, -0.9848077530122080203 ) ) ;
#46 = VECTOR ( 'NONE', #56, 39.37007874015748854 ) ;
#47 = AXIS2_PLACEMENT_3D ( 'NONE', #152, #223, #252 ) ;
#48 = EDGE_LOOP ( 'NONE', ( #355, #186 ) ) ;
#49 =( CONVERSION_BASED_UNIT ( 'INCH', #131 ) LENGTH_UNIT ( ) NAMED_UNIT ( #311 ) );
#50 = EDGE_LOOP ( 'NONE', ( #71, #36, #303, #326 ) ) ;
#51 = CARTESIAN_POINT ( 'NONE',  ( 0.03740150000000003194, 0.0000000000000000000, 0.2755909999999999749 ) ) ;
#52 = UNCERTAINTY_MEASURE_WITH_UNIT (LENGTH_MEASURE( 1.000000000000000082E-05 ), #138, 'distance_accuracy_value', 'NONE');
#53 = PRESENTATION_LAYER_ASSIGNMENT (  '', '', ( #183 ) ) ;
#54 = DIRECTION ( 'NONE',  ( -1.000000000000000000, 0.0000000000000000000, 0.0000000000000000000 ) ) ;
#55 = CONICAL_SURFACE ( 'NONE', #270, 0.1031100000000002570, 0.7853981633974318477 ) ;
#56 = DIRECTION ( 'NONE',  ( 0.7071067811865358044, 8.659560562354788645E-17, -0.7071067811865590080 ) ) ;
#57 = CARTESIAN_POINT ( 'NONE',  ( -0.03740150000000003194, 0.0000000000000000000, 0.2755909999999999749 ) ) ;
#58 = CARTESIAN_POINT ( 'NONE',  ( 0.1031100000000002570, 1.354581824536888722E-17, 2.244094000000000033 ) ) ;
#59 = PRODUCT_DEFINITION_FORMATION_WITH_SPECIFIED_SOURCE ( 'ANY', '', #263, .NOT_KNOWN. ) ;
#60 =( NAMED_UNIT ( * ) SI_UNIT ( $, .STERADIAN. ) SOLID_ANGLE_UNIT ( ) );
#61 = EDGE_CURVE ( 'NONE', #191, #41, #225, .T. ) ;
#62 = AXIS2_PLACEMENT_3D ( 'NONE', #378, #255, #284 ) ;
#63 = DIRECTION ( 'NONE',  ( -1.000000000000000000, 0.0000000000000000000, 0.0000000000000000000 ) ) ;
#64 = DIRECTION ( 'NONE',  ( 1.000000000000000000, 0.0000000000000000000, -0.0000000000000000000 ) ) ;
#65 = COLOUR_RGB ( '',0.7921568627450980005, 0.8196078431372548767, 0.9333333333333333481 ) ;
#66 = CARTESIAN_POINT ( 'NONE',  ( -0.03936606300000000669, 0.0000000000000000000, 0.0000000000000000000 ) ) ;
#67 = ADVANCED_FACE ( 'NONE', ( #130 ), #194, .T. ) ;
#68 = CARTESIAN_POINT ( 'NONE',  ( 0.0000000000000000000, 0.0000000000000000000, 0.0000000000000000000 ) ) ;
#69 = ORIENTED_EDGE ( 'NONE', *, *, #346, .F. ) ;
#70 = CYLINDRICAL_SURFACE ( 'NONE', #115, 0.03936606300000000669 ) ;
#71 = ORIENTED_EDGE ( 'NONE', *, *, #178, .T. ) ;
#72 = AXIS2_PLACEMENT_3D ( 'NONE', #204, #25, #313 ) ;
#73 = CARTESIAN_POINT ( 'NONE',  ( 0.03740150000000003194, 4.580362725830976644E-18, 0.2755909999999999749 ) ) ;
#74 = PRODUCT_DEFINITION ( 'UNKNOWN', '', #59, #372 ) ;
#75 = ORIENTED_EDGE ( 'NONE', *, *, #216, .T. ) ;
#76 = CARTESIAN_POINT ( 'NONE',  ( 0.0000000000000000000, 0.0000000000000000000, 2.244094000000000033 ) ) ;
#77 = VERTEX_POINT ( 'NONE', #57 ) ;
#78 = DIRECTION ( 'NONE',  ( -1.000000000000000000, 0.0000000000000000000, 0.0000000000000000000 ) ) ;
#79 = CARTESIAN_POINT ( 'NONE',  ( 0.0000000000000000000, 0.0000000000000000000, 0.0000000000000000000 ) ) ;
#80 = CIRCLE ( 'NONE', #354, 0.03740150000000003194 ) ;
#81 = CARTESIAN_POINT ( 'NONE',  ( 0.1031100000000002570, 1.262733314600838667E-17, 2.244094000000000033 ) ) ;
#82 = CYLINDRICAL_SURFACE ( 'NONE', #349, 0.03740150000000002500 ) ;
#83 = EDGE_CURVE ( 'NONE', #366, #113, #171, .T. ) ;
#84 = DIRECTION ( 'NONE',  ( -0.0000000000000000000, -0.0000000000000000000, -1.000000000000000000 ) ) ;
#85 = CARTESIAN_POINT ( 'NONE',  ( -0.03740150000000001113, 0.0000000000000000000, 0.08988159042539359267 ) ) ;
#86 = ORIENTED_EDGE ( 'NONE', *, *, #377, .T. ) ;
#87 = CYLINDRICAL_SURFACE ( 'NONE', #7, 0.1181100000000000066 ) ;
#88 = ORIENTED_EDGE ( 'NONE', *, *, #163, .F. ) ;
#89 = CARTESIAN_POINT ( 'NONE',  ( -0.03740150000000002500, 0.0000000000000000000, 0.0000000000000000000 ) ) ;
#90 = SURFACE_STYLE_USAGE ( .BOTH. , #142 ) ;
#91 = VECTOR ( 'NONE', #256, 39.37007874015748143 ) ;
#92 = CARTESIAN_POINT ( 'NONE',  ( 0.1181100000000000066, 1.446430334472939084E-17, 2.244094000000000033 ) ) ;
#93 = AXIS2_PLACEMENT_3D ( 'NONE', #18, #116, #257 ) ;
#94 = CIRCLE ( 'NONE', #304, 0.03740150000000003194 ) ;
#95 = DIRECTION ( 'NONE',  ( 0.0000000000000000000, 0.0000000000000000000, -1.000000000000000000 ) ) ;
#96 = VERTEX_POINT ( 'NONE', #266 ) ;
#97 = EDGE_CURVE ( 'NONE', #16, #281, #232, .T. ) ;
#98 = LINE ( 'NONE', #37, #239 ) ;
#99 = ORIENTED_EDGE ( 'NONE', *, *, #105, .T. ) ;
#100 = ORIENTED_EDGE ( 'NONE', *, *, #97, .F. ) ;
#101 = CIRCLE ( 'NONE', #312, 0.03936606300000000669 ) ;
#102 = VECTOR ( 'NONE', #259, 39.37007874015748854 ) ;
#103 = ADVANCED_FACE ( 'NONE', ( #369 ), #238, .T. ) ;
#104 = LINE ( 'NONE', #19, #102 ) ;
#105 = EDGE_CURVE ( 'NONE', #77, #374, #209, .T. ) ;
#106 = ORIENTED_EDGE ( 'NONE', *, *, #179, .F. ) ;
#107 = DIRECTION ( 'NONE',  ( -1.000000000000000000, 0.0000000000000000000, 0.0000000000000000000 ) ) ;
#108 = VERTEX_POINT ( 'NONE', #275 ) ;
#109 = FACE_BOUND ( 'NONE', #233, .T. ) ;
#110 = VECTOR ( 'NONE', #26, 39.37007874015748143 ) ;
#111 = CARTESIAN_POINT ( 'NONE',  ( 0.0000000000000000000, 0.0000000000000000000, 0.07874000000000000443 ) ) ;
#112 = CARTESIAN_POINT ( 'NONE',  ( -0.03936606300000000669, 0.0000000000000000000, 0.07874000000000000443 ) ) ;
#113 = VERTEX_POINT ( 'NONE', #66 ) ;
#114 = ORIENTED_EDGE ( 'NONE', *, *, #297, .F. ) ;
#115 = AXIS2_PLACEMENT_3D ( 'NONE', #180, #246, #356 ) ;
#116 = DIRECTION ( 'NONE',  ( 0.0000000000000000000, 0.0000000000000000000, 1.000000000000000000 ) ) ;
#117 = DIRECTION ( 'NONE',  ( -1.000000000000000000, 0.0000000000000000000, 0.0000000000000000000 ) ) ;
#118 = SURFACE_STYLE_FILL_AREA ( #237 ) ;
#119 = VECTOR ( 'NONE', #141, 39.37007874015748143 ) ;
#120 = CARTESIAN_POINT ( 'NONE',  ( 0.0000000000000000000, 0.0000000000000000000, 0.2755909999999999749 ) ) ;
#121 = MECHANICAL_DESIGN_GEOMETRIC_PRESENTATION_REPRESENTATION (  '', ( #183 ), #365 ) ;
#122 = PLANE ( 'NONE',  #368 ) ;
#123 = EDGE_LOOP ( 'NONE', ( #231, #323, #164, #184 ) ) ;
#124 = AXIS2_PLACEMENT_3D ( 'NONE', #221, #327, #78 ) ;
#125 = CARTESIAN_POINT ( 'NONE',  ( 0.03936606300000000669, 4.820952304798306567E-18, 0.07874000000000000443 ) ) ;
#126 = SURFACE_STYLE_FILL_AREA ( #235 ) ;
#127 = ORIENTED_EDGE ( 'NONE', *, *, #282, .T. ) ;
#128 = PLANE ( 'NONE',  #187 ) ;
#129 = ORIENTED_EDGE ( 'NONE', *, *, #297, .T. ) ;
#130 = FACE_OUTER_BOUND ( 'NONE', #222, .T. ) ;
#131 = LENGTH_MEASURE_WITH_UNIT ( LENGTH_MEASURE( 0.02539999999999999897 ), #190 );
#132 = CLOSED_SHELL ( 'NONE', ( #279, #343, #103, #145, #29, #40, #137, #308, #350, #67, #286, #242, #234 ) ) ;
#133 = EDGE_LOOP ( 'NONE', ( #217, #75, #129, #88 ) ) ;
#134 = FACE_OUTER_BOUND ( 'NONE', #189, .T. ) ;
#135 = AXIS2_PLACEMENT_3D ( 'NONE', #367, #300, #307 ) ;
#136 = CARTESIAN_POINT ( 'NONE',  ( 0.1181100000000000066, 1.446430334472939084E-17, 0.2755909999999999749 ) ) ;
#137 = ADVANCED_FACE ( 'NONE', ( #34 ), #122, .T. ) ;
#138 =( CONVERSION_BASED_UNIT ( 'INCH', #344 ) LENGTH_UNIT ( ) NAMED_UNIT ( #373 ) );
#139 = DIRECTION ( 'NONE',  ( -0.0000000000000000000, -0.0000000000000000000, -1.000000000000000000 ) ) ;
#140 = PRODUCT_CONTEXT ( 'NONE', #293, 'mechanical' ) ;
#141 = DIRECTION ( 'NONE',  ( -0.0000000000000000000, -0.0000000000000000000, -1.000000000000000000 ) ) ;
#142 = SURFACE_SIDE_STYLE ('',( #118 ) ) ;
#143 = CIRCLE ( 'NONE', #27, 0.03740150000000001113 ) ;
#144 = DIRECTION ( 'NONE',  ( -0.0000000000000000000, -0.0000000000000000000, -1.000000000000000000 ) ) ;
#145 = ADVANCED_FACE ( 'NONE', ( #31 ), #55, .T. ) ;
#146 = CIRCLE ( 'NONE', #203, 0.1181100000000000066 ) ;
#147 = CARTESIAN_POINT ( 'NONE',  ( 0.0000000000000000000, 0.0000000000000000000, 0.0000000000000000000 ) ) ;
#148 = CARTESIAN_POINT ( 'NONE',  ( 0.0000000000000000000, 0.0000000000000000000, 0.07874000000000000443 ) ) ;
#149 = CARTESIAN_POINT ( 'NONE',  ( 0.0000000000000000000, 0.0000000000000000000, 0.2755909999999999749 ) ) ;
#150 = VERTEX_POINT ( 'NONE', #347 ) ;
#151 = CIRCLE ( 'NONE', #226, 0.1181100000000000066 ) ;
#152 = CARTESIAN_POINT ( 'NONE',  ( 0.0000000000000000000, 0.0000000000000000000, 0.07874000000000000443 ) ) ;
#153 = ORIENTED_EDGE ( 'NONE', *, *, #2, .F. ) ;
#154 = DIRECTION ( 'NONE',  ( -1.000000000000000000, 0.0000000000000000000, 0.0000000000000000000 ) ) ;
#155 = ORIENTED_EDGE ( 'NONE', *, *, #208, .T. ) ;
#156 = CARTESIAN_POINT ( 'NONE',  ( 0.03740150000000002500, 4.580362725830975873E-18, 0.0000000000000000000 ) ) ;
#157 = VERTEX_POINT ( 'NONE', #294 ) ;
#158 = AXIS2_PLACEMENT_3D ( 'NONE', #166, #314, #20 ) ;
#159 = MECHANICAL_DESIGN_GEOMETRIC_PRESENTATION_REPRESENTATION (  '', ( #168 ), #195 ) ;
#160 = DIRECTION ( 'NONE',  ( -0.0000000000000000000, -0.0000000000000000000, -1.000000000000000000 ) ) ;
#161 = EDGE_CURVE ( 'NONE', #113, #96, #101, .T. ) ;
#162 = VERTEX_POINT ( 'NONE', #73 ) ;
#163 = EDGE_CURVE ( 'NONE', #12, #157, #146, .T. ) ;
#164 = ORIENTED_EDGE ( 'NONE', *, *, #178, .F. ) ;
#165 = DIRECTION ( 'NONE',  ( -0.0000000000000000000, 0.0000000000000000000, -1.000000000000000000 ) ) ;
#166 = CARTESIAN_POINT ( 'NONE',  ( 0.0000000000000000000, 0.0000000000000000000, 0.0000000000000000000 ) ) ;
#167 = VECTOR ( 'NONE', #318, 39.37007874015748143 ) ;
#168 = STYLED_ITEM ( 'NONE', ( #188 ), #265 ) ;
#169 = ORIENTED_EDGE ( 'NONE', *, *, #33, .F. ) ;
#170 = DIRECTION ( 'NONE',  ( -1.000000000000000000, 0.0000000000000000000, 0.0000000000000000000 ) ) ;
#171 = LINE ( 'NONE', #290, #119 ) ;
#172 = EDGE_CURVE ( 'NONE', #108, #366, #251, .T. ) ;
#173 = DIRECTION ( 'NONE',  ( -0.0000000000000000000, -0.0000000000000000000, -1.000000000000000000 ) ) ;
#174 = EDGE_LOOP ( 'NONE', ( #338, #10, #345, #153 ) ) ;
#175 = DIRECTION ( 'NONE',  ( 1.000000000000000000, 0.0000000000000000000, 0.0000000000000000000 ) ) ;
#176 = AXIS2_PLACEMENT_3D ( 'NONE', #23, #139, #376 ) ;
#177 = CIRCLE ( 'NONE', #135, 0.1031100000000002570 ) ;
#178 = EDGE_CURVE ( 'NONE', #374, #150, #143, .T. ) ;
#179 = EDGE_CURVE ( 'NONE', #157, #12, #379, .T. ) ;
#180 = CARTESIAN_POINT ( 'NONE',  ( 0.0000000000000000000, 0.0000000000000000000, 0.0000000000000000000 ) ) ;
#181 = DIRECTION ( 'NONE',  ( -1.000000000000000000, 0.0000000000000000000, 0.0000000000000000000 ) ) ;
#182 = DIRECTION ( 'NONE',  ( 0.0000000000000000000, 0.0000000000000000000, 1.000000000000000000 ) ) ;
#183 = STYLED_ITEM ( 'NONE', ( #375 ), #32 ) ;
#184 = ORIENTED_EDGE ( 'NONE', *, *, #105, .F. ) ;
#185 = CARTESIAN_POINT ( 'NONE',  ( 0.0000000000000000000, 0.0000000000000000000, 0.08988159042539359267 ) ) ;
#186 = ORIENTED_EDGE ( 'NONE', *, *, #97, .T. ) ;
#187 = AXIS2_PLACEMENT_3D ( 'NONE', #51, #165, #63 ) ;
#188 = PRESENTATION_STYLE_ASSIGNMENT (( #329 ) ) ;
#189 = EDGE_LOOP ( 'NONE', ( #200, #220, #328, #224 ) ) ;
#190 =( LENGTH_UNIT ( ) NAMED_UNIT ( * ) SI_UNIT ( $, .METRE. ) );
#191 = VERTEX_POINT ( 'NONE', #274 ) ;
#192 = LINE ( 'NONE', #112, #276 ) ;
#193 = ORIENTED_EDGE ( 'NONE', *, *, #2, .T. ) ;
#194 = CONICAL_SURFACE ( 'NONE', #62, 0.03936606300000000669, 0.1745329251994332254 ) ;
#195 =( GEOMETRIC_REPRESENTATION_CONTEXT ( 3 ) GLOBAL_UNCERTAINTY_ASSIGNED_CONTEXT ( ( #337 ) ) GLOBAL_UNIT_ASSIGNED_CONTEXT ( ( #49, #302, #228 ) ) REPRESENTATION_CONTEXT ( 'NONE', 'WORKASPACE' ) );
#196 = DIRECTION ( 'NONE',  ( -1.000000000000000000, 0.0000000000000000000, 0.0000000000000000000 ) ) ;
#197 = FACE_OUTER_BOUND ( 'NONE', #321, .T. ) ;
#198 = LINE ( 'NONE', #336, #267 ) ;
#199 = UNCERTAINTY_MEASURE_WITH_UNIT (LENGTH_MEASURE( 1.000000000000000082E-05 ), #348, 'distance_accuracy_value', 'NONE');
#200 = ORIENTED_EDGE ( 'NONE', *, *, #272, .T. ) ;
#201 = EDGE_LOOP ( 'NONE', ( #299, #361, #99, #44 ) ) ;
#202 =( NAMED_UNIT ( * ) PLANE_ANGLE_UNIT ( ) SI_UNIT ( $, .RADIAN. ) );
#203 = AXIS2_PLACEMENT_3D ( 'NONE', #120, #35, #295 ) ;
#204 = CARTESIAN_POINT ( 'NONE',  ( 0.0000000000000000000, 0.0000000000000000000, 2.229093999999999465 ) ) ;
#205 = ORIENTED_EDGE ( 'NONE', *, *, #172, .F. ) ;
#206 = FACE_OUTER_BOUND ( 'NONE', #333, .T. ) ;
#207 =( LENGTH_UNIT ( ) NAMED_UNIT ( * ) SI_UNIT ( $, .METRE. ) );
#208 = EDGE_CURVE ( 'NONE', #41, #12, #352, .T. ) ;
#209 = LINE ( 'NONE', #89, #167 ) ;
#210 = AXIS2_PLACEMENT_3D ( 'NONE', #13, #160, #154 ) ;
#211 = EDGE_CURVE ( 'NONE', #150, #108, #11, .T. ) ;
#212 = DIRECTION ( 'NONE',  ( 1.000000000000000000, 0.0000000000000000000, 0.0000000000000000000 ) ) ;
#213 = ORIENTED_EDGE ( 'NONE', *, *, #216, .F. ) ;
#214 = DIRECTION ( 'NONE',  ( -0.0000000000000000000, -0.0000000000000000000, -1.000000000000000000 ) ) ;
#215 = DIRECTION ( 'NONE',  ( -1.000000000000000000, 0.0000000000000000000, 0.0000000000000000000 ) ) ;
#216 = EDGE_CURVE ( 'NONE', #41, #191, #151, .T. ) ;
#217 = ORIENTED_EDGE ( 'NONE', *, *, #208, .F. ) ;
#218 = CIRCLE ( 'NONE', #47, 0.03936606300000000669 ) ;
#219 = CARTESIAN_POINT ( 'NONE',  ( -0.1031100000000002570, 0.0000000000000000000, 2.244094000000000033 ) ) ;
#220 = ORIENTED_EDGE ( 'NONE', *, *, #247, .T. ) ;
#221 = CARTESIAN_POINT ( 'NONE',  ( 0.0000000000000000000, 0.0000000000000000000, 0.0000000000000000000 ) ) ;
#222 = EDGE_LOOP ( 'NONE', ( #245, #86, #301, #205 ) ) ;
#223 = DIRECTION ( 'NONE',  ( -0.0000000000000000000, -0.0000000000000000000, -1.000000000000000000 ) ) ;
#224 = ORIENTED_EDGE ( 'NONE', *, *, #83, .F. ) ;
#225 = CIRCLE ( 'NONE', #72, 0.1181100000000000066 ) ;
#226 = AXIS2_PLACEMENT_3D ( 'NONE', #320, #95, #212 ) ;
#227 = DIRECTION ( 'NONE',  ( -0.0000000000000000000, -0.0000000000000000000, -1.000000000000000000 ) ) ;
#228 =( NAMED_UNIT ( * ) SI_UNIT ( $, .STERADIAN. ) SOLID_ANGLE_UNIT ( ) );
#229 = CARTESIAN_POINT ( 'NONE',  ( 0.0000000000000000000, 0.0000000000000000000, 2.244094000000000033 ) ) ;
#230 = CARTESIAN_POINT ( 'NONE',  ( 0.0000000000000000000, 0.0000000000000000000, 0.08988159042539359267 ) ) ;
#231 = ORIENTED_EDGE ( 'NONE', *, *, #335, .T. ) ;
#232 = CIRCLE ( 'NONE', #93, 0.1031100000000002570 ) ;
#233 = EDGE_LOOP ( 'NONE', ( #253, #260 ) ) ;
#234 = ADVANCED_FACE ( 'NONE', ( #206 ), #268, .F. ) ;
#235 = FILL_AREA_STYLE ('',( #277 ) ) ;
#236 = EDGE_CURVE ( 'NONE', #162, #77, #80, .T. ) ;
#237 = FILL_AREA_STYLE ('',( #292 ) ) ;
#238 = CONICAL_SURFACE ( 'NONE', #325, 0.03936606300000000669, 0.1745329251994332254 ) ;
#239 = VECTOR ( 'NONE', #214, 39.37007874015748143 ) ;
#240 = APPLICATION_CONTEXT ( 'automotive_design' ) ;
#241 = CARTESIAN_POINT ( 'NONE',  ( 0.0000000000000000000, 0.0000000000000000000, 0.2755909999999999749 ) ) ;
#242 = ADVANCED_FACE ( 'NONE', ( #8 ), #70, .T. ) ;
#243 = DIRECTION ( 'NONE',  ( -0.0000000000000000000, -0.0000000000000000000, -1.000000000000000000 ) ) ;
#244 = AXIS2_PLACEMENT_3D ( 'NONE', #241, #353, #248 ) ;
#245 = ORIENTED_EDGE ( 'NONE', *, *, #211, .F. ) ;
#246 = DIRECTION ( 'NONE',  ( -0.0000000000000000000, -0.0000000000000000000, -1.000000000000000000 ) ) ;
#247 = EDGE_CURVE ( 'NONE', #108, #96, #98, .T. ) ;
#248 = DIRECTION ( 'NONE',  ( -1.000000000000000000, 0.0000000000000000000, 0.0000000000000000000 ) ) ;
#249 = SURFACE_SIDE_STYLE ('',( #126 ) ) ;
#250 = EDGE_LOOP ( 'NONE', ( #100, #363, #340, #342 ) ) ;
#251 = CIRCLE ( 'NONE', #317, 0.03936606300000000669 ) ;
#252 = DIRECTION ( 'NONE',  ( -1.000000000000000000, 0.0000000000000000000, 0.0000000000000000000 ) ) ;
#253 = ORIENTED_EDGE ( 'NONE', *, *, #335, .F. ) ;
#254 = FACE_OUTER_BOUND ( 'NONE', #201, .T. ) ;
#255 = DIRECTION ( 'NONE',  ( -0.0000000000000000000, -0.0000000000000000000, -1.000000000000000000 ) ) ;
#256 = DIRECTION ( 'NONE',  ( -0.0000000000000000000, -0.0000000000000000000, -1.000000000000000000 ) ) ;
#257 = DIRECTION ( 'NONE',  ( 1.000000000000000000, 0.0000000000000000000, 0.0000000000000000000 ) ) ;
#258 = VECTOR ( 'NONE', #6, 39.37007874015748143 ) ;
#259 = DIRECTION ( 'NONE',  ( -0.7071067811865358044, 0.0000000000000000000, -0.7071067811865590080 ) ) ;
#260 = ORIENTED_EDGE ( 'NONE', *, *, #236, .F. ) ;
#261 = SHAPE_DEFINITION_REPRESENTATION ( #269, #32 ) ;
#262 = CYLINDRICAL_SURFACE ( 'NONE', #176, 0.1181100000000000066 ) ;
#263 = PRODUCT ( 'Micro_MMBM-020-7', 'Micro_MMBM-020-7', '', ( #140 ) ) ;
#264 = APPLICATION_PROTOCOL_DEFINITION ( 'draft international standard', 'automotive_design', 1998, #240 ) ;
#265 = MANIFOLD_SOLID_BREP ( 'Cut-Revolve1', #132 ) ;
#266 = CARTESIAN_POINT ( 'NONE',  ( 0.03936606300000000669, 4.820952304798306567E-18, 0.0000000000000000000 ) ) ;
#267 = VECTOR ( 'NONE', #283, 39.37007874015748143 ) ;
#268 = PLANE ( 'NONE',  #9 ) ;
#269 = PRODUCT_DEFINITION_SHAPE ( 'NONE', 'NONE',  #74 ) ;
#270 = AXIS2_PLACEMENT_3D ( 'NONE', #296, #358, #5 ) ;
#271 = AXIS2_PLACEMENT_3D ( 'NONE', #230, #173, #170 ) ;
#272 = EDGE_CURVE ( 'NONE', #366, #108, #218, .T. ) ;
#273 = CARTESIAN_POINT ( 'NONE',  ( 0.0000000000000000000, 0.0000000000000000000, 2.244094000000000033 ) ) ;
#274 = CARTESIAN_POINT ( 'NONE',  ( -0.1181100000000000066, 0.0000000000000000000, 2.229093999999999465 ) ) ;
#275 = CARTESIAN_POINT ( 'NONE',  ( 0.03936606300000000669, 4.820952304798306567E-18, 0.07874000000000000443 ) ) ;
#276 = VECTOR ( 'NONE', #45, 39.37007874015748143 ) ;
#277 = FILL_AREA_STYLE_COLOUR ( '', #319 ) ;
#278 = CYLINDRICAL_SURFACE ( 'NONE', #210, 0.03936606300000000669 ) ;
#279 = ADVANCED_FACE ( 'NONE', ( #134 ), #278, .T. ) ;
#280 = CARTESIAN_POINT ( 'NONE',  ( 0.0000000000000000000, 0.0000000000000000000, 0.2755909999999999749 ) ) ;
#281 = VERTEX_POINT ( 'NONE', #219 ) ;
#282 = EDGE_CURVE ( 'NONE', #281, #191, #104, .T. ) ;
#283 = DIRECTION ( 'NONE',  ( -0.0000000000000000000, -0.0000000000000000000, -1.000000000000000000 ) ) ;
#284 = DIRECTION ( 'NONE',  ( -1.000000000000000000, 0.0000000000000000000, 0.0000000000000000000 ) ) ;
#285 = CARTESIAN_POINT ( 'NONE',  ( 0.1181100000000000066, 1.446430334472939084E-17, 2.229093999999999465 ) ) ;
#286 = ADVANCED_FACE ( 'NONE', ( #254 ), #364, .T. ) ;
#287 = CARTESIAN_POINT ( 'NONE',  ( 0.0000000000000000000, 0.0000000000000000000, 0.0000000000000000000 ) ) ;
#288 = FACE_OUTER_BOUND ( 'NONE', #133, .T. ) ;
#289 = APPLICATION_PROTOCOL_DEFINITION ( 'draft international standard', 'automotive_design', 1998, #293 ) ;
#290 = CARTESIAN_POINT ( 'NONE',  ( -0.03936606300000000669, 0.0000000000000000000, 0.0000000000000000000 ) ) ;
#291 = DIRECTION ( 'NONE',  ( -0.0000000000000000000, -0.0000000000000000000, -1.000000000000000000 ) ) ;
#292 = FILL_AREA_STYLE_COLOUR ( '', #65 ) ;
#293 = APPLICATION_CONTEXT ( 'automotive_design' ) ;
#294 = CARTESIAN_POINT ( 'NONE',  ( -0.1181100000000000066, 0.0000000000000000000, 0.2755909999999999749 ) ) ;
#295 = DIRECTION ( 'NONE',  ( -1.000000000000000000, 0.0000000000000000000, 0.0000000000000000000 ) ) ;
#296 = CARTESIAN_POINT ( 'NONE',  ( 0.0000000000000000000, 0.0000000000000000000, 2.244094000000000033 ) ) ;
#297 = EDGE_CURVE ( 'NONE', #191, #157, #198, .T. ) ;
#298 = DIRECTION ( 'NONE',  ( -1.000000000000000000, 0.0000000000000000000, 0.0000000000000000000 ) ) ;
#299 = ORIENTED_EDGE ( 'NONE', *, *, #331, .F. ) ;
#300 = DIRECTION ( 'NONE',  ( 0.0000000000000000000, 0.0000000000000000000, 1.000000000000000000 ) ) ;
#301 = ORIENTED_EDGE ( 'NONE', *, *, #305, .T. ) ;
#302 =( NAMED_UNIT ( * ) PLANE_ANGLE_UNIT ( ) SI_UNIT ( $, .RADIAN. ) );
#303 = ORIENTED_EDGE ( 'NONE', *, *, #272, .F. ) ;
#304 = AXIS2_PLACEMENT_3D ( 'NONE', #280, #14, #362 ) ;
#305 = EDGE_CURVE ( 'NONE', #374, #366, #192, .T. ) ;
#306 = ORIENTED_EDGE ( 'NONE', *, *, #161, .T. ) ;
#307 = DIRECTION ( 'NONE',  ( 1.000000000000000000, 0.0000000000000000000, 0.0000000000000000000 ) ) ;
#308 = ADVANCED_FACE ( 'NONE', ( #17 ), #370, .T. ) ;
#309 = EDGE_LOOP ( 'NONE', ( #330, #15 ) ) ;
#310 = LINE ( 'NONE', #81, #46 ) ;
#311 = DIMENSIONAL_EXPONENTS ( 1.000000000000000000, 0.0000000000000000000, 0.0000000000000000000, 0.0000000000000000000, 0.0000000000000000000, 0.0000000000000000000, 0.0000000000000000000 ) ;
#312 = AXIS2_PLACEMENT_3D ( 'NONE', #147, #144, #181 ) ;
#313 = DIRECTION ( 'NONE',  ( 1.000000000000000000, 0.0000000000000000000, 0.0000000000000000000 ) ) ;
#314 = DIRECTION ( 'NONE',  ( -0.0000000000000000000, -0.0000000000000000000, -1.000000000000000000 ) ) ;
#315 = DIRECTION ( 'NONE',  ( 0.0000000000000000000, 0.0000000000000000000, 1.000000000000000000 ) ) ;
#316 = DIRECTION ( 'NONE',  ( -1.000000000000000000, 0.0000000000000000000, 0.0000000000000000000 ) ) ;
#317 = AXIS2_PLACEMENT_3D ( 'NONE', #148, #243, #298 ) ;
#318 = DIRECTION ( 'NONE',  ( -0.0000000000000000000, -0.0000000000000000000, -1.000000000000000000 ) ) ;
#319 = COLOUR_RGB ( '',0.7921568627450980005, 0.8196078431372548767, 0.9333333333333333481 ) ;
#320 = CARTESIAN_POINT ( 'NONE',  ( 0.0000000000000000000, 0.0000000000000000000, 2.229093999999999465 ) ) ;
#321 = EDGE_LOOP ( 'NONE', ( #360, #155, #106, #114 ) ) ;
#322 = DIRECTION ( 'NONE',  ( 0.0000000000000000000, 0.0000000000000000000, 1.000000000000000000 ) ) ;
#323 = ORIENTED_EDGE ( 'NONE', *, *, #331, .T. ) ;
#324 = DIRECTION ( 'NONE',  ( 1.000000000000000000, 0.0000000000000000000, -0.0000000000000000000 ) ) ;
#325 = AXIS2_PLACEMENT_3D ( 'NONE', #111, #227, #215 ) ;
#326 = ORIENTED_EDGE ( 'NONE', *, *, #305, .F. ) ;
#327 = DIRECTION ( 'NONE',  ( -0.0000000000000000000, -0.0000000000000000000, -1.000000000000000000 ) ) ;
#328 = ORIENTED_EDGE ( 'NONE', *, *, #161, .F. ) ;
#329 = SURFACE_STYLE_USAGE ( .BOTH. , #249 ) ;
#330 = ORIENTED_EDGE ( 'NONE', *, *, #179, .T. ) ;
#331 = EDGE_CURVE ( 'NONE', #162, #150, #371, .T. ) ;
#332 = FACE_OUTER_BOUND ( 'NONE', #123, .T. ) ;
#333 = EDGE_LOOP ( 'NONE', ( #306, #193 ) ) ;
#334 = PRESENTATION_LAYER_ASSIGNMENT (  '', '', ( #168 ) ) ;
#335 = EDGE_CURVE ( 'NONE', #77, #162, #94, .T. ) ;
#336 = CARTESIAN_POINT ( 'NONE',  ( -0.1181100000000000066, 0.0000000000000000000, 2.244094000000000033 ) ) ;
#337 = UNCERTAINTY_MEASURE_WITH_UNIT (LENGTH_MEASURE( 1.000000000000000082E-05 ), #49, 'distance_accuracy_value', 'NONE');
#338 = ORIENTED_EDGE ( 'NONE', *, *, #247, .F. ) ;
#339 = DIRECTION ( 'NONE',  ( -0.0000000000000000000, -0.0000000000000000000, -1.000000000000000000 ) ) ;
#340 = ORIENTED_EDGE ( 'NONE', *, *, #61, .F. ) ;
#341 =( NAMED_UNIT ( * ) PLANE_ANGLE_UNIT ( ) SI_UNIT ( $, .RADIAN. ) );
#342 = ORIENTED_EDGE ( 'NONE', *, *, #282, .F. ) ;
#343 = ADVANCED_FACE ( 'NONE', ( #332 ), #82, .T. ) ;
#344 = LENGTH_MEASURE_WITH_UNIT ( LENGTH_MEASURE( 0.02539999999999999897 ), #207 );
#345 = ORIENTED_EDGE ( 'NONE', *, *, #83, .T. ) ;
#346 = EDGE_CURVE ( 'NONE', #281, #16, #177, .T. ) ;
#347 = CARTESIAN_POINT ( 'NONE',  ( 0.03740150000000001113, 4.700657515314640450E-18, 0.08988159042539359267 ) ) ;
#348 =( CONVERSION_BASED_UNIT ( 'INCH', #30 ) LENGTH_UNIT ( ) NAMED_UNIT ( #39 ) );
#349 = AXIS2_PLACEMENT_3D ( 'NONE', #79, #339, #196 ) ;
#350 = ADVANCED_FACE ( 'NONE', ( #109, #42 ), #128, .T. ) ;
#351 = PRODUCT_RELATED_PRODUCT_CATEGORY ( 'part', '', ( #263 ) ) ;
#352 = LINE ( 'NONE', #92, #110 ) ;
#353 = DIRECTION ( 'NONE',  ( -0.0000000000000000000, -0.0000000000000000000, -1.000000000000000000 ) ) ;
#354 = AXIS2_PLACEMENT_3D ( 'NONE', #149, #1, #117 ) ;
#355 = ORIENTED_EDGE ( 'NONE', *, *, #346, .T. ) ;
#356 = DIRECTION ( 'NONE',  ( -1.000000000000000000, 0.0000000000000000000, 0.0000000000000000000 ) ) ;
#357 = EDGE_LOOP ( 'NONE', ( #169, #69, #127, #213 ) ) ;
#358 = DIRECTION ( 'NONE',  ( 0.0000000000000000000, 0.0000000000000000000, -1.000000000000000000 ) ) ;
#359 = AXIS2_PLACEMENT_3D ( 'NONE', #287, #315, #175 ) ;
#360 = ORIENTED_EDGE ( 'NONE', *, *, #61, .T. ) ;
#361 = ORIENTED_EDGE ( 'NONE', *, *, #236, .T. ) ;
#362 = DIRECTION ( 'NONE',  ( -1.000000000000000000, 0.0000000000000000000, 0.0000000000000000000 ) ) ;
#363 = ORIENTED_EDGE ( 'NONE', *, *, #33, .T. ) ;
#364 = CYLINDRICAL_SURFACE ( 'NONE', #124, 0.03740150000000002500 ) ;
#365 =( GEOMETRIC_REPRESENTATION_CONTEXT ( 3 ) GLOBAL_UNCERTAINTY_ASSIGNED_CONTEXT ( ( #52 ) ) GLOBAL_UNIT_ASSIGNED_CONTEXT ( ( #138, #202, #60 ) ) REPRESENTATION_CONTEXT ( 'NONE', 'WORKASPACE' ) );
#366 = VERTEX_POINT ( 'NONE', #28 ) ;
#367 = CARTESIAN_POINT ( 'NONE',  ( 0.0000000000000000000, 0.0000000000000000000, 2.244094000000000033 ) ) ;
#368 = AXIS2_PLACEMENT_3D ( 'NONE', #273, #322, #324 ) ;
#369 = FACE_OUTER_BOUND ( 'NONE', #50, .T. ) ;
#370 = CONICAL_SURFACE ( 'NONE', #38, 0.1031100000000002570, 0.7853981633974318477 ) ;
#371 = LINE ( 'NONE', #156, #91 ) ;
#372 = PRODUCT_DEFINITION_CONTEXT ( 'detailed design', #240, 'design' ) ;
#373 = DIMENSIONAL_EXPONENTS ( 1.000000000000000000, 0.0000000000000000000, 0.0000000000000000000, 0.0000000000000000000, 0.0000000000000000000, 0.0000000000000000000, 0.0000000000000000000 ) ;
#374 = VERTEX_POINT ( 'NONE', #85 ) ;
#375 = PRESENTATION_STYLE_ASSIGNMENT (( #90 ) ) ;
#376 = DIRECTION ( 'NONE',  ( -1.000000000000000000, 0.0000000000000000000, 0.0000000000000000000 ) ) ;
#377 = EDGE_CURVE ( 'NONE', #150, #374, #21, .T. ) ;
#378 = CARTESIAN_POINT ( 'NONE',  ( 0.0000000000000000000, 0.0000000000000000000, 0.07874000000000000443 ) ) ;
#379 = CIRCLE ( 'NONE', #244, 0.1181100000000000066 ) ;
ENDSEC;
END-ISO-10303-21;
