ISO-10303-21;
HEADER;
FILE_DESCRIPTION (( 'STEP AP214' ),
    '1' );
FILE_NAME ('84385.STEP',
    '2023-06-23T12:42:04',
    ( '' ),
    ( '' ),
    'SwSTEP 2.0',
    'SolidWorks 2023',
    '' );
FILE_SCHEMA (( 'AUTOMOTIVE_DESIGN' ));
ENDSEC;

DATA;
#1 = FACE_OUTER_BOUND ( 'NONE', #291, .T. ) ;
#2 = FILL_AREA_STYLE_COLOUR ( '', #181 ) ;
#3 = ORIENTED_EDGE ( 'NONE', *, *, #176, .F. ) ;
#4 = STYLED_ITEM ( 'NONE', ( #72 ), #217 ) ;
#5 = FILL_AREA_STYLE ('',( #82 ) ) ;
#6 = SURFACE_SIDE_STYLE ('',( #30 ) ) ;
#7 = AXIS2_PLACEMENT_3D ( 'NONE', #212, #65, #41 ) ;
#8 = ORIENTED_EDGE ( 'NONE', *, *, #208, .F. ) ;
#9 = LENGTH_MEASURE_WITH_UNIT ( LENGTH_MEASURE( 0.02539999999999999897 ), #265 );
#10 =( NAMED_UNIT ( * ) PLANE_ANGLE_UNIT ( ) SI_UNIT ( $, .RADIAN. ) );
#11 = CYLINDRICAL_SURFACE ( 'NONE', #108, 0.06250000000000002776 ) ;
#12 = DIMENSIONAL_EXPONENTS ( 1.000000000000000000, 0.000000000000000000, 0.000000000000000000, 0.000000000000000000, 0.000000000000000000, 0.000000000000000000, 0.000000000000000000 ) ;
#13 = CARTESIAN_POINT ( 'NONE',  ( 0.000000000000000000, 0.000000000000000000, -0.06250000000000001388 ) ) ;
#14 =( GEOMETRIC_REPRESENTATION_CONTEXT ( 3 ) GLOBAL_UNCERTAINTY_ASSIGNED_CONTEXT ( ( #198 ) ) GLOBAL_UNIT_ASSIGNED_CONTEXT ( ( #177, #132, #206 ) ) REPRESENTATION_CONTEXT ( 'NONE', 'WORKASPACE' ) );
#15 =( LENGTH_UNIT ( ) NAMED_UNIT ( * ) SI_UNIT ( $, .METRE. ) );
#16 = SURFACE_STYLE_USAGE ( .BOTH. , #183 ) ;
#17 = PRESENTATION_STYLE_ASSIGNMENT (( #134 ) ) ;
#18 = STYLED_ITEM ( 'NONE', ( #109 ), #137 ) ;
#19 = CIRCLE ( 'NONE', #301, 0.06250000000000000000 ) ;
#20 = CARTESIAN_POINT ( 'NONE',  ( 0.000000000000000000, 0.000000000000000000, -0.06250000000000001388 ) ) ;
#21 = CARTESIAN_POINT ( 'NONE',  ( 0.06250000000000000000, 2.500000000000000000, 7.654042494670963708E-18 ) ) ;
#22 = ADVANCED_BREP_SHAPE_REPRESENTATION ( '84385', ( #137, #37, #7 ), #89 ) ;
#23 =( CONVERSION_BASED_UNIT ( 'INCH', #187 ) LENGTH_UNIT ( ) NAMED_UNIT ( #91 ) );
#24 = CIRCLE ( 'NONE', #274, 0.06250000000000005551 ) ;
#25 = EDGE_CURVE ( 'NONE', #70, #199, #222, .T. ) ;
#26 = FACE_OUTER_BOUND ( 'NONE', #64, .T. ) ;
#27 = FILL_AREA_STYLE_COLOUR ( '', #140 ) ;
#28 = MECHANICAL_DESIGN_GEOMETRIC_PRESENTATION_REPRESENTATION (  '', ( #173 ), #261 ) ;
#29 = CYLINDRICAL_SURFACE ( 'NONE', #97, 0.06250000000000002776 ) ;
#30 = SURFACE_STYLE_FILL_AREA ( #151 ) ;
#31 = SURFACE_SIDE_STYLE ('',( #290 ) ) ;
#32 = AXIS2_PLACEMENT_3D ( 'NONE', #218, #219, #80 ) ;
#33 = CARTESIAN_POINT ( 'NONE',  ( 7.654042494670959086E-18, 0.000000000000000000, 0.06250000000000001388 ) ) ;
#34 = LENGTH_MEASURE_WITH_UNIT ( LENGTH_MEASURE( 0.02539999999999999897 ), #110 );
#35 = SURFACE_STYLE_FILL_AREA ( #152 ) ;
#36 = DIMENSIONAL_EXPONENTS ( 1.000000000000000000, 0.000000000000000000, 0.000000000000000000, 0.000000000000000000, 0.000000000000000000, 0.000000000000000000, 0.000000000000000000 ) ;
#37 = MANIFOLD_SOLID_BREP ( 'Revolve - Tool Body (Straight Shanked)', #226 ) ;
#38 = FILL_AREA_STYLE_COLOUR ( '', #101 ) ;
#39 = DIRECTION ( 'NONE',  ( -3.265724797726275178E-17, 1.000000000000000000, -0.000000000000000000 ) ) ;
#40 = UNCERTAINTY_MEASURE_WITH_UNIT (LENGTH_MEASURE( 1.000000000000000082E-05 ), #200, 'distance_accuracy_value', 'NONE');
#41 = DIRECTION ( 'NONE',  ( 1.000000000000000000, 0.000000000000000000, 0.000000000000000000 ) ) ;
#42 = DIMENSIONAL_EXPONENTS ( 1.000000000000000000, 0.000000000000000000, 0.000000000000000000, 0.000000000000000000, 0.000000000000000000, 0.000000000000000000, 0.000000000000000000 ) ;
#43 = STYLED_ITEM ( 'NONE', ( #17 ), #103 ) ;
#44 = EDGE_CURVE ( 'NONE', #70, #264, #241, .T. ) ;
#45 = AXIS2_PLACEMENT_3D ( 'NONE', #275, #271, #201 ) ;
#46 = ADVANCED_FACE ( 'NONE', ( #224 ), #11, .T. ) ;
#47 = AXIS2_PLACEMENT_3D ( 'NONE', #77, #54, #123 ) ;
#48 = CARTESIAN_POINT ( 'NONE',  ( 0.000000000000000000, 0.6250000000000000000, 0.000000000000000000 ) ) ;
#49 = DIRECTION ( 'NONE',  ( -1.000000000000000000, -3.265724797726275178E-17, 0.000000000000000000 ) ) ;
#50 = ORIENTED_EDGE ( 'NONE', *, *, #208, .T. ) ;
#51 = CARTESIAN_POINT ( 'NONE',  ( 7.654042494670959086E-18, 0.6250000000000000000, 0.06250000000000000000 ) ) ;
#52 =( LENGTH_UNIT ( ) NAMED_UNIT ( * ) SI_UNIT ( $, .METRE. ) );
#53 =( GEOMETRIC_REPRESENTATION_CONTEXT ( 3 ) GLOBAL_UNCERTAINTY_ASSIGNED_CONTEXT ( ( #209 ) ) GLOBAL_UNIT_ASSIGNED_CONTEXT ( ( #216, #196, #106 ) ) REPRESENTATION_CONTEXT ( 'NONE', 'WORKASPACE' ) );
#54 = DIRECTION ( 'NONE',  ( -3.265724797726275178E-17, 1.000000000000000000, -0.000000000000000000 ) ) ;
#55 = DIRECTION ( 'NONE',  ( -1.000000000000000000, 0.000000000000000000, 0.000000000000000000 ) ) ;
#56 = PLANE ( 'NONE',  #279 ) ;
#57 = ORIENTED_EDGE ( 'NONE', *, *, #111, .T. ) ;
#58 = MECHANICAL_DESIGN_GEOMETRIC_PRESENTATION_REPRESENTATION (  '', ( #18 ), #66 ) ;
#59 = ORIENTED_EDGE ( 'NONE', *, *, #25, .F. ) ;
#60 = DIRECTION ( 'NONE',  ( -1.000000000000000000, 0.000000000000000000, 0.000000000000000000 ) ) ;
#61 = DIRECTION ( 'NONE',  ( 0.000000000000000000, 0.000000000000000000, -1.000000000000000000 ) ) ;
#62 = DIRECTION ( 'NONE',  ( -1.000000000000000000, 0.000000000000000000, 0.000000000000000000 ) ) ;
#63 = AXIS2_PLACEMENT_3D ( 'NONE', #281, #68, #141 ) ;
#64 = EDGE_LOOP ( 'NONE', ( #166, #57 ) ) ;
#65 = DIRECTION ( 'NONE',  ( 0.000000000000000000, 0.000000000000000000, 1.000000000000000000 ) ) ;
#66 =( GEOMETRIC_REPRESENTATION_CONTEXT ( 3 ) GLOBAL_UNCERTAINTY_ASSIGNED_CONTEXT ( ( #233 ) ) GLOBAL_UNIT_ASSIGNED_CONTEXT ( ( #23, #100, #185 ) ) REPRESENTATION_CONTEXT ( 'NONE', 'WORKASPACE' ) );
#67 = DIRECTION ( 'NONE',  ( -3.265724797726275178E-17, 1.000000000000000000, -0.000000000000000000 ) ) ;
#68 = DIRECTION ( 'NONE',  ( -3.265724797726275178E-17, 1.000000000000000000, -0.000000000000000000 ) ) ;
#69 = APPLICATION_CONTEXT ( 'automotive_design' ) ;
#70 = VERTEX_POINT ( 'NONE', #51 ) ;
#71 = SURFACE_STYLE_USAGE ( .BOTH. , #284 ) ;
#72 = PRESENTATION_STYLE_ASSIGNMENT (( #197 ) ) ;
#73 = ADVANCED_FACE ( 'NONE', ( #26 ), #150, .T. ) ;
#74 = CARTESIAN_POINT ( 'NONE',  ( -6.123233995736766036E-17, 2.500000000000000000, 0.000000000000000000 ) ) ;
#75 = FACE_OUTER_BOUND ( 'NONE', #92, .T. ) ;
#76 = APPLICATION_CONTEXT ( 'automotive_design' ) ;
#77 = CARTESIAN_POINT ( 'NONE',  ( 0.000000000000000000, 0.6250000000000000000, 0.000000000000000000 ) ) ;
#78 = VECTOR ( 'NONE', #188, 39.37007874015748143 ) ;
#79 =( GEOMETRIC_REPRESENTATION_CONTEXT ( 3 ) GLOBAL_UNCERTAINTY_ASSIGNED_CONTEXT ( ( #105 ) ) GLOBAL_UNIT_ASSIGNED_CONTEXT ( ( #121, #144, #171 ) ) REPRESENTATION_CONTEXT ( 'NONE', 'WORKASPACE' ) );
#80 = DIRECTION ( 'NONE',  ( 0.000000000000000000, -0.000000000000000000, 1.000000000000000000 ) ) ;
#81 = EDGE_CURVE ( 'NONE', #138, #234, #86, .T. ) ;
#82 = FILL_AREA_STYLE_COLOUR ( '', #250 ) ;
#83 =( NAMED_UNIT ( * ) SI_UNIT ( $, .STERADIAN. ) SOLID_ANGLE_UNIT ( ) );
#84 = EDGE_LOOP ( 'NONE', ( #95, #184 ) ) ;
#85 = DIRECTION ( 'NONE',  ( -0.000000000000000000, -1.000000000000000000, -0.000000000000000000 ) ) ;
#86 = LINE ( 'NONE', #158, #126 ) ;
#87 = DIRECTION ( 'NONE',  ( 0.000000000000000000, 0.000000000000000000, -1.000000000000000000 ) ) ;
#88 = DIRECTION ( 'NONE',  ( -3.265724797726275178E-17, 1.000000000000000000, -0.000000000000000000 ) ) ;
#89 =( GEOMETRIC_REPRESENTATION_CONTEXT ( 3 ) GLOBAL_UNCERTAINTY_ASSIGNED_CONTEXT ( ( #257 ) ) GLOBAL_UNIT_ASSIGNED_CONTEXT ( ( #129, #10, #182 ) ) REPRESENTATION_CONTEXT ( 'NONE', 'WORKASPACE' ) );
#90 = SURFACE_STYLE_FILL_AREA ( #300 ) ;
#91 = DIMENSIONAL_EXPONENTS ( 1.000000000000000000, 0.000000000000000000, 0.000000000000000000, 0.000000000000000000, 0.000000000000000000, 0.000000000000000000, 0.000000000000000000 ) ;
#92 = EDGE_LOOP ( 'NONE', ( #93, #305, #249, #204 ) ) ;
#93 = ORIENTED_EDGE ( 'NONE', *, *, #148, .F. ) ;
#94 = PRODUCT_DEFINITION_CONTEXT ( 'detailed design', #69, 'design' ) ;
#95 = ORIENTED_EDGE ( 'NONE', *, *, #163, .T. ) ;
#96 = CARTESIAN_POINT ( 'NONE',  ( 3.332799517026350632E-35, 0.6250000000000000000, 0.000000000000000000 ) ) ;
#97 = AXIS2_PLACEMENT_3D ( 'NONE', #288, #252, #62 ) ;
#98 = VERTEX_POINT ( 'NONE', #161 ) ;
#99 = DIRECTION ( 'NONE',  ( -0.000000000000000000, -1.000000000000000000, -0.000000000000000000 ) ) ;
#100 =( NAMED_UNIT ( * ) PLANE_ANGLE_UNIT ( ) SI_UNIT ( $, .RADIAN. ) );
#101 = COLOUR_RGB ( '',1.000000000000000000, 0.000000000000000000, 0.000000000000000000 ) ;
#102 = CARTESIAN_POINT ( 'NONE',  ( 0.000000000000000000, 0.000000000000000000, 0.000000000000000000 ) ) ;
#103 = ADVANCED_FACE ( 'NONE', ( #253 ), #303, .T. ) ;
#104 = VECTOR ( 'NONE', #307, 39.37007874015748143 ) ;
#105 = UNCERTAINTY_MEASURE_WITH_UNIT (LENGTH_MEASURE( 1.000000000000000082E-05 ), #121, 'distance_accuracy_value', 'NONE');
#106 =( NAMED_UNIT ( * ) SI_UNIT ( $, .STERADIAN. ) SOLID_ANGLE_UNIT ( ) );
#107 = EDGE_LOOP ( 'NONE', ( #306, #125, #251, #3 ) ) ;
#108 = AXIS2_PLACEMENT_3D ( 'NONE', #74, #142, #243 ) ;
#109 = PRESENTATION_STYLE_ASSIGNMENT (( #16 ) ) ;
#110 =( LENGTH_UNIT ( ) NAMED_UNIT ( * ) SI_UNIT ( $, .METRE. ) );
#111 = EDGE_CURVE ( 'NONE', #199, #302, #215, .T. ) ;
#112 = LINE ( 'NONE', #211, #78 ) ;
#113 = EDGE_LOOP ( 'NONE', ( #59, #174, #153, #267 ) ) ;
#114 = AXIS2_PLACEMENT_3D ( 'NONE', #255, #236, #61 ) ;
#115 = CIRCLE ( 'NONE', #146, 0.06250000000000000000 ) ;
#116 = LENGTH_MEASURE_WITH_UNIT ( LENGTH_MEASURE( 0.02539999999999999897 ), #295 );
#117 = UNCERTAINTY_MEASURE_WITH_UNIT (LENGTH_MEASURE( 1.000000000000000082E-05 ), #120, 'distance_accuracy_value', 'NONE');
#118 = EDGE_LOOP ( 'NONE', ( #50, #221, #259, #210 ) ) ;
#119 = FILL_AREA_STYLE_COLOUR ( '', #256 ) ;
#120 =( CONVERSION_BASED_UNIT ( 'INCH', #164 ) LENGTH_UNIT ( ) NAMED_UNIT ( #237 ) );
#121 =( CONVERSION_BASED_UNIT ( 'INCH', #147 ) LENGTH_UNIT ( ) NAMED_UNIT ( #180 ) );
#122 = CLOSED_SHELL ( 'NONE', ( #103, #235, #217, #73 ) ) ;
#123 = DIRECTION ( 'NONE',  ( -1.000000000000000000, 0.000000000000000000, 0.000000000000000000 ) ) ;
#124 = DIRECTION ( 'NONE',  ( -0.000000000000000000, -1.000000000000000000, -0.000000000000000000 ) ) ;
#125 = ORIENTED_EDGE ( 'NONE', *, *, #25, .T. ) ;
#126 = VECTOR ( 'NONE', #88, 39.37007874015748143 ) ;
#127 = MECHANICAL_DESIGN_GEOMETRIC_PRESENTATION_REPRESENTATION (  '', ( #308 ), #53 ) ;
#128 =( LENGTH_UNIT ( ) NAMED_UNIT ( * ) SI_UNIT ( $, .METRE. ) );
#129 =( CONVERSION_BASED_UNIT ( 'INCH', #34 ) LENGTH_UNIT ( ) NAMED_UNIT ( #36 ) );
#130 = SURFACE_STYLE_USAGE ( .BOTH. , #282 ) ;
#131 = PRESENTATION_LAYER_ASSIGNMENT (  '', '', ( #308 ) ) ;
#132 =( NAMED_UNIT ( * ) PLANE_ANGLE_UNIT ( ) SI_UNIT ( $, .RADIAN. ) );
#133 = SURFACE_STYLE_FILL_AREA ( #232 ) ;
#134 = SURFACE_STYLE_USAGE ( .BOTH. , #230 ) ;
#135 = VECTOR ( 'NONE', #292, 39.37007874015748143 ) ;
#136 = LENGTH_MEASURE_WITH_UNIT ( LENGTH_MEASURE( 0.02539999999999999897 ), #160 );
#137 = MANIFOLD_SOLID_BREP ( 'Revolve - Cutting Edge', #122 ) ;
#138 = VERTEX_POINT ( 'NONE', #238 ) ;
#139 = PRESENTATION_LAYER_ASSIGNMENT (  '', '', ( #173 ) ) ;
#140 = COLOUR_RGB ( '',1.000000000000000000, 0.000000000000000000, 0.000000000000000000 ) ;
#141 = DIRECTION ( 'NONE',  ( -1.000000000000000000, 0.000000000000000000, 0.000000000000000000 ) ) ;
#142 = DIRECTION ( 'NONE',  ( -3.265724797726275178E-17, 1.000000000000000000, -0.000000000000000000 ) ) ;
#143 = VERTEX_POINT ( 'NONE', #21 ) ;
#144 =( NAMED_UNIT ( * ) PLANE_ANGLE_UNIT ( ) SI_UNIT ( $, .RADIAN. ) );
#145 = PRESENTATION_STYLE_ASSIGNMENT (( #195 ) ) ;
#146 = AXIS2_PLACEMENT_3D ( 'NONE', #225, #85, #297 ) ;
#147 = LENGTH_MEASURE_WITH_UNIT ( LENGTH_MEASURE( 0.02539999999999999897 ), #52 );
#148 = EDGE_CURVE ( 'NONE', #98, #143, #112, .T. ) ;
#149 = FACE_OUTER_BOUND ( 'NONE', #207, .T. ) ;
#150 = PLANE ( 'NONE',  #45 ) ;
#151 = FILL_AREA_STYLE ('',( #27 ) ) ;
#152 = FILL_AREA_STYLE ('',( #2 ) ) ;
#153 = ORIENTED_EDGE ( 'NONE', *, *, #176, .T. ) ;
#154 = FILL_AREA_STYLE_COLOUR ( '', #268 ) ;
#155 = CARTESIAN_POINT ( 'NONE',  ( 0.000000000000000000, 0.6250000000000000000, 0.000000000000000000 ) ) ;
#156 = PRESENTATION_LAYER_ASSIGNMENT (  '', '', ( #220 ) ) ;
#157 = CIRCLE ( 'NONE', #286, 0.06250000000000001388 ) ;
#158 = CARTESIAN_POINT ( 'NONE',  ( -0.06250000000000009714, 2.500000000000000000, 0.000000000000000000 ) ) ;
#159 = CARTESIAN_POINT ( 'NONE',  ( 0.06250000000000000000, 2.500000000000000000, 0.000000000000000000 ) ) ;
#160 =( LENGTH_UNIT ( ) NAMED_UNIT ( * ) SI_UNIT ( $, .METRE. ) );
#161 = CARTESIAN_POINT ( 'NONE',  ( 0.06250000000000000000, 0.6250000000000000000, 7.654042494670963708E-18 ) ) ;
#162 = PRODUCT_RELATED_PRODUCT_CATEGORY ( 'part', '', ( #223 ) ) ;
#163 = EDGE_CURVE ( 'NONE', #234, #143, #245, .T. ) ;
#164 = LENGTH_MEASURE_WITH_UNIT ( LENGTH_MEASURE( 0.02539999999999999897 ), #128 );
#165 = PRESENTATION_STYLE_ASSIGNMENT (( #71 ) ) ;
#166 = ORIENTED_EDGE ( 'NONE', *, *, #248, .T. ) ;
#167 = PLANE ( 'NONE',  #32 ) ;
#168 = CARTESIAN_POINT ( 'NONE',  ( 7.654042494670960626E-18, 0.000000000000000000, 0.06250000000000002776 ) ) ;
#169 = ADVANCED_FACE ( 'NONE', ( #1 ), #56, .F. ) ;
#170 = FACE_OUTER_BOUND ( 'NONE', #113, .T. ) ;
#171 =( NAMED_UNIT ( * ) SI_UNIT ( $, .STERADIAN. ) SOLID_ANGLE_UNIT ( ) );
#172 = PRODUCT_DEFINITION_SHAPE ( 'NONE', 'NONE',  #296 ) ;
#173 = STYLED_ITEM ( 'NONE', ( #165 ), #73 ) ;
#174 = ORIENTED_EDGE ( 'NONE', *, *, #44, .T. ) ;
#175 = PRESENTATION_LAYER_ASSIGNMENT (  '', '', ( #4 ) ) ;
#176 = EDGE_CURVE ( 'NONE', #264, #302, #244, .T. ) ;
#177 =( CONVERSION_BASED_UNIT ( 'INCH', #116 ) LENGTH_UNIT ( ) NAMED_UNIT ( #304 ) );
#178 = DIRECTION ( 'NONE',  ( 3.265724797726275178E-17, -1.000000000000000000, 0.000000000000000000 ) ) ;
#179 =( NAMED_UNIT ( * ) SI_UNIT ( $, .STERADIAN. ) SOLID_ANGLE_UNIT ( ) );
#180 = DIMENSIONAL_EXPONENTS ( 1.000000000000000000, 0.000000000000000000, 0.000000000000000000, 0.000000000000000000, 0.000000000000000000, 0.000000000000000000, 0.000000000000000000 ) ;
#181 = COLOUR_RGB ( '',0.7921568627450980005, 0.8196078431372548767, 0.9333333333333333481 ) ;
#182 =( NAMED_UNIT ( * ) SI_UNIT ( $, .STERADIAN. ) SOLID_ANGLE_UNIT ( ) );
#183 = SURFACE_SIDE_STYLE ('',( #90 ) ) ;
#184 = ORIENTED_EDGE ( 'NONE', *, *, #189, .T. ) ;
#185 =( NAMED_UNIT ( * ) SI_UNIT ( $, .STERADIAN. ) SOLID_ANGLE_UNIT ( ) );
#186 = AXIS2_PLACEMENT_3D ( 'NONE', #102, #124, #247 ) ;
#187 = LENGTH_MEASURE_WITH_UNIT ( LENGTH_MEASURE( 0.02539999999999999897 ), #15 );
#188 = DIRECTION ( 'NONE',  ( -3.265724797726275178E-17, 1.000000000000000000, -0.000000000000000000 ) ) ;
#189 = EDGE_CURVE ( 'NONE', #143, #234, #24, .T. ) ;
#190 = SURFACE_STYLE_FILL_AREA ( #213 ) ;
#191 = PRESENTATION_LAYER_ASSIGNMENT (  '', '', ( #18 ) ) ;
#192 = AXIS2_PLACEMENT_3D ( 'NONE', #159, #178, #293 ) ;
#193 =( NAMED_UNIT ( * ) PLANE_ANGLE_UNIT ( ) SI_UNIT ( $, .RADIAN. ) );
#194 = CARTESIAN_POINT ( 'NONE',  ( -0.06250000000000012490, 2.500000000000000000, 0.000000000000000000 ) ) ;
#195 = SURFACE_STYLE_USAGE ( .BOTH. , #31 ) ;
#196 =( NAMED_UNIT ( * ) PLANE_ANGLE_UNIT ( ) SI_UNIT ( $, .RADIAN. ) );
#197 = SURFACE_STYLE_USAGE ( .BOTH. , #6 ) ;
#198 = UNCERTAINTY_MEASURE_WITH_UNIT (LENGTH_MEASURE( 1.000000000000000082E-05 ), #177, 'distance_accuracy_value', 'NONE');
#199 = VERTEX_POINT ( 'NONE', #168 ) ;
#200 =( CONVERSION_BASED_UNIT ( 'INCH', #136 ) LENGTH_UNIT ( ) NAMED_UNIT ( #12 ) );
#201 = DIRECTION ( 'NONE',  ( 0.000000000000000000, 0.000000000000000000, -1.000000000000000000 ) ) ;
#202 = PLANE ( 'NONE',  #192 ) ;
#203 =( GEOMETRIC_REPRESENTATION_CONTEXT ( 3 ) GLOBAL_UNCERTAINTY_ASSIGNED_CONTEXT ( ( #117 ) ) GLOBAL_UNIT_ASSIGNED_CONTEXT ( ( #120, #193, #83 ) ) REPRESENTATION_CONTEXT ( 'NONE', 'WORKASPACE' ) );
#204 = ORIENTED_EDGE ( 'NONE', *, *, #189, .F. ) ;
#205 = APPLICATION_PROTOCOL_DEFINITION ( 'draft international standard', 'automotive_design', 1998, #76 ) ;
#206 =( NAMED_UNIT ( * ) SI_UNIT ( $, .STERADIAN. ) SOLID_ANGLE_UNIT ( ) );
#207 = EDGE_LOOP ( 'NONE', ( #309, #239 ) ) ;
#208 = EDGE_CURVE ( 'NONE', #138, #98, #266, .T. ) ;
#209 = UNCERTAINTY_MEASURE_WITH_UNIT (LENGTH_MEASURE( 1.000000000000000082E-05 ), #216, 'distance_accuracy_value', 'NONE');
#210 = ORIENTED_EDGE ( 'NONE', *, *, #81, .F. ) ;
#211 = CARTESIAN_POINT ( 'NONE',  ( 0.06249999999999997224, 2.500000000000000000, 7.654042494670960626E-18 ) ) ;
#212 = CARTESIAN_POINT ( 'NONE',  ( 0.000000000000000000, 0.000000000000000000, 0.000000000000000000 ) ) ;
#213 = FILL_AREA_STYLE ('',( #119 ) ) ;
#214 = ORIENTED_EDGE ( 'NONE', *, *, #287, .F. ) ;
#215 = CIRCLE ( 'NONE', #114, 0.06250000000000001388 ) ;
#216 =( CONVERSION_BASED_UNIT ( 'INCH', #9 ) LENGTH_UNIT ( ) NAMED_UNIT ( #42 ) );
#217 = ADVANCED_FACE ( 'NONE', ( #170 ), #246, .T. ) ;
#218 = CARTESIAN_POINT ( 'NONE',  ( 0.000000000000000000, 0.6250000000000000000, 0.000000000000000000 ) ) ;
#219 = DIRECTION ( 'NONE',  ( 0.000000000000000000, 1.000000000000000000, 0.000000000000000000 ) ) ;
#220 = STYLED_ITEM ( 'NONE', ( #263 ), #37 ) ;
#221 = ORIENTED_EDGE ( 'NONE', *, *, #148, .T. ) ;
#222 = LINE ( 'NONE', #33, #135 ) ;
#223 = PRODUCT ( '84385', '84385', '', ( #254 ) ) ;
#224 = FACE_OUTER_BOUND ( 'NONE', #118, .T. ) ;
#225 = CARTESIAN_POINT ( 'NONE',  ( 0.000000000000000000, 0.6250000000000000000, 0.000000000000000000 ) ) ;
#226 = CLOSED_SHELL ( 'NONE', ( #46, #169, #240, #270 ) ) ;
#227 = FACE_OUTER_BOUND ( 'NONE', #84, .T. ) ;
#228 = CARTESIAN_POINT ( 'NONE',  ( 0.000000000000000000, 0.000000000000000000, 0.000000000000000000 ) ) ;
#229 = CARTESIAN_POINT ( 'NONE',  ( 0.000000000000000000, 0.6250000000000000000, -0.06250000000000000000 ) ) ;
#230 = SURFACE_SIDE_STYLE ('',( #133 ) ) ;
#231 = CARTESIAN_POINT ( 'NONE',  ( 0.000000000000000000, 0.000000000000000000, 0.000000000000000000 ) ) ;
#232 = FILL_AREA_STYLE ('',( #38 ) ) ;
#233 = UNCERTAINTY_MEASURE_WITH_UNIT (LENGTH_MEASURE( 1.000000000000000082E-05 ), #23, 'distance_accuracy_value', 'NONE');
#234 = VERTEX_POINT ( 'NONE', #194 ) ;
#235 = ADVANCED_FACE ( 'NONE', ( #149 ), #167, .T. ) ;
#236 = DIRECTION ( 'NONE',  ( -0.000000000000000000, -1.000000000000000000, -0.000000000000000000 ) ) ;
#237 = DIMENSIONAL_EXPONENTS ( 1.000000000000000000, 0.000000000000000000, 0.000000000000000000, 0.000000000000000000, 0.000000000000000000, 0.000000000000000000, 0.000000000000000000 ) ;
#238 = CARTESIAN_POINT ( 'NONE',  ( -0.06250000000000000000, 0.6250000000000000000, 0.000000000000000000 ) ) ;
#239 = ORIENTED_EDGE ( 'NONE', *, *, #44, .F. ) ;
#240 = ADVANCED_FACE ( 'NONE', ( #75 ), #29, .T. ) ;
#241 = CIRCLE ( 'NONE', #278, 0.06250000000000000000 ) ;
#242 = PRODUCT_DEFINITION_FORMATION_WITH_SPECIFIED_SOURCE ( 'ANY', '', #223, .NOT_KNOWN. ) ;
#243 = DIRECTION ( 'NONE',  ( -1.000000000000000000, 0.000000000000000000, 0.000000000000000000 ) ) ;
#244 = LINE ( 'NONE', #20, #104 ) ;
#245 = CIRCLE ( 'NONE', #63, 0.06250000000000005551 ) ;
#246 = CYLINDRICAL_SURFACE ( 'NONE', #186, 0.06250000000000001388 ) ;
#247 = DIRECTION ( 'NONE',  ( 0.000000000000000000, 0.000000000000000000, -1.000000000000000000 ) ) ;
#248 = EDGE_CURVE ( 'NONE', #302, #199, #157, .T. ) ;
#249 = ORIENTED_EDGE ( 'NONE', *, *, #81, .T. ) ;
#250 = COLOUR_RGB ( '',1.000000000000000000, 0.000000000000000000, 0.000000000000000000 ) ;
#251 = ORIENTED_EDGE ( 'NONE', *, *, #248, .F. ) ;
#252 = DIRECTION ( 'NONE',  ( -3.265724797726275178E-17, 1.000000000000000000, -0.000000000000000000 ) ) ;
#253 = FACE_OUTER_BOUND ( 'NONE', #107, .T. ) ;
#254 = PRODUCT_CONTEXT ( 'NONE', #76, 'mechanical' ) ;
#255 = CARTESIAN_POINT ( 'NONE',  ( 0.000000000000000000, 0.000000000000000000, 0.000000000000000000 ) ) ;
#256 = COLOUR_RGB ( '',1.000000000000000000, 0.000000000000000000, 0.000000000000000000 ) ;
#257 = UNCERTAINTY_MEASURE_WITH_UNIT (LENGTH_MEASURE( 1.000000000000000082E-05 ), #129, 'distance_accuracy_value', 'NONE');
#258 = SHAPE_DEFINITION_REPRESENTATION ( #172, #22 ) ;
#259 = ORIENTED_EDGE ( 'NONE', *, *, #163, .F. ) ;
#260 = EDGE_CURVE ( 'NONE', #264, #70, #115, .T. ) ;
#261 =( GEOMETRIC_REPRESENTATION_CONTEXT ( 3 ) GLOBAL_UNCERTAINTY_ASSIGNED_CONTEXT ( ( #40 ) ) GLOBAL_UNIT_ASSIGNED_CONTEXT ( ( #200, #298, #179 ) ) REPRESENTATION_CONTEXT ( 'NONE', 'WORKASPACE' ) );
#262 = DIRECTION ( 'NONE',  ( -3.265724797726275178E-17, 1.000000000000000000, 0.000000000000000000 ) ) ;
#263 = PRESENTATION_STYLE_ASSIGNMENT (( #130 ) ) ;
#264 = VERTEX_POINT ( 'NONE', #229 ) ;
#265 =( LENGTH_UNIT ( ) NAMED_UNIT ( * ) SI_UNIT ( $, .METRE. ) );
#266 = CIRCLE ( 'NONE', #47, 0.06250000000000000000 ) ;
#267 = ORIENTED_EDGE ( 'NONE', *, *, #111, .F. ) ;
#268 = COLOUR_RGB ( '',0.7921568627450980005, 0.8196078431372548767, 0.9333333333333333481 ) ;
#269 = DIRECTION ( 'NONE',  ( 0.000000000000000000, 0.000000000000000000, -1.000000000000000000 ) ) ;
#270 = ADVANCED_FACE ( 'NONE', ( #227 ), #202, .F. ) ;
#271 = DIRECTION ( 'NONE',  ( 0.000000000000000000, -1.000000000000000000, -0.000000000000000000 ) ) ;
#272 = DIRECTION ( 'NONE',  ( -0.000000000000000000, -1.000000000000000000, -0.000000000000000000 ) ) ;
#273 = DIRECTION ( 'NONE',  ( -0.000000000000000000, -1.000000000000000000, -0.000000000000000000 ) ) ;
#274 = AXIS2_PLACEMENT_3D ( 'NONE', #280, #67, #55 ) ;
#275 = CARTESIAN_POINT ( 'NONE',  ( 0.000000000000000000, 0.000000000000000000, 0.000000000000000000 ) ) ;
#276 = DIRECTION ( 'NONE',  ( 0.000000000000000000, 0.000000000000000000, -1.000000000000000000 ) ) ;
#277 = APPLICATION_PROTOCOL_DEFINITION ( 'draft international standard', 'automotive_design', 1998, #69 ) ;
#278 = AXIS2_PLACEMENT_3D ( 'NONE', #48, #99, #269 ) ;
#279 = AXIS2_PLACEMENT_3D ( 'NONE', #96, #262, #49 ) ;
#280 = CARTESIAN_POINT ( 'NONE',  ( -6.123233995736766036E-17, 2.500000000000000000, 0.000000000000000000 ) ) ;
#281 = CARTESIAN_POINT ( 'NONE',  ( -6.123233995736766036E-17, 2.500000000000000000, 0.000000000000000000 ) ) ;
#282 = SURFACE_SIDE_STYLE ('',( #35 ) ) ;
#283 = MECHANICAL_DESIGN_GEOMETRIC_PRESENTATION_REPRESENTATION (  '', ( #220 ), #203 ) ;
#284 = SURFACE_SIDE_STYLE ('',( #190 ) ) ;
#285 = AXIS2_PLACEMENT_3D ( 'NONE', #228, #273, #276 ) ;
#286 = AXIS2_PLACEMENT_3D ( 'NONE', #231, #272, #87 ) ;
#287 = EDGE_CURVE ( 'NONE', #98, #138, #19, .T. ) ;
#288 = CARTESIAN_POINT ( 'NONE',  ( -6.123233995736766036E-17, 2.500000000000000000, 0.000000000000000000 ) ) ;
#289 = MECHANICAL_DESIGN_GEOMETRIC_PRESENTATION_REPRESENTATION (  '', ( #4 ), #79 ) ;
#290 = SURFACE_STYLE_FILL_AREA ( #5 ) ;
#291 = EDGE_LOOP ( 'NONE', ( #8, #214 ) ) ;
#292 = DIRECTION ( 'NONE',  ( -0.000000000000000000, -1.000000000000000000, -0.000000000000000000 ) ) ;
#293 = DIRECTION ( 'NONE',  ( 1.000000000000000000, 3.265724797726275178E-17, 0.000000000000000000 ) ) ;
#294 = MECHANICAL_DESIGN_GEOMETRIC_PRESENTATION_REPRESENTATION (  '', ( #43 ), #14 ) ;
#295 =( LENGTH_UNIT ( ) NAMED_UNIT ( * ) SI_UNIT ( $, .METRE. ) );
#296 = PRODUCT_DEFINITION ( 'UNKNOWN', '', #242, #94 ) ;
#297 = DIRECTION ( 'NONE',  ( 0.000000000000000000, 0.000000000000000000, -1.000000000000000000 ) ) ;
#298 =( NAMED_UNIT ( * ) PLANE_ANGLE_UNIT ( ) SI_UNIT ( $, .RADIAN. ) );
#299 = PRESENTATION_LAYER_ASSIGNMENT (  '', '', ( #43 ) ) ;
#300 = FILL_AREA_STYLE ('',( #154 ) ) ;
#301 = AXIS2_PLACEMENT_3D ( 'NONE', #155, #39, #60 ) ;
#302 = VERTEX_POINT ( 'NONE', #13 ) ;
#303 = CYLINDRICAL_SURFACE ( 'NONE', #285, 0.06250000000000001388 ) ;
#304 = DIMENSIONAL_EXPONENTS ( 1.000000000000000000, 0.000000000000000000, 0.000000000000000000, 0.000000000000000000, 0.000000000000000000, 0.000000000000000000, 0.000000000000000000 ) ;
#305 = ORIENTED_EDGE ( 'NONE', *, *, #287, .T. ) ;
#306 = ORIENTED_EDGE ( 'NONE', *, *, #260, .T. ) ;
#307 = DIRECTION ( 'NONE',  ( -0.000000000000000000, -1.000000000000000000, -0.000000000000000000 ) ) ;
#308 = STYLED_ITEM ( 'NONE', ( #145 ), #235 ) ;
#309 = ORIENTED_EDGE ( 'NONE', *, *, #260, .F. ) ;
ENDSEC;
END-ISO-10303-21;
