ISO-10303-21;
HEADER;
FILE_DESCRIPTION (( 'STEP AP214' ),
    '1' );
FILE_NAME ('83886.STEP',
    '2023-07-12T13:08:13',
    ( '' ),
    ( '' ),
    'SwSTEP 2.0',
    'SolidWorks 2023',
    '' );
FILE_SCHEMA (( 'AUTOMOTIVE_DESIGN' ));
ENDSEC;

DATA;
#1 =( CONVERSION_BASED_UNIT ( 'INCH', #130 ) LENGTH_UNIT ( ) NAMED_UNIT ( #101 ) );
#2 = UNCERTAINTY_MEASURE_WITH_UNIT (LENGTH_MEASURE( 1.000000000000000082E-05 ), #42, 'distance_accuracy_value', 'NONE');
#3 = AXIS2_PLACEMENT_3D ( 'NONE', #306, #96, #184 ) ;
#4 = DIRECTION ( 'NONE',  ( -1.297008888447770914E-17, 1.000000000000000000, 0.000000000000000000 ) ) ;
#5 = DIRECTION ( 'NONE',  ( -1.232950076816922318E-16, 1.000000000000000000, 0.000000000000000000 ) ) ;
#6 = MECHANICAL_DESIGN_GEOMETRIC_PRESENTATION_REPRESENTATION (  '', ( #105 ), #275 ) ;
#7 =( CONVERSION_BASED_UNIT ( 'INCH', #276 ) LENGTH_UNIT ( ) NAMED_UNIT ( #202 ) );
#8 = APPLICATION_CONTEXT ( 'automotive_design' ) ;
#9 =( NAMED_UNIT ( * ) SI_UNIT ( $, .STERADIAN. ) SOLID_ANGLE_UNIT ( ) );
#10 = DIRECTION ( 'NONE',  ( 1.000000000000000000, 0.000000000000000000, 0.000000000000000000 ) ) ;
#11 = EDGE_LOOP ( 'NONE', ( #196, #243, #17, #242 ) ) ;
#12 = EDGE_CURVE ( 'NONE', #198, #182, #220, .T. ) ;
#13 = MECHANICAL_DESIGN_GEOMETRIC_PRESENTATION_REPRESENTATION (  '', ( #135 ), #118 ) ;
#14 =( NAMED_UNIT ( * ) SI_UNIT ( $, .STERADIAN. ) SOLID_ANGLE_UNIT ( ) );
#15 = AXIS2_PLACEMENT_3D ( 'NONE', #224, #59, #245 ) ;
#16 = DIRECTION ( 'NONE',  ( -1.232950076816922318E-16, 1.000000000000000000, -0.000000000000000000 ) ) ;
#17 = ORIENTED_EDGE ( 'NONE', *, *, #205, .F. ) ;
#18 = LENGTH_MEASURE_WITH_UNIT ( LENGTH_MEASURE( 0.02539999999999999897 ), #99 );
#19 = VERTEX_POINT ( 'NONE', #161 ) ;
#20 = ORIENTED_EDGE ( 'NONE', *, *, #131, .T. ) ;
#21 =( GEOMETRIC_REPRESENTATION_CONTEXT ( 3 ) GLOBAL_UNCERTAINTY_ASSIGNED_CONTEXT ( ( #267 ) ) GLOBAL_UNIT_ASSIGNED_CONTEXT ( ( #7, #34, #26 ) ) REPRESENTATION_CONTEXT ( 'NONE', 'WORKASPACE' ) );
#22 = CYLINDRICAL_SURFACE ( 'NONE', #299, 0.09374999999999994449 ) ;
#23 = CARTESIAN_POINT ( 'NONE',  ( -0.09374999999999998612, 0.06874999999999974187, 0.000000000000000000 ) ) ;
#24 = ADVANCED_FACE ( 'NONE', ( #110 ), #164, .T. ) ;
#25 = DIRECTION ( 'NONE',  ( -1.232950076816922318E-16, 1.000000000000000000, -0.000000000000000000 ) ) ;
#26 =( NAMED_UNIT ( * ) SI_UNIT ( $, .STERADIAN. ) SOLID_ANGLE_UNIT ( ) );
#27 = STYLED_ITEM ( 'NONE', ( #66 ), #233 ) ;
#28 = DIMENSIONAL_EXPONENTS ( 1.000000000000000000, 0.000000000000000000, 0.000000000000000000, 0.000000000000000000, 0.000000000000000000, 0.000000000000000000, 0.000000000000000000 ) ;
#29 = FILL_AREA_STYLE ('',( #274 ) ) ;
#30 = ADVANCED_FACE ( 'NONE', ( #285 ), #288, .T. ) ;
#31 =( GEOMETRIC_REPRESENTATION_CONTEXT ( 3 ) GLOBAL_UNCERTAINTY_ASSIGNED_CONTEXT ( ( #265 ) ) GLOBAL_UNIT_ASSIGNED_CONTEXT ( ( #176, #303, #14 ) ) REPRESENTATION_CONTEXT ( 'NONE', 'WORKASPACE' ) );
#32 = AXIS2_PLACEMENT_3D ( 'NONE', #251, #304, #249 ) ;
#33 = ORIENTED_EDGE ( 'NONE', *, *, #205, .T. ) ;
#34 =( NAMED_UNIT ( * ) PLANE_ANGLE_UNIT ( ) SI_UNIT ( $, .RADIAN. ) );
#35 = CARTESIAN_POINT ( 'NONE',  ( -0.02500000000000000139, -6.485044442238855916E-19, 0.000000000000000000 ) ) ;
#36 = LENGTH_MEASURE_WITH_UNIT ( LENGTH_MEASURE( 0.02539999999999999897 ), #114 );
#37 = ORIENTED_EDGE ( 'NONE', *, *, #115, .F. ) ;
#38 = MECHANICAL_DESIGN_GEOMETRIC_PRESENTATION_REPRESENTATION (  '', ( #191 ), #200 ) ;
#39 = SURFACE_SIDE_STYLE ('',( #250 ) ) ;
#40 = FACE_OUTER_BOUND ( 'NONE', #260, .T. ) ;
#41 = ADVANCED_FACE ( 'NONE', ( #40 ), #22, .T. ) ;
#42 =( CONVERSION_BASED_UNIT ( 'INCH', #241 ) LENGTH_UNIT ( ) NAMED_UNIT ( #172 ) );
#43 = FILL_AREA_STYLE_COLOUR ( '', #210 ) ;
#44 = DIRECTION ( 'NONE',  ( -1.000000000000000000, -9.106159978880894651E-17, 0.000000000000000000 ) ) ;
#45 = ADVANCED_FACE ( 'NONE', ( #61 ), #123, .F. ) ;
#46 = CARTESIAN_POINT ( 'NONE',  ( -8.916936108078392579E-19, 0.06874999999999974187, 0.000000000000000000 ) ) ;
#47 = ORIENTED_EDGE ( 'NONE', *, *, #300, .T. ) ;
#48 = PRESENTATION_STYLE_ASSIGNMENT (( #207 ) ) ;
#49 = DIRECTION ( 'NONE',  ( -1.000000000000000000, -1.232950076816922318E-16, 0.000000000000000000 ) ) ;
#50 = EDGE_LOOP ( 'NONE', ( #142, #252 ) ) ;
#51 = FACE_OUTER_BOUND ( 'NONE', #132, .T. ) ;
#52 = DIRECTION ( 'NONE',  ( -1.000000000000000000, -1.297008888447771068E-17, 0.000000000000000000 ) ) ;
#53 = AXIS2_PLACEMENT_3D ( 'NONE', #179, #55, #147 ) ;
#54 = ORIENTED_EDGE ( 'NONE', *, *, #131, .F. ) ;
#55 = DIRECTION ( 'NONE',  ( 1.297008888447770914E-17, -1.000000000000000000, -0.000000000000000000 ) ) ;
#56 = PRESENTATION_STYLE_ASSIGNMENT (( #86 ) ) ;
#57 = MECHANICAL_DESIGN_GEOMETRIC_PRESENTATION_REPRESENTATION (  '', ( #279 ), #31 ) ;
#58 = DIRECTION ( 'NONE',  ( 1.297008888447770914E-17, -1.000000000000000000, -0.000000000000000000 ) ) ;
#59 = DIRECTION ( 'NONE',  ( -1.232950076816922318E-16, 1.000000000000000000, -0.000000000000000000 ) ) ;
#60 = VERTEX_POINT ( 'NONE', #199 ) ;
#61 = FACE_OUTER_BOUND ( 'NONE', #170, .T. ) ;
#62 = EDGE_CURVE ( 'NONE', #60, #256, #85, .T. ) ;
#63 = AXIS2_PLACEMENT_3D ( 'NONE', #140, #79, #283 ) ;
#64 = VECTOR ( 'NONE', #25, 39.37007874015748143 ) ;
#65 = ORIENTED_EDGE ( 'NONE', *, *, #190, .T. ) ;
#66 = PRESENTATION_STYLE_ASSIGNMENT (( #206 ) ) ;
#67 = ORIENTED_EDGE ( 'NONE', *, *, #294, .T. ) ;
#68 = LENGTH_MEASURE_WITH_UNIT ( LENGTH_MEASURE( 0.02539999999999999897 ), #234 );
#69 = DIRECTION ( 'NONE',  ( -1.297008888447770914E-17, 1.000000000000000000, 0.000000000000000000 ) ) ;
#70 = STYLED_ITEM ( 'NONE', ( #232 ), #231 ) ;
#71 = FACE_OUTER_BOUND ( 'NONE', #50, .T. ) ;
#72 = SURFACE_STYLE_FILL_AREA ( #292 ) ;
#73 =( NAMED_UNIT ( * ) PLANE_ANGLE_UNIT ( ) SI_UNIT ( $, .RADIAN. ) );
#74 = DIRECTION ( 'NONE',  ( -1.232950076816922318E-16, 1.000000000000000000, -0.000000000000000000 ) ) ;
#75 = ADVANCED_FACE ( 'NONE', ( #259 ), #273, .T. ) ;
#76 = ORIENTED_EDGE ( 'NONE', *, *, #268, .T. ) ;
#77 = AXIS2_PLACEMENT_3D ( 'NONE', #223, #69, #254 ) ;
#78 = ORIENTED_EDGE ( 'NONE', *, *, #177, .F. ) ;
#79 = DIRECTION ( 'NONE',  ( -1.232950076816922318E-16, 1.000000000000000000, -0.000000000000000000 ) ) ;
#80 = CARTESIAN_POINT ( 'NONE',  ( 1.768811436279005459E-16, 0.06874999999999964473, 0.000000000000000000 ) ) ;
#81 = CARTESIAN_POINT ( 'NONE',  ( -0.09375000000000001388, 2.000000000000000000, 0.000000000000000000 ) ) ;
#82 = UNCERTAINTY_MEASURE_WITH_UNIT (LENGTH_MEASURE( 1.000000000000000082E-05 ), #188, 'distance_accuracy_value', 'NONE');
#83 = COLOUR_RGB ( '',1.000000000000000000, 0.000000000000000000, 0.000000000000000000 ) ;
#84 = SURFACE_STYLE_USAGE ( .BOTH. , #214 ) ;
#85 = CIRCLE ( 'NONE', #163, 0.09374999999999981959 ) ;
#86 = SURFACE_STYLE_USAGE ( .BOTH. , #39 ) ;
#87 =( CONVERSION_BASED_UNIT ( 'INCH', #68 ) LENGTH_UNIT ( ) NAMED_UNIT ( #155 ) );
#88 = SURFACE_STYLE_FILL_AREA ( #139 ) ;
#89 = CARTESIAN_POINT ( 'NONE',  ( 0.09374999999999998612, 0.06874999999999974187, 1.148106374200643401E-17 ) ) ;
#90 = DIRECTION ( 'NONE',  ( 1.000000000000000000, 1.297008888447771068E-17, 0.000000000000000000 ) ) ;
#91 = LINE ( 'NONE', #35, #216 ) ;
#92 = DIRECTION ( 'NONE',  ( 0.000000000000000000, 0.000000000000000000, 1.000000000000000000 ) ) ;
#93 = CLOSED_SHELL ( 'NONE', ( #75, #180, #235, #24 ) ) ;
#94 = VERTEX_POINT ( 'NONE', #152 ) ;
#95 = MECHANICAL_DESIGN_GEOMETRIC_PRESENTATION_REPRESENTATION (  '', ( #70 ), #129 ) ;
#96 = DIRECTION ( 'NONE',  ( -1.297008888447770914E-17, 1.000000000000000000, 0.000000000000000000 ) ) ;
#97 = FILL_AREA_STYLE_COLOUR ( '', #158 ) ;
#98 = ORIENTED_EDGE ( 'NONE', *, *, #190, .F. ) ;
#99 =( LENGTH_UNIT ( ) NAMED_UNIT ( * ) SI_UNIT ( $, .METRE. ) );
#100 = CIRCLE ( 'NONE', #178, 0.09374999999999998612 ) ;
#101 = DIMENSIONAL_EXPONENTS ( 1.000000000000000000, 0.000000000000000000, 0.000000000000000000, 0.000000000000000000, 0.000000000000000000, 0.000000000000000000, 0.000000000000000000 ) ;
#102 = SURFACE_SIDE_STYLE ('',( #120 ) ) ;
#103 = EDGE_LOOP ( 'NONE', ( #258, #271, #149, #65 ) ) ;
#104 = ADVANCED_BREP_SHAPE_REPRESENTATION ( '83886', ( #233, #231, #240 ), #113 ) ;
#105 = STYLED_ITEM ( 'NONE', ( #264 ), #235 ) ;
#106 = EDGE_LOOP ( 'NONE', ( #193, #76 ) ) ;
#107 = CIRCLE ( 'NONE', #151, 0.09375000000000005551 ) ;
#108 = PLANE ( 'NONE',  #77 ) ;
#109 = VERTEX_POINT ( 'NONE', #23 ) ;
#110 = FACE_OUTER_BOUND ( 'NONE', #106, .T. ) ;
#111 = EDGE_LOOP ( 'NONE', ( #112, #302, #20, #37 ) ) ;
#112 = ORIENTED_EDGE ( 'NONE', *, *, #268, .F. ) ;
#113 =( GEOMETRIC_REPRESENTATION_CONTEXT ( 3 ) GLOBAL_UNCERTAINTY_ASSIGNED_CONTEXT ( ( #166 ) ) GLOBAL_UNIT_ASSIGNED_CONTEXT ( ( #284, #247, #218 ) ) REPRESENTATION_CONTEXT ( 'NONE', 'WORKASPACE' ) );
#114 =( LENGTH_UNIT ( ) NAMED_UNIT ( * ) SI_UNIT ( $, .METRE. ) );
#115 = EDGE_CURVE ( 'NONE', #198, #109, #91, .T. ) ;
#116 = CARTESIAN_POINT ( 'NONE',  ( 0.09374999999999998612, 2.000000000000000000, 0.000000000000000000 ) ) ;
#117 = AXIS2_PLACEMENT_3D ( 'NONE', #266, #215, #90 ) ;
#118 =( GEOMETRIC_REPRESENTATION_CONTEXT ( 3 ) GLOBAL_UNCERTAINTY_ASSIGNED_CONTEXT ( ( #82 ) ) GLOBAL_UNIT_ASSIGNED_CONTEXT ( ( #188, #73, #9 ) ) REPRESENTATION_CONTEXT ( 'NONE', 'WORKASPACE' ) );
#119 = VECTOR ( 'NONE', #16, 39.37007874015748143 ) ;
#120 = SURFACE_STYLE_FILL_AREA ( #125 ) ;
#121 = DIRECTION ( 'NONE',  ( 1.000000000000000000, 1.232950076816922318E-16, 0.000000000000000000 ) ) ;
#122 = CARTESIAN_POINT ( 'NONE',  ( -6.123233995736763571E-17, 2.000000000000000000, 0.000000000000000000 ) ) ;
#123 = PLANE ( 'NONE',  #227 ) ;
#124 = PRODUCT_DEFINITION_CONTEXT ( 'detailed design', #237, 'design' ) ;
#125 = FILL_AREA_STYLE ('',( #43 ) ) ;
#126 = PRESENTATION_LAYER_ASSIGNMENT (  '', '', ( #279 ) ) ;
#127 = PRODUCT ( '83886', '83886', '', ( #169 ) ) ;
#128 = DIMENSIONAL_EXPONENTS ( 1.000000000000000000, 0.000000000000000000, 0.000000000000000000, 0.000000000000000000, 0.000000000000000000, 0.000000000000000000, 0.000000000000000000 ) ;
#129 =( GEOMETRIC_REPRESENTATION_CONTEXT ( 3 ) GLOBAL_UNCERTAINTY_ASSIGNED_CONTEXT ( ( #181 ) ) GLOBAL_UNIT_ASSIGNED_CONTEXT ( ( #87, #157, #187 ) ) REPRESENTATION_CONTEXT ( 'NONE', 'WORKASPACE' ) );
#130 = LENGTH_MEASURE_WITH_UNIT ( LENGTH_MEASURE( 0.02539999999999999897 ), #204 );
#131 = EDGE_CURVE ( 'NONE', #159, #109, #238, .T. ) ;
#132 = EDGE_LOOP ( 'NONE', ( #98, #54 ) ) ;
#133 = FILL_AREA_STYLE ('',( #134 ) ) ;
#134 = FILL_AREA_STYLE_COLOUR ( '', #83 ) ;
#135 = STYLED_ITEM ( 'NONE', ( #48 ), #24 ) ;
#136 = MECHANICAL_DESIGN_GEOMETRIC_PRESENTATION_REPRESENTATION (  '', ( #27 ), #21 ) ;
#137 = CIRCLE ( 'NONE', #63, 0.09374999999999981959 ) ;
#138 = FILL_AREA_STYLE_COLOUR ( '', #293 ) ;
#139 = FILL_AREA_STYLE ('',( #213 ) ) ;
#140 = CARTESIAN_POINT ( 'NONE',  ( 1.768811436279005459E-16, 0.06874999999999964473, 0.000000000000000000 ) ) ;
#141 = FILL_AREA_STYLE ('',( #97 ) ) ;
#142 = ORIENTED_EDGE ( 'NONE', *, *, #62, .F. ) ;
#143 = DIRECTION ( 'NONE',  ( 1.232950076816922318E-16, -1.000000000000000000, 0.000000000000000000 ) ) ;
#144 = PRESENTATION_LAYER_ASSIGNMENT (  '', '', ( #135 ) ) ;
#145 = APPLICATION_PROTOCOL_DEFINITION ( 'draft international standard', 'automotive_design', 1998, #8 ) ;
#146 = CIRCLE ( 'NONE', #203, 0.09375000000000005551 ) ;
#147 = DIRECTION ( 'NONE',  ( 1.000000000000000000, 1.297008888447770914E-17, 0.000000000000000000 ) ) ;
#148 = DIRECTION ( 'NONE',  ( 1.000000000000000000, 0.000000000000000000, 0.000000000000000000 ) ) ;
#149 = ORIENTED_EDGE ( 'NONE', *, *, #115, .T. ) ;
#150 = CARTESIAN_POINT ( 'NONE',  ( -6.123233995736763571E-17, 2.000000000000000000, 0.000000000000000000 ) ) ;
#151 = AXIS2_PLACEMENT_3D ( 'NONE', #189, #74, #168 ) ;
#152 = CARTESIAN_POINT ( 'NONE',  ( 0.09374999999999998612, 2.000000000000000000, 1.148106374200643555E-17 ) ) ;
#153 = AXIS2_PLACEMENT_3D ( 'NONE', #46, #297, #298 ) ;
#154 = CONICAL_SURFACE ( 'NONE', #192, 0.02500000000000000139, 0.7853981633974500554 ) ;
#155 = DIMENSIONAL_EXPONENTS ( 1.000000000000000000, 0.000000000000000000, 0.000000000000000000, 0.000000000000000000, 0.000000000000000000, 0.000000000000000000, 0.000000000000000000 ) ;
#156 = SURFACE_STYLE_FILL_AREA ( #133 ) ;
#157 =( NAMED_UNIT ( * ) PLANE_ANGLE_UNIT ( ) SI_UNIT ( $, .RADIAN. ) );
#158 = COLOUR_RGB ( '',1.000000000000000000, 0.000000000000000000, 0.000000000000000000 ) ;
#159 = VERTEX_POINT ( 'NONE', #89 ) ;
#160 = ADVANCED_FACE ( 'NONE', ( #71 ), #244, .F. ) ;
#161 = CARTESIAN_POINT ( 'NONE',  ( -0.09375000000000012490, 2.000000000000000000, 0.000000000000000000 ) ) ;
#162 = CARTESIAN_POINT ( 'NONE',  ( 4.205580141781306277E-36, -3.242522221119427958E-19, 0.000000000000000000 ) ) ;
#163 = AXIS2_PLACEMENT_3D ( 'NONE', #80, #261, #44 ) ;
#164 = PLANE ( 'NONE',  #53 ) ;
#165 = CARTESIAN_POINT ( 'NONE',  ( 1.768811436279005459E-16, 0.06874999999999974187, 0.000000000000000000 ) ) ;
#166 = UNCERTAINTY_MEASURE_WITH_UNIT (LENGTH_MEASURE( 1.000000000000000082E-05 ), #284, 'distance_accuracy_value', 'NONE');
#167 = SURFACE_SIDE_STYLE ('',( #239 ) ) ;
#168 = DIRECTION ( 'NONE',  ( -1.000000000000000000, 0.000000000000000000, 0.000000000000000000 ) ) ;
#169 = PRODUCT_CONTEXT ( 'NONE', #8, 'mechanical' ) ;
#170 = EDGE_LOOP ( 'NONE', ( #33, #226 ) ) ;
#171 = PRODUCT_DEFINITION_FORMATION_WITH_SPECIFIED_SOURCE ( 'ANY', '', #127, .NOT_KNOWN. ) ;
#172 = DIMENSIONAL_EXPONENTS ( 1.000000000000000000, 0.000000000000000000, 0.000000000000000000, 0.000000000000000000, 0.000000000000000000, 0.000000000000000000, 0.000000000000000000 ) ;
#173 = PRESENTATION_STYLE_ASSIGNMENT (( #222 ) ) ;
#174 = DIRECTION ( 'NONE',  ( 0.7071067811865486830, 0.7071067811865462405, 8.659560562354947649E-17 ) ) ;
#175 = PRODUCT_DEFINITION_SHAPE ( 'NONE', 'NONE',  #282 ) ;
#176 =( CONVERSION_BASED_UNIT ( 'INCH', #18 ) LENGTH_UNIT ( ) NAMED_UNIT ( #286 ) );
#177 = EDGE_CURVE ( 'NONE', #94, #19, #107, .T. ) ;
#178 = AXIS2_PLACEMENT_3D ( 'NONE', #287, #58, #148 ) ;
#179 = CARTESIAN_POINT ( 'NONE',  ( 2.102790070890653138E-36, -1.621261110559713979E-19, 0.000000000000000000 ) ) ;
#180 = ADVANCED_FACE ( 'NONE', ( #51 ), #108, .T. ) ;
#181 = UNCERTAINTY_MEASURE_WITH_UNIT (LENGTH_MEASURE( 1.000000000000000082E-05 ), #87, 'distance_accuracy_value', 'NONE');
#182 = VERTEX_POINT ( 'NONE', #295 ) ;
#183 = SURFACE_STYLE_USAGE ( .BOTH. , #291 ) ;
#184 = DIRECTION ( 'NONE',  ( -1.000000000000000000, -1.297008888447771068E-17, 0.000000000000000000 ) ) ;
#185 = EDGE_CURVE ( 'NONE', #182, #159, #197, .T. ) ;
#186 = SURFACE_SIDE_STYLE ('',( #88 ) ) ;
#187 =( NAMED_UNIT ( * ) SI_UNIT ( $, .STERADIAN. ) SOLID_ANGLE_UNIT ( ) );
#188 =( CONVERSION_BASED_UNIT ( 'INCH', #246 ) LENGTH_UNIT ( ) NAMED_UNIT ( #28 ) );
#189 = CARTESIAN_POINT ( 'NONE',  ( -6.123233995736763571E-17, 2.000000000000000000, 0.000000000000000000 ) ) ;
#190 = EDGE_CURVE ( 'NONE', #109, #159, #100, .T. ) ;
#191 = STYLED_ITEM ( 'NONE', ( #56 ), #180 ) ;
#192 = AXIS2_PLACEMENT_3D ( 'NONE', #162, #4, #52 ) ;
#193 = ORIENTED_EDGE ( 'NONE', *, *, #12, .T. ) ;
#194 =( NAMED_UNIT ( * ) SI_UNIT ( $, .STERADIAN. ) SOLID_ANGLE_UNIT ( ) );
#195 =( NAMED_UNIT ( * ) PLANE_ANGLE_UNIT ( ) SI_UNIT ( $, .RADIAN. ) );
#196 = ORIENTED_EDGE ( 'NONE', *, *, #62, .T. ) ;
#197 = LINE ( 'NONE', #305, #262 ) ;
#198 = VERTEX_POINT ( 'NONE', #257 ) ;
#199 = CARTESIAN_POINT ( 'NONE',  ( -0.09374999999999965306, 0.06874999999999963085, 0.000000000000000000 ) ) ;
#200 =( GEOMETRIC_REPRESENTATION_CONTEXT ( 3 ) GLOBAL_UNCERTAINTY_ASSIGNED_CONTEXT ( ( #2 ) ) GLOBAL_UNIT_ASSIGNED_CONTEXT ( ( #42, #281, #194 ) ) REPRESENTATION_CONTEXT ( 'NONE', 'WORKASPACE' ) );
#201 = DIRECTION ( 'NONE',  ( -1.232950076816922318E-16, 1.000000000000000000, -0.000000000000000000 ) ) ;
#202 = DIMENSIONAL_EXPONENTS ( 1.000000000000000000, 0.000000000000000000, 0.000000000000000000, 0.000000000000000000, 0.000000000000000000, 0.000000000000000000, 0.000000000000000000 ) ;
#203 = AXIS2_PLACEMENT_3D ( 'NONE', #122, #229, #228 ) ;
#204 =( LENGTH_UNIT ( ) NAMED_UNIT ( * ) SI_UNIT ( $, .METRE. ) );
#205 = EDGE_CURVE ( 'NONE', #19, #94, #146, .T. ) ;
#206 = SURFACE_STYLE_USAGE ( .BOTH. , #167 ) ;
#207 = SURFACE_STYLE_USAGE ( .BOTH. , #186 ) ;
#208 = UNCERTAINTY_MEASURE_WITH_UNIT (LENGTH_MEASURE( 1.000000000000000082E-05 ), #1, 'distance_accuracy_value', 'NONE');
#209 =( LENGTH_UNIT ( ) NAMED_UNIT ( * ) SI_UNIT ( $, .METRE. ) );
#210 = COLOUR_RGB ( '',1.000000000000000000, 0.000000000000000000, 0.000000000000000000 ) ;
#211 = CIRCLE ( 'NONE', #32, 0.02500000000000000139 ) ;
#212 = PRODUCT_RELATED_PRODUCT_CATEGORY ( 'part', '', ( #127 ) ) ;
#213 = FILL_AREA_STYLE_COLOUR ( '', #289 ) ;
#214 = SURFACE_SIDE_STYLE ('',( #72 ) ) ;
#215 = DIRECTION ( 'NONE',  ( 1.297008888447770914E-17, -1.000000000000000000, -0.000000000000000000 ) ) ;
#216 = VECTOR ( 'NONE', #270, 39.37007874015748854 ) ;
#217 = EDGE_CURVE ( 'NONE', #256, #94, #225, .T. ) ;
#218 =( NAMED_UNIT ( * ) SI_UNIT ( $, .STERADIAN. ) SOLID_ANGLE_UNIT ( ) );
#219 = LINE ( 'NONE', #81, #119 ) ;
#220 = CIRCLE ( 'NONE', #117, 0.02500000000000000139 ) ;
#221 = CARTESIAN_POINT ( 'NONE',  ( 0.09374999999999998612, 0.06874999999999964473, 1.148106374200643555E-17 ) ) ;
#222 = SURFACE_STYLE_USAGE ( .BOTH. , #102 ) ;
#223 = CARTESIAN_POINT ( 'NONE',  ( -8.916936108078390653E-19, 0.06874999999999974187, 0.000000000000000000 ) ) ;
#224 = CARTESIAN_POINT ( 'NONE',  ( -6.123233995736763571E-17, 2.000000000000000000, 0.000000000000000000 ) ) ;
#225 = LINE ( 'NONE', #263, #64 ) ;
#226 = ORIENTED_EDGE ( 'NONE', *, *, #177, .T. ) ;
#227 = AXIS2_PLACEMENT_3D ( 'NONE', #116, #143, #121 ) ;
#228 = DIRECTION ( 'NONE',  ( -1.000000000000000000, 0.000000000000000000, 0.000000000000000000 ) ) ;
#229 = DIRECTION ( 'NONE',  ( -1.232950076816922318E-16, 1.000000000000000000, -0.000000000000000000 ) ) ;
#230 =( NAMED_UNIT ( * ) SI_UNIT ( $, .STERADIAN. ) SOLID_ANGLE_UNIT ( ) );
#231 = MANIFOLD_SOLID_BREP ( 'Revolve - Tool Body (Tipped Off)', #236 ) ;
#232 = PRESENTATION_STYLE_ASSIGNMENT (( #84 ) ) ;
#233 = MANIFOLD_SOLID_BREP ( 'Revolve - Cutting Edge', #93 ) ;
#234 =( LENGTH_UNIT ( ) NAMED_UNIT ( * ) SI_UNIT ( $, .METRE. ) );
#235 = ADVANCED_FACE ( 'NONE', ( #272 ), #154, .T. ) ;
#236 = CLOSED_SHELL ( 'NONE', ( #30, #160, #41, #45 ) ) ;
#237 = APPLICATION_CONTEXT ( 'automotive_design' ) ;
#238 = CIRCLE ( 'NONE', #153, 0.09374999999999998612 ) ;
#239 = SURFACE_STYLE_FILL_AREA ( #29 ) ;
#240 = AXIS2_PLACEMENT_3D ( 'NONE', #277, #92, #10 ) ;
#241 = LENGTH_MEASURE_WITH_UNIT ( LENGTH_MEASURE( 0.02539999999999999897 ), #278 );
#242 = ORIENTED_EDGE ( 'NONE', *, *, #294, .F. ) ;
#243 = ORIENTED_EDGE ( 'NONE', *, *, #217, .T. ) ;
#244 = PLANE ( 'NONE',  #307 ) ;
#245 = DIRECTION ( 'NONE',  ( -1.000000000000000000, 0.000000000000000000, 0.000000000000000000 ) ) ;
#246 = LENGTH_MEASURE_WITH_UNIT ( LENGTH_MEASURE( 0.02539999999999999897 ), #269 );
#247 =( NAMED_UNIT ( * ) PLANE_ANGLE_UNIT ( ) SI_UNIT ( $, .RADIAN. ) );
#248 = PRESENTATION_LAYER_ASSIGNMENT (  '', '', ( #191 ) ) ;
#249 = DIRECTION ( 'NONE',  ( 1.000000000000000000, 1.297008888447771068E-17, 0.000000000000000000 ) ) ;
#250 = SURFACE_STYLE_FILL_AREA ( #141 ) ;
#251 = CARTESIAN_POINT ( 'NONE',  ( 4.205580141781306277E-36, -3.242522221119427958E-19, 0.000000000000000000 ) ) ;
#252 = ORIENTED_EDGE ( 'NONE', *, *, #300, .F. ) ;
#253 = DIRECTION ( 'NONE',  ( -1.000000000000000000, 0.000000000000000000, 0.000000000000000000 ) ) ;
#254 = DIRECTION ( 'NONE',  ( -1.000000000000000000, -1.297008888447770914E-17, 0.000000000000000000 ) ) ;
#255 = APPLICATION_PROTOCOL_DEFINITION ( 'draft international standard', 'automotive_design', 1998, #237 ) ;
#256 = VERTEX_POINT ( 'NONE', #221 ) ;
#257 = CARTESIAN_POINT ( 'NONE',  ( -0.02500000000000000139, -6.485044442238855916E-19, 0.000000000000000000 ) ) ;
#258 = ORIENTED_EDGE ( 'NONE', *, *, #185, .F. ) ;
#259 = FACE_OUTER_BOUND ( 'NONE', #111, .T. ) ;
#260 = EDGE_LOOP ( 'NONE', ( #308, #47, #67, #78 ) ) ;
#261 = DIRECTION ( 'NONE',  ( -1.232950076816922318E-16, 1.000000000000000000, -0.000000000000000000 ) ) ;
#262 = VECTOR ( 'NONE', #174, 39.37007874015748854 ) ;
#263 = CARTESIAN_POINT ( 'NONE',  ( 0.09374999999999987510, 2.000000000000000000, 1.148106374200642938E-17 ) ) ;
#264 = PRESENTATION_STYLE_ASSIGNMENT (( #183 ) ) ;
#265 = UNCERTAINTY_MEASURE_WITH_UNIT (LENGTH_MEASURE( 1.000000000000000082E-05 ), #176, 'distance_accuracy_value', 'NONE');
#266 = CARTESIAN_POINT ( 'NONE',  ( 4.205580141781306277E-36, -3.242522221119427958E-19, 0.000000000000000000 ) ) ;
#267 = UNCERTAINTY_MEASURE_WITH_UNIT (LENGTH_MEASURE( 1.000000000000000082E-05 ), #7, 'distance_accuracy_value', 'NONE');
#268 = EDGE_CURVE ( 'NONE', #182, #198, #211, .T. ) ;
#269 =( LENGTH_UNIT ( ) NAMED_UNIT ( * ) SI_UNIT ( $, .METRE. ) );
#270 = DIRECTION ( 'NONE',  ( -0.7071067811865486830, 0.7071067811865462405, 0.000000000000000000 ) ) ;
#271 = ORIENTED_EDGE ( 'NONE', *, *, #12, .F. ) ;
#272 = FACE_OUTER_BOUND ( 'NONE', #103, .T. ) ;
#273 = CONICAL_SURFACE ( 'NONE', #3, 0.02500000000000000139, 0.7853981633974500554 ) ;
#274 = FILL_AREA_STYLE_COLOUR ( '', #309 ) ;
#275 =( GEOMETRIC_REPRESENTATION_CONTEXT ( 3 ) GLOBAL_UNCERTAINTY_ASSIGNED_CONTEXT ( ( #208 ) ) GLOBAL_UNIT_ASSIGNED_CONTEXT ( ( #1, #195, #230 ) ) REPRESENTATION_CONTEXT ( 'NONE', 'WORKASPACE' ) );
#276 = LENGTH_MEASURE_WITH_UNIT ( LENGTH_MEASURE( 0.02539999999999999897 ), #209 );
#277 = CARTESIAN_POINT ( 'NONE',  ( 0.000000000000000000, 0.000000000000000000, 0.000000000000000000 ) ) ;
#278 =( LENGTH_UNIT ( ) NAMED_UNIT ( * ) SI_UNIT ( $, .METRE. ) );
#279 = STYLED_ITEM ( 'NONE', ( #173 ), #75 ) ;
#280 = SHAPE_DEFINITION_REPRESENTATION ( #175, #104 ) ;
#281 =( NAMED_UNIT ( * ) PLANE_ANGLE_UNIT ( ) SI_UNIT ( $, .RADIAN. ) );
#282 = PRODUCT_DEFINITION ( 'UNKNOWN', '', #171, #124 ) ;
#283 = DIRECTION ( 'NONE',  ( -1.000000000000000000, -9.106159978880894651E-17, 0.000000000000000000 ) ) ;
#284 =( CONVERSION_BASED_UNIT ( 'INCH', #36 ) LENGTH_UNIT ( ) NAMED_UNIT ( #128 ) );
#285 = FACE_OUTER_BOUND ( 'NONE', #11, .T. ) ;
#286 = DIMENSIONAL_EXPONENTS ( 1.000000000000000000, 0.000000000000000000, 0.000000000000000000, 0.000000000000000000, 0.000000000000000000, 0.000000000000000000, 0.000000000000000000 ) ;
#287 = CARTESIAN_POINT ( 'NONE',  ( -8.916936108078392579E-19, 0.06874999999999974187, 0.000000000000000000 ) ) ;
#288 = CYLINDRICAL_SURFACE ( 'NONE', #15, 0.09374999999999994449 ) ;
#289 = COLOUR_RGB ( '',1.000000000000000000, 0.000000000000000000, 0.000000000000000000 ) ;
#290 = PRESENTATION_LAYER_ASSIGNMENT (  '', '', ( #27 ) ) ;
#291 = SURFACE_SIDE_STYLE ('',( #156 ) ) ;
#292 = FILL_AREA_STYLE ('',( #138 ) ) ;
#293 = COLOUR_RGB ( '',0.7921568627450980005, 0.8196078431372548767, 0.9333333333333333481 ) ;
#294 = EDGE_CURVE ( 'NONE', #60, #19, #219, .T. ) ;
#295 = CARTESIAN_POINT ( 'NONE',  ( 0.02500000000000000139, 0.000000000000000000, 7.271340369937408974E-18 ) ) ;
#296 = PRESENTATION_LAYER_ASSIGNMENT (  '', '', ( #105 ) ) ;
#297 = DIRECTION ( 'NONE',  ( 1.297008888447770914E-17, -1.000000000000000000, -0.000000000000000000 ) ) ;
#298 = DIRECTION ( 'NONE',  ( 1.000000000000000000, 0.000000000000000000, 0.000000000000000000 ) ) ;
#299 = AXIS2_PLACEMENT_3D ( 'NONE', #150, #201, #253 ) ;
#300 = EDGE_CURVE ( 'NONE', #256, #60, #137, .T. ) ;
#301 = PRESENTATION_LAYER_ASSIGNMENT (  '', '', ( #70 ) ) ;
#302 = ORIENTED_EDGE ( 'NONE', *, *, #185, .T. ) ;
#303 =( NAMED_UNIT ( * ) PLANE_ANGLE_UNIT ( ) SI_UNIT ( $, .RADIAN. ) );
#304 = DIRECTION ( 'NONE',  ( 1.297008888447770914E-17, -1.000000000000000000, -0.000000000000000000 ) ) ;
#305 = CARTESIAN_POINT ( 'NONE',  ( 0.02500000000000000139, 0.000000000000000000, 3.061616997868383172E-18 ) ) ;
#306 = CARTESIAN_POINT ( 'NONE',  ( 4.205580141781306277E-36, -3.242522221119427958E-19, 0.000000000000000000 ) ) ;
#307 = AXIS2_PLACEMENT_3D ( 'NONE', #165, #5, #49 ) ;
#308 = ORIENTED_EDGE ( 'NONE', *, *, #217, .F. ) ;
#309 = COLOUR_RGB ( '',0.7921568627450980005, 0.8196078431372548767, 0.9333333333333333481 ) ;
ENDSEC;
END-ISO-10303-21;
