ISO-10303-21;
HEADER;
FILE_DESCRIPTION (( 'STEP AP214' ),
    '1' );
FILE_NAME ('82460.STEP',
    '2023-06-30T22:41:21',
    ( '' ),
    ( '' ),
    'SwSTEP 2.0',
    'SolidWorks 2023',
    '' );
FILE_SCHEMA (( 'AUTOMOTIVE_DESIGN' ));
ENDSEC;

DATA;
#1 = CARTESIAN_POINT ( 'NONE',  ( 2.452221597045684598E-16, 1.000000000000000000, 0.000000000000000000 ) ) ;
#2 = MANIFOLD_SOLID_BREP ( 'Revolve - Cutting Edge', #138 ) ;
#3 = CYLINDRICAL_SURFACE ( 'NONE', #364, 0.1562499999999999445 ) ;
#4 = EDGE_CURVE ( 'NONE', #227, #268, #42, .T. ) ;
#5 = AXIS2_PLACEMENT_3D ( 'NONE', #44, #196, #75 ) ;
#6 =( CONVERSION_BASED_UNIT ( 'INCH', #97 ) LENGTH_UNIT ( ) NAMED_UNIT ( #247 ) );
#7 = CARTESIAN_POINT ( 'NONE',  ( -6.123233995736772199E-17, 3.000000000000000444, 0.000000000000000000 ) ) ;
#8 = DIRECTION ( 'NONE',  ( 0.000000000000000000, 0.000000000000000000, -1.000000000000000000 ) ) ;
#9 = UNCERTAINTY_MEASURE_WITH_UNIT (LENGTH_MEASURE( 1.000000000000000082E-05 ), #297, 'distance_accuracy_value', 'NONE');
#10 =( NAMED_UNIT ( * ) SI_UNIT ( $, .STERADIAN. ) SOLID_ANGLE_UNIT ( ) );
#11 = DIRECTION ( 'NONE',  ( 0.000000000000000000, 0.000000000000000000, -1.000000000000000000 ) ) ;
#12 =( GEOMETRIC_REPRESENTATION_CONTEXT ( 3 ) GLOBAL_UNCERTAINTY_ASSIGNED_CONTEXT ( ( #208 ) ) GLOBAL_UNIT_ASSIGNED_CONTEXT ( ( #337, #105, #10 ) ) REPRESENTATION_CONTEXT ( 'NONE', 'WORKASPACE' ) );
#13 =( LENGTH_UNIT ( ) NAMED_UNIT ( * ) SI_UNIT ( $, .METRE. ) );
#14 = ORIENTED_EDGE ( 'NONE', *, *, #69, .T. ) ;
#15 = SURFACE_STYLE_USAGE ( .BOTH. , #308 ) ;
#16 = EDGE_CURVE ( 'NONE', #268, #227, #335, .T. ) ;
#17 = VERTEX_POINT ( 'NONE', #373 ) ;
#18 = CYLINDRICAL_SURFACE ( 'NONE', #341, 0.1562499999999999445 ) ;
#19 = SURFACE_STYLE_FILL_AREA ( #101 ) ;
#20 =( GEOMETRIC_REPRESENTATION_CONTEXT ( 3 ) GLOBAL_UNCERTAINTY_ASSIGNED_CONTEXT ( ( #256 ) ) GLOBAL_UNIT_ASSIGNED_CONTEXT ( ( #35, #349, #323 ) ) REPRESENTATION_CONTEXT ( 'NONE', 'WORKASPACE' ) );
#21 =( GEOMETRIC_REPRESENTATION_CONTEXT ( 3 ) GLOBAL_UNCERTAINTY_ASSIGNED_CONTEXT ( ( #9 ) ) GLOBAL_UNIT_ASSIGNED_CONTEXT ( ( #297, #353, #160 ) ) REPRESENTATION_CONTEXT ( 'NONE', 'WORKASPACE' ) );
#22 = EDGE_CURVE ( 'NONE', #130, #198, #137, .T. ) ;
#23 = CARTESIAN_POINT ( 'NONE',  ( 2.452221597045685091E-16, 1.000000000000000000, 0.000000000000000000 ) ) ;
#24 = VERTEX_POINT ( 'NONE', #108 ) ;
#25 = AXIS2_PLACEMENT_3D ( 'NONE', #81, #148, #28 ) ;
#26 = DIRECTION ( 'NONE',  ( 0.000000000000000000, 0.000000000000000000, 1.000000000000000000 ) ) ;
#27 = EDGE_CURVE ( 'NONE', #130, #344, #345, .T. ) ;
#28 = DIRECTION ( 'NONE',  ( 0.000000000000000000, 0.000000000000000000, -1.000000000000000000 ) ) ;
#29 = ORIENTED_EDGE ( 'NONE', *, *, #27, .T. ) ;
#30 = AXIS2_PLACEMENT_3D ( 'NONE', #7, #33, #90 ) ;
#31 = CARTESIAN_POINT ( 'NONE',  ( 0.1562499999999998612, 3.000000000000000444, 1.913510623667737923E-17 ) ) ;
#32 = PRODUCT_RELATED_PRODUCT_CATEGORY ( 'part', '', ( #274 ) ) ;
#33 = DIRECTION ( 'NONE',  ( -1.532272498309680909E-16, 1.000000000000000000, -0.000000000000000000 ) ) ;
#34 = CARTESIAN_POINT ( 'NONE',  ( 0.000000000000000000, 0.1562500000000000000, 0.000000000000000000 ) ) ;
#35 =( CONVERSION_BASED_UNIT ( 'INCH', #98 ) LENGTH_UNIT ( ) NAMED_UNIT ( #296 ) );
#36 = PRODUCT_DEFINITION_SHAPE ( 'NONE', 'NONE',  #56 ) ;
#37 = CARTESIAN_POINT ( 'NONE',  ( -0.1562499999999993894, 1.000000000000000000, 0.000000000000000000 ) ) ;
#38 = CARTESIAN_POINT ( 'NONE',  ( 0.1562499999999998612, 3.000000000000000444, 0.000000000000000000 ) ) ;
#39 = CARTESIAN_POINT ( 'NONE',  ( -1.913510623667738847E-17, 0.1562499999999999722, 0.000000000000000000 ) ) ;
#40 =( LENGTH_UNIT ( ) NAMED_UNIT ( * ) SI_UNIT ( $, .METRE. ) );
#41 = EDGE_LOOP ( 'NONE', ( #176, #240, #211, #319 ) ) ;
#42 = CIRCLE ( 'NONE', #25, 0.1562499999999998612 ) ;
#43 = CIRCLE ( 'NONE', #164, 0.1562499999999999722 ) ;
#44 = CARTESIAN_POINT ( 'NONE',  ( 2.452221597045685091E-16, 1.000000000000000000, 0.000000000000000000 ) ) ;
#45 = SURFACE_STYLE_FILL_AREA ( #298 ) ;
#46 = ADVANCED_FACE ( 'NONE', ( #238 ), #209, .T. ) ;
#47 = SURFACE_STYLE_FILL_AREA ( #82 ) ;
#48 = PRESENTATION_STYLE_ASSIGNMENT (( #257 ) ) ;
#49 =( CONVERSION_BASED_UNIT ( 'INCH', #87 ) LENGTH_UNIT ( ) NAMED_UNIT ( #219 ) );
#50 =( NAMED_UNIT ( * ) SI_UNIT ( $, .STERADIAN. ) SOLID_ANGLE_UNIT ( ) );
#51 = SURFACE_STYLE_USAGE ( .BOTH. , #174 ) ;
#52 =( GEOMETRIC_REPRESENTATION_CONTEXT ( 3 ) GLOBAL_UNCERTAINTY_ASSIGNED_CONTEXT ( ( #277 ) ) GLOBAL_UNIT_ASSIGNED_CONTEXT ( ( #226, #254, #334 ) ) REPRESENTATION_CONTEXT ( 'NONE', 'WORKASPACE' ) );
#53 = SURFACE_SIDE_STYLE ('',( #135 ) ) ;
#54 = CARTESIAN_POINT ( 'NONE',  ( -6.123233995736772199E-17, 3.000000000000000444, 0.000000000000000000 ) ) ;
#55 = AXIS2_PLACEMENT_3D ( 'NONE', #194, #214, #151 ) ;
#56 = PRODUCT_DEFINITION ( 'UNKNOWN', '', #290, #299 ) ;
#57 =( GEOMETRIC_REPRESENTATION_CONTEXT ( 3 ) GLOBAL_UNCERTAINTY_ASSIGNED_CONTEXT ( ( #60 ) ) GLOBAL_UNIT_ASSIGNED_CONTEXT ( ( #6, #248, #102 ) ) REPRESENTATION_CONTEXT ( 'NONE', 'WORKASPACE' ) );
#58 = DIMENSIONAL_EXPONENTS ( 1.000000000000000000, 0.000000000000000000, 0.000000000000000000, 0.000000000000000000, 0.000000000000000000, 0.000000000000000000, 0.000000000000000000 ) ;
#59 = DIRECTION ( 'NONE',  ( -1.000000000000000000, 0.000000000000000000, 0.000000000000000000 ) ) ;
#60 = UNCERTAINTY_MEASURE_WITH_UNIT (LENGTH_MEASURE( 1.000000000000000082E-05 ), #6, 'distance_accuracy_value', 'NONE');
#61 = CARTESIAN_POINT ( 'NONE',  ( -1.913510623667738847E-17, 0.1562499999999999722, 0.000000000000000000 ) ) ;
#62 = PRESENTATION_LAYER_ASSIGNMENT (  '', '', ( #70 ) ) ;
#63 = DIRECTION ( 'NONE',  ( -1.532272498309680909E-16, 1.000000000000000000, -0.000000000000000000 ) ) ;
#64 = DIRECTION ( 'NONE',  ( -0.000000000000000000, -1.000000000000000000, -0.000000000000000000 ) ) ;
#65 = DIRECTION ( 'NONE',  ( 0.000000000000000000, 0.000000000000000000, 1.000000000000000000 ) ) ;
#66 =( LENGTH_UNIT ( ) NAMED_UNIT ( * ) SI_UNIT ( $, .METRE. ) );
#67 = ORIENTED_EDGE ( 'NONE', *, *, #180, .T. ) ;
#68 = ORIENTED_EDGE ( 'NONE', *, *, #27, .F. ) ;
#69 = EDGE_CURVE ( 'NONE', #198, #333, #190, .T. ) ;
#70 = STYLED_ITEM ( 'NONE', ( #362 ), #217 ) ;
#71 = DIRECTION ( 'NONE',  ( 0.000000000000000000, 1.000000000000000000, 0.000000000000000000 ) ) ;
#72 = FACE_OUTER_BOUND ( 'NONE', #162, .T. ) ;
#73 = ORIENTED_EDGE ( 'NONE', *, *, #360, .T. ) ;
#74 =( LENGTH_UNIT ( ) NAMED_UNIT ( * ) SI_UNIT ( $, .METRE. ) );
#75 = DIRECTION ( 'NONE',  ( -1.000000000000000000, 0.000000000000000000, 0.000000000000000000 ) ) ;
#76 = ADVANCED_BREP_SHAPE_REPRESENTATION ( '82460', ( #2, #263, #330 ), #57 ) ;
#77 = COLOUR_RGB ( '',0.7921568627450980005, 0.8196078431372548767, 0.9333333333333333481 ) ;
#78 = VECTOR ( 'NONE', #287, 39.37007874015748143 ) ;
#79 = DIRECTION ( 'NONE',  ( -0.000000000000000000, -1.000000000000000000, -0.000000000000000000 ) ) ;
#80 = LENGTH_MEASURE_WITH_UNIT ( LENGTH_MEASURE( 0.02539999999999999897 ), #206 );
#81 = CARTESIAN_POINT ( 'NONE',  ( 0.000000000000000000, 1.000000000000000000, 0.000000000000000000 ) ) ;
#82 = FILL_AREA_STYLE ('',( #371 ) ) ;
#83 =( LENGTH_UNIT ( ) NAMED_UNIT ( * ) SI_UNIT ( $, .METRE. ) );
#84 =( NAMED_UNIT ( * ) PLANE_ANGLE_UNIT ( ) SI_UNIT ( $, .RADIAN. ) );
#85 = AXIS2_PLACEMENT_3D ( 'NONE', #23, #258, #342 ) ;
#86 = FILL_AREA_STYLE ('',( #171 ) ) ;
#87 = LENGTH_MEASURE_WITH_UNIT ( LENGTH_MEASURE( 0.02539999999999999897 ), #111 );
#88 = CARTESIAN_POINT ( 'NONE',  ( 0.000000000000000000, 0.000000000000000000, 0.000000000000000000 ) ) ;
#89 = EDGE_CURVE ( 'NONE', #317, #229, #267, .T. ) ;
#90 = DIRECTION ( 'NONE',  ( -1.000000000000000000, 0.000000000000000000, 0.000000000000000000 ) ) ;
#91 = COLOUR_RGB ( '',1.000000000000000000, 0.000000000000000000, 0.000000000000000000 ) ;
#92 =( GEOMETRIC_REPRESENTATION_CONTEXT ( 3 ) GLOBAL_UNCERTAINTY_ASSIGNED_CONTEXT ( ( #356 ) ) GLOBAL_UNIT_ASSIGNED_CONTEXT ( ( #239, #286, #370 ) ) REPRESENTATION_CONTEXT ( 'NONE', 'WORKASPACE' ) );
#93 = CARTESIAN_POINT ( 'NONE',  ( -0.1562500000000000000, 0.1562500000000000000, 1.913510623667738847E-17 ) ) ;
#94 = CARTESIAN_POINT ( 'NONE',  ( 1.913510623667738847E-17, 0.1562500000000000000, 0.1562499999999999722 ) ) ;
#95 = APPLICATION_PROTOCOL_DEFINITION ( 'draft international standard', 'automotive_design', 1998, #358 ) ;
#96 = FACE_OUTER_BOUND ( 'NONE', #234, .T. ) ;
#97 = LENGTH_MEASURE_WITH_UNIT ( LENGTH_MEASURE( 0.02539999999999999897 ), #74 );
#98 = LENGTH_MEASURE_WITH_UNIT ( LENGTH_MEASURE( 0.02539999999999999897 ), #40 );
#99 = COLOUR_RGB ( '',1.000000000000000000, 0.000000000000000000, 0.000000000000000000 ) ;
#100 = PRESENTATION_LAYER_ASSIGNMENT (  '', '', ( #310 ) ) ;
#101 = FILL_AREA_STYLE ('',( #167 ) ) ;
#102 =( NAMED_UNIT ( * ) SI_UNIT ( $, .STERADIAN. ) SOLID_ANGLE_UNIT ( ) );
#103 = CARTESIAN_POINT ( 'NONE',  ( 0.000000000000000000, 1.000000000000000000, 0.000000000000000000 ) ) ;
#104 = AXIS2_PLACEMENT_3D ( 'NONE', #204, #312, #129 ) ;
#105 =( NAMED_UNIT ( * ) PLANE_ANGLE_UNIT ( ) SI_UNIT ( $, .RADIAN. ) );
#106 = ORIENTED_EDGE ( 'NONE', *, *, #253, .T. ) ;
#107 = EDGE_LOOP ( 'NONE', ( #285, #29, #255, #165 ) ) ;
#108 = CARTESIAN_POINT ( 'NONE',  ( 0.1562499999999999722, 0.1562500000000000000, 0.000000000000000000 ) ) ;
#109 = VERTEX_POINT ( 'NONE', #94 ) ;
#110 = LENGTH_MEASURE_WITH_UNIT ( LENGTH_MEASURE( 0.02539999999999999897 ), #139 );
#111 =( LENGTH_UNIT ( ) NAMED_UNIT ( * ) SI_UNIT ( $, .METRE. ) );
#112 =( CONVERSION_BASED_UNIT ( 'INCH', #80 ) LENGTH_UNIT ( ) NAMED_UNIT ( #121 ) );
#113 = CARTESIAN_POINT ( 'NONE',  ( 0.1562499999999997224, 3.000000000000000444, 1.913510623667736998E-17 ) ) ;
#114 = STYLED_ITEM ( 'NONE', ( #143 ), #263 ) ;
#115 = AXIS2_PLACEMENT_3D ( 'NONE', #39, #65, #250 ) ;
#116 = ADVANCED_FACE ( 'NONE', ( #326 ), #218, .F. ) ;
#117 = FILL_AREA_STYLE_COLOUR ( '', #99 ) ;
#118 = DIRECTION ( 'NONE',  ( -1.000000000000000000, 0.000000000000000000, 0.000000000000000000 ) ) ;
#119 = LINE ( 'NONE', #188, #315 ) ;
#120 = AXIS2_PLACEMENT_3D ( 'NONE', #270, #224, #152 ) ;
#121 = DIMENSIONAL_EXPONENTS ( 1.000000000000000000, 0.000000000000000000, 0.000000000000000000, 0.000000000000000000, 0.000000000000000000, 0.000000000000000000, 0.000000000000000000 ) ;
#122 = DIRECTION ( 'NONE',  ( -1.000000000000000000, -1.532272498309680909E-16, 0.000000000000000000 ) ) ;
#123 = FACE_OUTER_BOUND ( 'NONE', #197, .T. ) ;
#124 = CARTESIAN_POINT ( 'NONE',  ( 0.000000000000000000, 0.1562500000000000000, 0.000000000000000000 ) ) ;
#125 = SURFACE_SIDE_STYLE ('',( #19 ) ) ;
#126 = PRESENTATION_LAYER_ASSIGNMENT (  '', '', ( #199 ) ) ;
#127 = CIRCLE ( 'NONE', #55, 0.1562500000000000000 ) ;
#128 = ADVANCED_FACE ( 'NONE', ( #182 ), #3, .T. ) ;
#129 = DIRECTION ( 'NONE',  ( 0.000000000000000000, 0.000000000000000000, -1.000000000000000000 ) ) ;
#130 = VERTEX_POINT ( 'NONE', #245 ) ;
#131 = ORIENTED_EDGE ( 'NONE', *, *, #4, .T. ) ;
#132 = DIRECTION ( 'NONE',  ( -0.000000000000000000, -1.000000000000000000, -0.000000000000000000 ) ) ;
#133 = COLOUR_RGB ( '',0.7921568627450980005, 0.8196078431372548767, 0.9333333333333333481 ) ;
#134 = EDGE_LOOP ( 'NONE', ( #106, #166, #292, #261 ) ) ;
#135 = SURFACE_STYLE_FILL_AREA ( #86 ) ;
#136 = ORIENTED_EDGE ( 'NONE', *, *, #16, .F. ) ;
#137 = LINE ( 'NONE', #113, #78 ) ;
#138 = CLOSED_SHELL ( 'NONE', ( #294, #128, #217, #233, #284 ) ) ;
#139 =( LENGTH_UNIT ( ) NAMED_UNIT ( * ) SI_UNIT ( $, .METRE. ) );
#140 = AXIS2_PLACEMENT_3D ( 'NONE', #103, #71, #232 ) ;
#141 = ORIENTED_EDGE ( 'NONE', *, *, #16, .T. ) ;
#142 = CIRCLE ( 'NONE', #177, 0.1562500000000000000 ) ;
#143 = PRESENTATION_STYLE_ASSIGNMENT (( #347 ) ) ;
#144 = ORIENTED_EDGE ( 'NONE', *, *, #352, .F. ) ;
#145 = DIRECTION ( 'NONE',  ( 1.000000000000000000, 0.000000000000000000, 0.000000000000000000 ) ) ;
#146 = CARTESIAN_POINT ( 'NONE',  ( 0.000000000000000000, 1.000000000000000000, 0.000000000000000000 ) ) ;
#147 = EDGE_CURVE ( 'NONE', #317, #17, #127, .T. ) ;
#148 = DIRECTION ( 'NONE',  ( -0.000000000000000000, -1.000000000000000000, -0.000000000000000000 ) ) ;
#149 = PRESENTATION_LAYER_ASSIGNMENT (  '', '', ( #175 ) ) ;
#150 = CIRCLE ( 'NONE', #184, 0.1562499999999999722 ) ;
#151 = DIRECTION ( 'NONE',  ( 1.000000000000000000, 0.000000000000000000, -1.224646799147353207E-16 ) ) ;
#152 = DIRECTION ( 'NONE',  ( 0.000000000000000000, 0.000000000000000000, -1.000000000000000000 ) ) ;
#153 = CARTESIAN_POINT ( 'NONE',  ( 0.000000000000000000, 0.000000000000000000, -0.1562499999999999445 ) ) ;
#154 = STYLED_ITEM ( 'NONE', ( #48 ), #294 ) ;
#155 = DIRECTION ( 'NONE',  ( -0.000000000000000000, -1.000000000000000000, -0.000000000000000000 ) ) ;
#156 = DIRECTION ( 'NONE',  ( -0.000000000000000000, -1.000000000000000000, -0.000000000000000000 ) ) ;
#157 = CARTESIAN_POINT ( 'NONE',  ( 0.000000000000000000, 0.000000000000000000, 0.000000000000000000 ) ) ;
#158 = DIRECTION ( 'NONE',  ( -1.532272498309680909E-16, 1.000000000000000000, 0.000000000000000000 ) ) ;
#159 = EDGE_CURVE ( 'NONE', #333, #198, #314, .T. ) ;
#160 =( NAMED_UNIT ( * ) SI_UNIT ( $, .STERADIAN. ) SOLID_ANGLE_UNIT ( ) );
#161 = CARTESIAN_POINT ( 'NONE',  ( 0.000000000000000000, 0.1562500000000000000, -0.1562499999999999722 ) ) ;
#162 = EDGE_LOOP ( 'NONE', ( #207, #141, #338, #281, #348 ) ) ;
#163 = AXIS2_PLACEMENT_3D ( 'NONE', #1, #158, #122 ) ;
#164 = AXIS2_PLACEMENT_3D ( 'NONE', #34, #155, #328 ) ;
#165 = ORIENTED_EDGE ( 'NONE', *, *, #69, .F. ) ;
#166 = ORIENTED_EDGE ( 'NONE', *, *, #22, .T. ) ;
#167 = FILL_AREA_STYLE_COLOUR ( '', #210 ) ;
#168 = AXIS2_PLACEMENT_3D ( 'NONE', #38, #273, #269 ) ;
#169 = COLOUR_RGB ( '',1.000000000000000000, 0.000000000000000000, 0.000000000000000000 ) ;
#170 = FACE_OUTER_BOUND ( 'NONE', #41, .T. ) ;
#171 = FILL_AREA_STYLE_COLOUR ( '', #243 ) ;
#172 =( NAMED_UNIT ( * ) SI_UNIT ( $, .STERADIAN. ) SOLID_ANGLE_UNIT ( ) );
#173 = SURFACE_STYLE_FILL_AREA ( #367 ) ;
#174 = SURFACE_SIDE_STYLE ('',( #47 ) ) ;
#175 = STYLED_ITEM ( 'NONE', ( #332 ), #233 ) ;
#176 = ORIENTED_EDGE ( 'NONE', *, *, #147, .F. ) ;
#177 = AXIS2_PLACEMENT_3D ( 'NONE', #61, #8, #186 ) ;
#178 = FILL_AREA_STYLE_COLOUR ( '', #133 ) ;
#179 = EDGE_LOOP ( 'NONE', ( #181, #68 ) ) ;
#180 = EDGE_CURVE ( 'NONE', #268, #109, #187, .T. ) ;
#181 = ORIENTED_EDGE ( 'NONE', *, *, #253, .F. ) ;
#182 = FACE_OUTER_BOUND ( 'NONE', #279, .T. ) ;
#183 = CIRCLE ( 'NONE', #5, 0.1562499999999996392 ) ;
#184 = AXIS2_PLACEMENT_3D ( 'NONE', #124, #325, #11 ) ;
#185 = FILL_AREA_STYLE_COLOUR ( '', #91 ) ;
#186 = DIRECTION ( 'NONE',  ( -1.000000000000000000, 0.000000000000000000, 0.000000000000000000 ) ) ;
#187 = LINE ( 'NONE', #295, #259 ) ;
#188 = CARTESIAN_POINT ( 'NONE',  ( -0.1562499999999998612, 3.000000000000000444, 0.000000000000000000 ) ) ;
#189 = LINE ( 'NONE', #153, #242 ) ;
#190 = CIRCLE ( 'NONE', #30, 0.1562499999999999445 ) ;
#191 =( GEOMETRIC_REPRESENTATION_CONTEXT ( 3 ) GLOBAL_UNCERTAINTY_ASSIGNED_CONTEXT ( ( #313 ) ) GLOBAL_UNIT_ASSIGNED_CONTEXT ( ( #49, #84, #172 ) ) REPRESENTATION_CONTEXT ( 'NONE', 'WORKASPACE' ) );
#192 =( GEOMETRIC_REPRESENTATION_CONTEXT ( 3 ) GLOBAL_UNCERTAINTY_ASSIGNED_CONTEXT ( ( #303 ) ) GLOBAL_UNIT_ASSIGNED_CONTEXT ( ( #112, #316, #50 ) ) REPRESENTATION_CONTEXT ( 'NONE', 'WORKASPACE' ) );
#193 = SHAPE_DEFINITION_REPRESENTATION ( #36, #76 ) ;
#194 = CARTESIAN_POINT ( 'NONE',  ( -1.913510623667738847E-17, 0.1562499999999999722, 0.000000000000000000 ) ) ;
#195 = EDGE_CURVE ( 'NONE', #227, #229, #189, .T. ) ;
#196 = DIRECTION ( 'NONE',  ( -1.532272498309680909E-16, 1.000000000000000000, -0.000000000000000000 ) ) ;
#197 = EDGE_LOOP ( 'NONE', ( #369, #136 ) ) ;
#198 = VERTEX_POINT ( 'NONE', #31 ) ;
#199 = STYLED_ITEM ( 'NONE', ( #368 ), #2 ) ;
#200 = ADVANCED_FACE ( 'NONE', ( #96 ), #301, .F. ) ;
#201 = CARTESIAN_POINT ( 'NONE',  ( 0.000000000000000000, 1.000000000000000000, -0.1562499999999998612 ) ) ;
#202 = LENGTH_MEASURE_WITH_UNIT ( LENGTH_MEASURE( 0.02539999999999999897 ), #13 );
#203 = ORIENTED_EDGE ( 'NONE', *, *, #331, .F. ) ;
#204 = CARTESIAN_POINT ( 'NONE',  ( 0.000000000000000000, 0.1562500000000000000, 0.000000000000000000 ) ) ;
#205 = MECHANICAL_DESIGN_GEOMETRIC_PRESENTATION_REPRESENTATION (  '', ( #236 ), #20 ) ;
#206 =( LENGTH_UNIT ( ) NAMED_UNIT ( * ) SI_UNIT ( $, .METRE. ) );
#207 = ORIENTED_EDGE ( 'NONE', *, *, #180, .F. ) ;
#208 = UNCERTAINTY_MEASURE_WITH_UNIT (LENGTH_MEASURE( 1.000000000000000082E-05 ), #337, 'distance_accuracy_value', 'NONE');
#209 = CYLINDRICAL_SURFACE ( 'NONE', #320, 0.1562499999999998057 ) ;
#210 = COLOUR_RGB ( '',1.000000000000000000, 0.000000000000000000, 0.000000000000000000 ) ;
#211 = ORIENTED_EDGE ( 'NONE', *, *, #262, .T. ) ;
#212 = DIMENSIONAL_EXPONENTS ( 1.000000000000000000, 0.000000000000000000, 0.000000000000000000, 0.000000000000000000, 0.000000000000000000, 0.000000000000000000, 0.000000000000000000 ) ;
#213 = PRESENTATION_STYLE_ASSIGNMENT (( #241 ) ) ;
#214 = DIRECTION ( 'NONE',  ( 1.224646799147353207E-16, -0.000000000000000000, 1.000000000000000000 ) ) ;
#215 = DIMENSIONAL_EXPONENTS ( 1.000000000000000000, 0.000000000000000000, 0.000000000000000000, 0.000000000000000000, 0.000000000000000000, 0.000000000000000000, 0.000000000000000000 ) ;
#216 = AXIS2_PLACEMENT_3D ( 'NONE', #54, #246, #59 ) ;
#217 = ADVANCED_FACE ( 'NONE', ( #123 ), #324, .T. ) ;
#218 = PLANE ( 'NONE',  #163 ) ;
#219 = DIMENSIONAL_EXPONENTS ( 1.000000000000000000, 0.000000000000000000, 0.000000000000000000, 0.000000000000000000, 0.000000000000000000, 0.000000000000000000, 0.000000000000000000 ) ;
#220 = CARTESIAN_POINT ( 'NONE',  ( -0.1562500000000000000, 3.000000000000000444, 0.000000000000000000 ) ) ;
#221 = DIRECTION ( 'NONE',  ( -1.532272498309680909E-16, 1.000000000000000000, -0.000000000000000000 ) ) ;
#222 = PRODUCT_CONTEXT ( 'NONE', #358, 'mechanical' ) ;
#223 = ADVANCED_FACE ( 'NONE', ( #252 ), #283, .T. ) ;
#224 = DIRECTION ( 'NONE',  ( -0.000000000000000000, -1.000000000000000000, -0.000000000000000000 ) ) ;
#225 = MECHANICAL_DESIGN_GEOMETRIC_PRESENTATION_REPRESENTATION (  '', ( #114 ), #92 ) ;
#226 =( CONVERSION_BASED_UNIT ( 'INCH', #202 ) LENGTH_UNIT ( ) NAMED_UNIT ( #215 ) );
#227 = VERTEX_POINT ( 'NONE', #201 ) ;
#228 = DIRECTION ( 'NONE',  ( -1.532272498309680909E-16, 1.000000000000000000, -0.000000000000000000 ) ) ;
#229 = VERTEX_POINT ( 'NONE', #161 ) ;
#230 = CARTESIAN_POINT ( 'NONE',  ( -6.123233995736772199E-17, 3.000000000000000444, 0.000000000000000000 ) ) ;
#231 = PRESENTATION_LAYER_ASSIGNMENT (  '', '', ( #236 ) ) ;
#232 = DIRECTION ( 'NONE',  ( 0.000000000000000000, -0.000000000000000000, 1.000000000000000000 ) ) ;
#233 = ADVANCED_FACE ( 'NONE', ( #72 ), #18, .T. ) ;
#234 = EDGE_LOOP ( 'NONE', ( #363, #14 ) ) ;
#235 = MECHANICAL_DESIGN_GEOMETRIC_PRESENTATION_REPRESENTATION (  '', ( #199 ), #191 ) ;
#236 = STYLED_ITEM ( 'NONE', ( #244 ), #128 ) ;
#237 = CARTESIAN_POINT ( 'NONE',  ( -1.913510623667738847E-17, 0.1562499999999999722, 0.000000000000000000 ) ) ;
#238 = FACE_OUTER_BOUND ( 'NONE', #134, .T. ) ;
#239 =( CONVERSION_BASED_UNIT ( 'INCH', #110 ) LENGTH_UNIT ( ) NAMED_UNIT ( #350 ) );
#240 = ORIENTED_EDGE ( 'NONE', *, *, #89, .T. ) ;
#241 = SURFACE_STYLE_USAGE ( .BOTH. , #372 ) ;
#242 = VECTOR ( 'NONE', #354, 39.37007874015748143 ) ;
#243 = COLOUR_RGB ( '',1.000000000000000000, 0.000000000000000000, 0.000000000000000000 ) ;
#244 = PRESENTATION_STYLE_ASSIGNMENT (( #271 ) ) ;
#245 = CARTESIAN_POINT ( 'NONE',  ( 0.1562499999999998612, 1.000000000000000000, 1.913510623667737923E-17 ) ) ;
#246 = DIRECTION ( 'NONE',  ( -1.532272498309680909E-16, 1.000000000000000000, -0.000000000000000000 ) ) ;
#247 = DIMENSIONAL_EXPONENTS ( 1.000000000000000000, 0.000000000000000000, 0.000000000000000000, 0.000000000000000000, 0.000000000000000000, 0.000000000000000000, 0.000000000000000000 ) ;
#248 =( NAMED_UNIT ( * ) PLANE_ANGLE_UNIT ( ) SI_UNIT ( $, .RADIAN. ) );
#249 = CLOSED_SHELL ( 'NONE', ( #46, #116, #223, #200 ) ) ;
#250 = DIRECTION ( 'NONE',  ( 1.000000000000000000, 0.000000000000000000, 0.000000000000000000 ) ) ;
#251 = FACE_OUTER_BOUND ( 'NONE', #340, .T. ) ;
#252 = FACE_OUTER_BOUND ( 'NONE', #107, .T. ) ;
#253 = EDGE_CURVE ( 'NONE', #344, #130, #183, .T. ) ;
#254 =( NAMED_UNIT ( * ) PLANE_ANGLE_UNIT ( ) SI_UNIT ( $, .RADIAN. ) );
#255 = ORIENTED_EDGE ( 'NONE', *, *, #307, .T. ) ;
#256 = UNCERTAINTY_MEASURE_WITH_UNIT (LENGTH_MEASURE( 1.000000000000000082E-05 ), #35, 'distance_accuracy_value', 'NONE');
#257 = SURFACE_STYLE_USAGE ( .BOTH. , #53 ) ;
#258 = DIRECTION ( 'NONE',  ( -1.532272498309680909E-16, 1.000000000000000000, -0.000000000000000000 ) ) ;
#259 = VECTOR ( 'NONE', #156, 39.37007874015748143 ) ;
#260 = MECHANICAL_DESIGN_GEOMETRIC_PRESENTATION_REPRESENTATION (  '', ( #154 ), #21 ) ;
#261 = ORIENTED_EDGE ( 'NONE', *, *, #307, .F. ) ;
#262 = EDGE_CURVE ( 'NONE', #229, #24, #272, .T. ) ;
#263 = MANIFOLD_SOLID_BREP ( 'Revolve - Tool Body (Straight Shanked)', #249 ) ;
#264 = ORIENTED_EDGE ( 'NONE', *, *, #262, .F. ) ;
#265 = LENGTH_MEASURE_WITH_UNIT ( LENGTH_MEASURE( 0.02539999999999999897 ), #83 );
#266 = DIRECTION ( 'NONE',  ( 0.000000000000000000, 0.000000000000000000, -1.000000000000000000 ) ) ;
#267 = CIRCLE ( 'NONE', #120, 0.1562499999999999722 ) ;
#268 = VERTEX_POINT ( 'NONE', #366 ) ;
#269 = DIRECTION ( 'NONE',  ( 1.000000000000000000, 1.532272498309680909E-16, 0.000000000000000000 ) ) ;
#270 = CARTESIAN_POINT ( 'NONE',  ( 0.000000000000000000, 0.1562500000000000000, 0.000000000000000000 ) ) ;
#271 = SURFACE_STYLE_USAGE ( .BOTH. , #300 ) ;
#272 = CIRCLE ( 'NONE', #104, 0.1562499999999999722 ) ;
#273 = DIRECTION ( 'NONE',  ( 1.532272498309680909E-16, -1.000000000000000000, 0.000000000000000000 ) ) ;
#274 = PRODUCT ( '82460', '82460', '', ( #222 ) ) ;
#275 = APPLICATION_PROTOCOL_DEFINITION ( 'draft international standard', 'automotive_design', 1998, #327 ) ;
#276 = LENGTH_MEASURE_WITH_UNIT ( LENGTH_MEASURE( 0.02539999999999999897 ), #66 );
#277 = UNCERTAINTY_MEASURE_WITH_UNIT (LENGTH_MEASURE( 1.000000000000000082E-05 ), #226, 'distance_accuracy_value', 'NONE');
#278 = SURFACE_STYLE_USAGE ( .BOTH. , #125 ) ;
#279 = EDGE_LOOP ( 'NONE', ( #131, #67, #203, #264, #306 ) ) ;
#280 = PRESENTATION_LAYER_ASSIGNMENT (  '', '', ( #154 ) ) ;
#281 = ORIENTED_EDGE ( 'NONE', *, *, #89, .F. ) ;
#282 = DIRECTION ( 'NONE',  ( -1.000000000000000000, 0.000000000000000000, 0.000000000000000000 ) ) ;
#283 = CYLINDRICAL_SURFACE ( 'NONE', #289, 0.1562499999999998057 ) ;
#284 = ADVANCED_FACE ( 'NONE', ( #170 ), #291, .T. ) ;
#285 = ORIENTED_EDGE ( 'NONE', *, *, #22, .F. ) ;
#286 =( NAMED_UNIT ( * ) PLANE_ANGLE_UNIT ( ) SI_UNIT ( $, .RADIAN. ) );
#287 = DIRECTION ( 'NONE',  ( -1.532272498309680909E-16, 1.000000000000000000, -0.000000000000000000 ) ) ;
#288 = CARTESIAN_POINT ( 'NONE',  ( -6.123233995736772199E-17, 3.000000000000000444, 0.000000000000000000 ) ) ;
#289 = AXIS2_PLACEMENT_3D ( 'NONE', #230, #228, #282 ) ;
#290 = PRODUCT_DEFINITION_FORMATION_WITH_SPECIFIED_SOURCE ( 'ANY', '', #274, .NOT_KNOWN. ) ;
#291 = SPHERICAL_SURFACE ( 'NONE', #361, 0.1562500000000000000 ) ;
#292 = ORIENTED_EDGE ( 'NONE', *, *, #159, .F. ) ;
#293 = ORIENTED_EDGE ( 'NONE', *, *, #331, .T. ) ;
#294 = ADVANCED_FACE ( 'NONE', ( #251 ), #339, .T. ) ;
#295 = CARTESIAN_POINT ( 'NONE',  ( 1.913510623667738539E-17, 0.000000000000000000, 0.1562499999999999445 ) ) ;
#296 = DIMENSIONAL_EXPONENTS ( 1.000000000000000000, 0.000000000000000000, 0.000000000000000000, 0.000000000000000000, 0.000000000000000000, 0.000000000000000000, 0.000000000000000000 ) ;
#297 =( CONVERSION_BASED_UNIT ( 'INCH', #265 ) LENGTH_UNIT ( ) NAMED_UNIT ( #58 ) );
#298 = FILL_AREA_STYLE ('',( #185 ) ) ;
#299 = PRODUCT_DEFINITION_CONTEXT ( 'detailed design', #327, 'design' ) ;
#300 = SURFACE_SIDE_STYLE ('',( #351 ) ) ;
#301 = PLANE ( 'NONE',  #168 ) ;
#302 = MECHANICAL_DESIGN_GEOMETRIC_PRESENTATION_REPRESENTATION (  '', ( #70 ), #12 ) ;
#303 = UNCERTAINTY_MEASURE_WITH_UNIT (LENGTH_MEASURE( 1.000000000000000082E-05 ), #112, 'distance_accuracy_value', 'NONE');
#304 = FILL_AREA_STYLE ('',( #117 ) ) ;
#305 = DIRECTION ( 'NONE',  ( 0.000000000000000000, 0.000000000000000000, 1.000000000000000000 ) ) ;
#306 = ORIENTED_EDGE ( 'NONE', *, *, #195, .F. ) ;
#307 = EDGE_CURVE ( 'NONE', #344, #333, #119, .T. ) ;
#308 = SURFACE_SIDE_STYLE ('',( #45 ) ) ;
#309 = ORIENTED_EDGE ( 'NONE', *, *, #147, .T. ) ;
#310 = STYLED_ITEM ( 'NONE', ( #213 ), #284 ) ;
#311 = DIRECTION ( 'NONE',  ( 0.000000000000000000, 0.000000000000000000, -1.000000000000000000 ) ) ;
#312 = DIRECTION ( 'NONE',  ( -0.000000000000000000, -1.000000000000000000, -0.000000000000000000 ) ) ;
#313 = UNCERTAINTY_MEASURE_WITH_UNIT (LENGTH_MEASURE( 1.000000000000000082E-05 ), #49, 'distance_accuracy_value', 'NONE');
#314 = CIRCLE ( 'NONE', #216, 0.1562499999999999445 ) ;
#315 = VECTOR ( 'NONE', #63, 39.37007874015748143 ) ;
#316 =( NAMED_UNIT ( * ) PLANE_ANGLE_UNIT ( ) SI_UNIT ( $, .RADIAN. ) );
#317 = VERTEX_POINT ( 'NONE', #93 ) ;
#318 = FILL_AREA_STYLE ('',( #178 ) ) ;
#319 = ORIENTED_EDGE ( 'NONE', *, *, #352, .T. ) ;
#320 = AXIS2_PLACEMENT_3D ( 'NONE', #288, #221, #118 ) ;
#321 = SURFACE_STYLE_FILL_AREA ( #318 ) ;
#322 = SURFACE_SIDE_STYLE ('',( #321 ) ) ;
#323 =( NAMED_UNIT ( * ) SI_UNIT ( $, .STERADIAN. ) SOLID_ANGLE_UNIT ( ) );
#324 = PLANE ( 'NONE',  #140 ) ;
#325 = DIRECTION ( 'NONE',  ( -0.000000000000000000, -1.000000000000000000, -0.000000000000000000 ) ) ;
#326 = FACE_OUTER_BOUND ( 'NONE', #179, .T. ) ;
#327 = APPLICATION_CONTEXT ( 'automotive_design' ) ;
#328 = DIRECTION ( 'NONE',  ( 0.000000000000000000, 0.000000000000000000, -1.000000000000000000 ) ) ;
#329 = PRESENTATION_LAYER_ASSIGNMENT (  '', '', ( #114 ) ) ;
#330 = AXIS2_PLACEMENT_3D ( 'NONE', #157, #305, #357 ) ;
#331 = EDGE_CURVE ( 'NONE', #24, #109, #150, .T. ) ;
#332 = PRESENTATION_STYLE_ASSIGNMENT (( #278 ) ) ;
#333 = VERTEX_POINT ( 'NONE', #220 ) ;
#334 =( NAMED_UNIT ( * ) SI_UNIT ( $, .STERADIAN. ) SOLID_ANGLE_UNIT ( ) );
#335 = CIRCLE ( 'NONE', #346, 0.1562499999999998612 ) ;
#336 = MECHANICAL_DESIGN_GEOMETRIC_PRESENTATION_REPRESENTATION (  '', ( #310 ), #192 ) ;
#337 =( CONVERSION_BASED_UNIT ( 'INCH', #276 ) LENGTH_UNIT ( ) NAMED_UNIT ( #212 ) );
#338 = ORIENTED_EDGE ( 'NONE', *, *, #195, .T. ) ;
#339 = SPHERICAL_SURFACE ( 'NONE', #115, 0.1562500000000000000 ) ;
#340 = EDGE_LOOP ( 'NONE', ( #73, #309, #144, #293 ) ) ;
#341 = AXIS2_PLACEMENT_3D ( 'NONE', #365, #132, #311 ) ;
#342 = DIRECTION ( 'NONE',  ( -1.000000000000000000, 0.000000000000000000, 0.000000000000000000 ) ) ;
#343 = FILL_AREA_STYLE_COLOUR ( '', #169 ) ;
#344 = VERTEX_POINT ( 'NONE', #37 ) ;
#345 = CIRCLE ( 'NONE', #85, 0.1562499999999996392 ) ;
#346 = AXIS2_PLACEMENT_3D ( 'NONE', #146, #79, #266 ) ;
#347 = SURFACE_STYLE_USAGE ( .BOTH. , #322 ) ;
#348 = ORIENTED_EDGE ( 'NONE', *, *, #360, .F. ) ;
#349 =( NAMED_UNIT ( * ) PLANE_ANGLE_UNIT ( ) SI_UNIT ( $, .RADIAN. ) );
#350 = DIMENSIONAL_EXPONENTS ( 1.000000000000000000, 0.000000000000000000, 0.000000000000000000, 0.000000000000000000, 0.000000000000000000, 0.000000000000000000, 0.000000000000000000 ) ;
#351 = SURFACE_STYLE_FILL_AREA ( #304 ) ;
#352 = EDGE_CURVE ( 'NONE', #24, #17, #142, .T. ) ;
#353 =( NAMED_UNIT ( * ) PLANE_ANGLE_UNIT ( ) SI_UNIT ( $, .RADIAN. ) );
#354 = DIRECTION ( 'NONE',  ( -0.000000000000000000, -1.000000000000000000, -0.000000000000000000 ) ) ;
#355 = DIRECTION ( 'NONE',  ( 0.000000000000000000, 0.000000000000000000, -1.000000000000000000 ) ) ;
#356 = UNCERTAINTY_MEASURE_WITH_UNIT (LENGTH_MEASURE( 1.000000000000000082E-05 ), #239, 'distance_accuracy_value', 'NONE');
#357 = DIRECTION ( 'NONE',  ( 1.000000000000000000, 0.000000000000000000, 0.000000000000000000 ) ) ;
#358 = APPLICATION_CONTEXT ( 'automotive_design' ) ;
#359 = MECHANICAL_DESIGN_GEOMETRIC_PRESENTATION_REPRESENTATION (  '', ( #175 ), #52 ) ;
#360 = EDGE_CURVE ( 'NONE', #109, #317, #43, .T. ) ;
#361 = AXIS2_PLACEMENT_3D ( 'NONE', #237, #26, #145 ) ;
#362 = PRESENTATION_STYLE_ASSIGNMENT (( #15 ) ) ;
#363 = ORIENTED_EDGE ( 'NONE', *, *, #159, .T. ) ;
#364 = AXIS2_PLACEMENT_3D ( 'NONE', #88, #64, #355 ) ;
#365 = CARTESIAN_POINT ( 'NONE',  ( 0.000000000000000000, 0.000000000000000000, 0.000000000000000000 ) ) ;
#366 = CARTESIAN_POINT ( 'NONE',  ( 1.913510623667738231E-17, 1.000000000000000000, 0.1562499999999998612 ) ) ;
#367 = FILL_AREA_STYLE ('',( #343 ) ) ;
#368 = PRESENTATION_STYLE_ASSIGNMENT (( #51 ) ) ;
#369 = ORIENTED_EDGE ( 'NONE', *, *, #4, .F. ) ;
#370 =( NAMED_UNIT ( * ) SI_UNIT ( $, .STERADIAN. ) SOLID_ANGLE_UNIT ( ) );
#371 = FILL_AREA_STYLE_COLOUR ( '', #77 ) ;
#372 = SURFACE_SIDE_STYLE ('',( #173 ) ) ;
#373 = CARTESIAN_POINT ( 'NONE',  ( -9.567553118338692694E-18, -3.414809992080329023E-17, 0.000000000000000000 ) ) ;
ENDSEC;
END-ISO-10303-21;
