ISO-10303-21;
HEADER;
FILE_DESCRIPTION (( 'STEP AP214' ),
    '1' );
FILE_NAME ('Micro_SME-010-2X.STEP',
    '2021-09-02T09:59:40',
    ( '' ),
    ( '' ),
    'SwSTEP 2.0',
    'SolidWorks 2020',
    '' );
FILE_SCHEMA (( 'AUTOMOTIVE_DESIGN' ));
ENDSEC;

DATA;
#1 = CIRCLE ( 'NONE', #205, 0.004995000000000000308 ) ;
#2 = DIRECTION ( 'NONE',  ( -0.0000000000000000000, -0.0000000000000000000, -1.000000000000000000 ) ) ;
#3 = PLANE ( 'NONE',  #86 ) ;
#4 = ADVANCED_BREP_SHAPE_REPRESENTATION ( 'Micro_SME-010-2X', ( #275, #148 ), #40 ) ;
#5 = CONICAL_SURFACE ( 'NONE', #178, 0.04750000000000064587, 0.7853981633974466137 ) ;
#6 = SURFACE_STYLE_USAGE ( .BOTH. , #56 ) ;
#7 = ADVANCED_FACE ( 'NONE', ( #266 ), #82, .T. ) ;
#8 =( LENGTH_UNIT ( ) NAMED_UNIT ( * ) SI_UNIT ( $, .METRE. ) );
#9 =( NAMED_UNIT ( * ) PLANE_ANGLE_UNIT ( ) SI_UNIT ( $, .RADIAN. ) );
#10 = ORIENTED_EDGE ( 'NONE', *, *, #255, .F. ) ;
#11 = AXIS2_PLACEMENT_3D ( 'NONE', #237, #55, #196 ) ;
#12 = DIRECTION ( 'NONE',  ( 0.0000000000000000000, 0.0000000000000000000, 1.000000000000000000 ) ) ;
#13 =( NAMED_UNIT ( * ) PLANE_ANGLE_UNIT ( ) SI_UNIT ( $, .RADIAN. ) );
#14 = CARTESIAN_POINT ( 'NONE',  ( 0.0000000000000000000, 0.0000000000000000000, 1.485000000000000764 ) ) ;
#15 = APPLICATION_PROTOCOL_DEFINITION ( 'draft international standard', 'automotive_design', 1998, #112 ) ;
#16 = EDGE_LOOP ( 'NONE', ( #181, #262 ) ) ;
#17 = CLOSED_SHELL ( 'NONE', ( #215, #242, #186, #135, #110, #7, #28, #54, #247, #231 ) ) ;
#18 = EDGE_LOOP ( 'NONE', ( #238, #285, #38, #200 ) ) ;
#19 = STYLED_ITEM ( 'NONE', ( #81 ), #275 ) ;
#20 =( NAMED_UNIT ( * ) PLANE_ANGLE_UNIT ( ) SI_UNIT ( $, .RADIAN. ) );
#21 = DIRECTION ( 'NONE',  ( 1.000000000000000000, 0.0000000000000000000, 0.0000000000000000000 ) ) ;
#22 =( NAMED_UNIT ( * ) SI_UNIT ( $, .STERADIAN. ) SOLID_ANGLE_UNIT ( ) );
#23 = CARTESIAN_POINT ( 'NONE',  ( 0.0000000000000000000, 0.0000000000000000000, 0.0000000000000000000 ) ) ;
#24 = DIRECTION ( 'NONE',  ( 0.0000000000000000000, 0.0000000000000000000, 1.000000000000000000 ) ) ;
#25 = APPLICATION_CONTEXT ( 'automotive_design' ) ;
#26 = FACE_OUTER_BOUND ( 'NONE', #18, .T. ) ;
#27 = PRESENTATION_LAYER_ASSIGNMENT (  '', '', ( #126 ) ) ;
#28 = ADVANCED_FACE ( 'NONE', ( #69 ), #5, .T. ) ;
#29 = ORIENTED_EDGE ( 'NONE', *, *, #276, .F. ) ;
#30 = AXIS2_PLACEMENT_3D ( 'NONE', #67, #12, #195 ) ;
#31 = CARTESIAN_POINT ( 'NONE',  ( 1.836970198721030365E-18, 0.0000000000000000000, 0.01499999999999999944 ) ) ;
#32 = DIRECTION ( 'NONE',  ( -1.224646799147353700E-16, -0.0000000000000000000, -1.000000000000000000 ) ) ;
#33 = DIRECTION ( 'NONE',  ( -0.1736481776669311916, 2.126576849575783316E-17, 0.9848077530122080203 ) ) ;
#34 = CIRCLE ( 'NONE', #191, 0.06250000000000002776 ) ;
#35 = VERTEX_POINT ( 'NONE', #128 ) ;
#36 = ORIENTED_EDGE ( 'NONE', *, *, #282, .T. ) ;
#37 = UNCERTAINTY_MEASURE_WITH_UNIT (LENGTH_MEASURE( 1.000000000000000082E-05 ), #232, 'distance_accuracy_value', 'NONE');
#38 = ORIENTED_EDGE ( 'NONE', *, *, #97, .T. ) ;
#39 = EDGE_CURVE ( 'NONE', #264, #198, #62, .T. ) ;
#40 =( GEOMETRIC_REPRESENTATION_CONTEXT ( 3 ) GLOBAL_UNCERTAINTY_ASSIGNED_CONTEXT ( ( #216 ) ) GLOBAL_UNIT_ASSIGNED_CONTEXT ( ( #127, #13, #263 ) ) REPRESENTATION_CONTEXT ( 'NONE', 'WORKASPACE' ) );
#41 = DIRECTION ( 'NONE',  ( 1.000000000000000000, 0.0000000000000000000, 0.0000000000000000000 ) ) ;
#42 = ORIENTED_EDGE ( 'NONE', *, *, #168, .F. ) ;
#43 = ORIENTED_EDGE ( 'NONE', *, *, #207, .F. ) ;
#44 = CARTESIAN_POINT ( 'NONE',  ( 0.0000000000000000000, 0.0000000000000000000, 1.500000000000000222 ) ) ;
#45 = CIRCLE ( 'NONE', #159, 0.04750000000000064587 ) ;
#46 = SURFACE_SIDE_STYLE ('',( #273 ) ) ;
#47 = CARTESIAN_POINT ( 'NONE',  ( -0.04750000000000064587, 0.0000000000000000000, 1.500000000000000222 ) ) ;
#48 = DIRECTION ( 'NONE',  ( -1.000000000000000000, 0.0000000000000000000, 0.0000000000000000000 ) ) ;
#49 = EDGE_CURVE ( 'NONE', #156, #198, #50, .T. ) ;
#50 = CIRCLE ( 'NONE', #291, 0.004995000000000000308 ) ;
#51 = DIRECTION ( 'NONE',  ( 1.224646799147353700E-16, 0.0000000000000000000, 1.000000000000000000 ) ) ;
#52 = MECHANICAL_DESIGN_GEOMETRIC_PRESENTATION_REPRESENTATION (  '', ( #19 ), #218 ) ;
#53 = LINE ( 'NONE', #93, #133 ) ;
#54 = ADVANCED_FACE ( 'NONE', ( #153 ), #233, .T. ) ;
#55 = DIRECTION ( 'NONE',  ( -1.224646799147353700E-16, -0.0000000000000000000, -1.000000000000000000 ) ) ;
#56 = SURFACE_SIDE_STYLE ('',( #194 ) ) ;
#57 = VECTOR ( 'NONE', #95, 39.37007874015748143 ) ;
#58 =( NAMED_UNIT ( * ) SI_UNIT ( $, .STERADIAN. ) SOLID_ANGLE_UNIT ( ) );
#59 = COLOUR_RGB ( '',0.7921568627450980005, 0.8196078431372548767, 0.9333333333333333481 ) ;
#60 = DIRECTION ( 'NONE',  ( -1.224646799147353700E-16, -0.0000000000000000000, -1.000000000000000000 ) ) ;
#61 = EDGE_CURVE ( 'NONE', #236, #294, #34, .T. ) ;
#62 = LINE ( 'NONE', #151, #139 ) ;
#63 = UNCERTAINTY_MEASURE_WITH_UNIT (LENGTH_MEASURE( 1.000000000000000082E-05 ), #292, 'distance_accuracy_value', 'NONE');
#64 = CARTESIAN_POINT ( 'NONE',  ( -0.004994999999999997706, 4.132876785422530884E-18, 0.01499999999999999944 ) ) ;
#65 = ORIENTED_EDGE ( 'NONE', *, *, #199, .F. ) ;
#66 = CIRCLE ( 'NONE', #142, 0.004995000000000000308 ) ;
#67 = CARTESIAN_POINT ( 'NONE',  ( 0.0000000000000000000, 0.0000000000000000000, 1.500000000000000222 ) ) ;
#68 = EDGE_LOOP ( 'NONE', ( #42, #43, #221, #87 ) ) ;
#69 = FACE_OUTER_BOUND ( 'NONE', #68, .T. ) ;
#70 = LINE ( 'NONE', #113, #71 ) ;
#71 = VECTOR ( 'NONE', #184, 39.37007874015748143 ) ;
#72 = CARTESIAN_POINT ( 'NONE',  ( 1.836970198721030365E-18, 0.0000000000000000000, 0.01499999999999999944 ) ) ;
#73 = CONICAL_SURFACE ( 'NONE', #227, 0.04750000000000064587, 0.7853981633974466137 ) ;
#74 = CARTESIAN_POINT ( 'NONE',  ( -0.06249999999999997918, 0.0000000000000000000, 0.3411270610371146539 ) ) ;
#75 = LINE ( 'NONE', #145, #187 ) ;
#76 = DIRECTION ( 'NONE',  ( -1.224646799147353700E-16, -0.0000000000000000000, -1.000000000000000000 ) ) ;
#77 = ORIENTED_EDGE ( 'NONE', *, *, #250, .T. ) ;
#78 = AXIS2_PLACEMENT_3D ( 'NONE', #176, #102, #41 ) ;
#79 = EDGE_CURVE ( 'NONE', #294, #236, #222, .T. ) ;
#80 = ORIENTED_EDGE ( 'NONE', *, *, #129, .F. ) ;
#81 = PRESENTATION_STYLE_ASSIGNMENT (( #6 ) ) ;
#82 = PLANE ( 'NONE',  #30 ) ;
#83 = DIMENSIONAL_EXPONENTS ( 1.000000000000000000, 0.0000000000000000000, 0.0000000000000000000, 0.0000000000000000000, 0.0000000000000000000, 0.0000000000000000000, 0.0000000000000000000 ) ;
#84 = ORIENTED_EDGE ( 'NONE', *, *, #168, .T. ) ;
#85 = DIRECTION ( 'NONE',  ( 1.000000000000000000, 0.0000000000000000000, 0.0000000000000000000 ) ) ;
#86 = AXIS2_PLACEMENT_3D ( 'NONE', #279, #206, #94 ) ;
#87 = ORIENTED_EDGE ( 'NONE', *, *, #61, .F. ) ;
#88 = ORIENTED_EDGE ( 'NONE', *, *, #276, .T. ) ;
#89 = DIRECTION ( 'NONE',  ( -1.000000000000000000, 0.0000000000000000000, 1.224646799147353700E-16 ) ) ;
#90 = SHAPE_DEFINITION_REPRESENTATION ( #144, #4 ) ;
#91 = CARTESIAN_POINT ( 'NONE',  ( 0.004995000000000000308, 6.117110761741029707E-19, 0.0000000000000000000 ) ) ;
#92 = DIRECTION ( 'NONE',  ( -0.0000000000000000000, -0.0000000000000000000, -1.000000000000000000 ) ) ;
#93 = CARTESIAN_POINT ( 'NONE',  ( 0.004995000000000002043, 0.0000000000000000000, 0.01499999999999999944 ) ) ;
#94 = DIRECTION ( 'NONE',  ( 1.000000000000000000, 0.0000000000000000000, -0.0000000000000000000 ) ) ;
#95 = DIRECTION ( 'NONE',  ( -1.224646799147353700E-16, -0.0000000000000000000, -1.000000000000000000 ) ) ;
#96 = CARTESIAN_POINT ( 'NONE',  ( 1.836970198721030365E-18, 0.0000000000000000000, 0.01499999999999999944 ) ) ;
#97 = EDGE_CURVE ( 'NONE', #294, #177, #141, .T. ) ;
#98 = FILL_AREA_STYLE_COLOUR ( '', #183 ) ;
#99 = CARTESIAN_POINT ( 'NONE',  ( 0.0000000000000000000, 0.0000000000000000000, 1.500000000000000222 ) ) ;
#100 = VECTOR ( 'NONE', #33, 39.37007874015747433 ) ;
#101 = LENGTH_MEASURE_WITH_UNIT ( LENGTH_MEASURE( 0.02539999999999999897 ), #8 );
#102 = DIRECTION ( 'NONE',  ( 1.224646799147353700E-16, 0.0000000000000000000, 1.000000000000000000 ) ) ;
#103 = CARTESIAN_POINT ( 'NONE',  ( 0.0000000000000000000, 0.0000000000000000000, 0.0000000000000000000 ) ) ;
#104 = EDGE_LOOP ( 'NONE', ( #288, #77, #107, #80 ) ) ;
#105 = APPLICATION_PROTOCOL_DEFINITION ( 'draft international standard', 'automotive_design', 1998, #25 ) ;
#106 = EDGE_LOOP ( 'NONE', ( #29, #192, #290, #120 ) ) ;
#107 = ORIENTED_EDGE ( 'NONE', *, *, #255, .T. ) ;
#108 = DIMENSIONAL_EXPONENTS ( 1.000000000000000000, 0.0000000000000000000, 0.0000000000000000000, 0.0000000000000000000, 0.0000000000000000000, 0.0000000000000000000, 0.0000000000000000000 ) ;
#109 = CARTESIAN_POINT ( 'NONE',  ( 7.491300114395985060E-35, 0.0000000000000000000, 6.117110761741031633E-19 ) ) ;
#110 = ADVANCED_FACE ( 'NONE', ( #26 ), #138, .T. ) ;
#111 = CARTESIAN_POINT ( 'NONE',  ( 0.0000000000000000000, 0.0000000000000000000, 1.500000000000000222 ) ) ;
#112 = APPLICATION_CONTEXT ( 'automotive_design' ) ;
#113 = CARTESIAN_POINT ( 'NONE',  ( 0.06250000000000002776, 7.654042494670959086E-18, 1.500000000000000222 ) ) ;
#114 = AXIS2_PLACEMENT_3D ( 'NONE', #103, #76, #122 ) ;
#115 = EDGE_CURVE ( 'NONE', #264, #260, #1, .T. ) ;
#116 = VECTOR ( 'NONE', #224, 39.37007874015748143 ) ;
#117 = DIRECTION ( 'NONE',  ( 1.000000000000000000, 0.0000000000000000000, 0.0000000000000000000 ) ) ;
#118 = FACE_OUTER_BOUND ( 'NONE', #269, .T. ) ;
#119 = CARTESIAN_POINT ( 'NONE',  ( 4.177601634016464477E-17, 0.0000000000000000000, 0.3411270610371146539 ) ) ;
#120 = ORIENTED_EDGE ( 'NONE', *, *, #49, .F. ) ;
#121 = AXIS2_PLACEMENT_3D ( 'NONE', #72, #51, #117 ) ;
#122 = DIRECTION ( 'NONE',  ( -1.000000000000000000, 0.0000000000000000000, 1.224646799147353700E-16 ) ) ;
#123 = EDGE_LOOP ( 'NONE', ( #244, #84, #124, #65 ) ) ;
#124 = ORIENTED_EDGE ( 'NONE', *, *, #79, .F. ) ;
#125 = DIRECTION ( 'NONE',  ( -1.224646799147353700E-16, -0.0000000000000000000, -1.000000000000000000 ) ) ;
#126 = STYLED_ITEM ( 'NONE', ( #161 ), #4 ) ;
#127 =( CONVERSION_BASED_UNIT ( 'INCH', #234 ) LENGTH_UNIT ( ) NAMED_UNIT ( #108 ) );
#128 = CARTESIAN_POINT ( 'NONE',  ( 0.06250000000000006939, 7.654042494670963708E-18, 0.3411270610371146539 ) ) ;
#129 = EDGE_CURVE ( 'NONE', #260, #35, #53, .T. ) ;
#130 = DIRECTION ( 'NONE',  ( -1.000000000000000000, 0.0000000000000000000, 1.224646799147353700E-16 ) ) ;
#131 = ORIENTED_EDGE ( 'NONE', *, *, #115, .T. ) ;
#132 = FILL_AREA_STYLE ('',( #136 ) ) ;
#133 = VECTOR ( 'NONE', #271, 39.37007874015748143 ) ;
#134 = DIRECTION ( 'NONE',  ( 0.0000000000000000000, 0.0000000000000000000, -1.000000000000000000 ) ) ;
#135 = ADVANCED_FACE ( 'NONE', ( #299 ), #246, .T. ) ;
#136 = FILL_AREA_STYLE_COLOUR ( '', #59 ) ;
#137 = FACE_OUTER_BOUND ( 'NONE', #123, .T. ) ;
#138 = CYLINDRICAL_SURFACE ( 'NONE', #154, 0.06250000000000002776 ) ;
#139 = VECTOR ( 'NONE', #125, 39.37007874015748143 ) ;
#140 = AXIS2_PLACEMENT_3D ( 'NONE', #119, #60, #171 ) ;
#141 = LINE ( 'NONE', #281, #116 ) ;
#142 = AXIS2_PLACEMENT_3D ( 'NONE', #109, #252, #89 ) ;
#143 = PRODUCT_DEFINITION ( 'UNKNOWN', '', #259, #239 ) ;
#144 = PRODUCT_DEFINITION_SHAPE ( 'NONE', 'NONE',  #143 ) ;
#145 = CARTESIAN_POINT ( 'NONE',  ( 0.04750000000000064587, 5.817072295950006528E-18, 1.500000000000000222 ) ) ;
#146 = FILL_AREA_STYLE ('',( #98 ) ) ;
#147 = LINE ( 'NONE', #150, #100 ) ;
#148 = AXIS2_PLACEMENT_3D ( 'NONE', #248, #24, #85 ) ;
#149 = LINE ( 'NONE', #284, #57 ) ;
#150 = CARTESIAN_POINT ( 'NONE',  ( -0.004994999999999997706, 6.117110761741029707E-19, 0.01499999999999999944 ) ) ;
#151 = CARTESIAN_POINT ( 'NONE',  ( -0.004995000000000000308, 0.0000000000000000000, 6.117110761741031633E-19 ) ) ;
#152 = CARTESIAN_POINT ( 'NONE',  ( 0.04750000000000064587, 6.735557395310483192E-18, 1.500000000000000222 ) ) ;
#153 = FACE_OUTER_BOUND ( 'NONE', #170, .T. ) ;
#154 = AXIS2_PLACEMENT_3D ( 'NONE', #201, #2, #226 ) ;
#155 = DIRECTION ( 'NONE',  ( -1.000000000000000000, 0.0000000000000000000, 0.0000000000000000000 ) ) ;
#156 = VERTEX_POINT ( 'NONE', #91 ) ;
#157 = DIRECTION ( 'NONE',  ( -1.224646799147353700E-16, -0.0000000000000000000, -1.000000000000000000 ) ) ;
#158 =( LENGTH_UNIT ( ) NAMED_UNIT ( * ) SI_UNIT ( $, .METRE. ) );
#159 = AXIS2_PLACEMENT_3D ( 'NONE', #111, #228, #182 ) ;
#160 = DIRECTION ( 'NONE',  ( 1.000000000000000000, 0.0000000000000000000, 0.0000000000000000000 ) ) ;
#161 = PRESENTATION_STYLE_ASSIGNMENT (( #265 ) ) ;
#162 = CARTESIAN_POINT ( 'NONE',  ( 0.0000000000000000000, 0.0000000000000000000, 1.500000000000000222 ) ) ;
#163 = CARTESIAN_POINT ( 'NONE',  ( -0.04750000000000064587, 0.0000000000000000000, 1.500000000000000222 ) ) ;
#164 = EDGE_CURVE ( 'NONE', #287, #240, #286, .T. ) ;
#165 = DIRECTION ( 'NONE',  ( 0.7071067811865462405, 8.659560562354916834E-17, -0.7071067811865486830 ) ) ;
#166 = CIRCLE ( 'NONE', #140, 0.06250000000000002776 ) ;
#167 = FACE_OUTER_BOUND ( 'NONE', #106, .T. ) ;
#168 = EDGE_CURVE ( 'NONE', #287, #236, #75, .T. ) ;
#169 = DIRECTION ( 'NONE',  ( -1.000000000000000000, 0.0000000000000000000, 0.0000000000000000000 ) ) ;
#170 = EDGE_LOOP ( 'NONE', ( #289, #268, #280, #36 ) ) ;
#171 = DIRECTION ( 'NONE',  ( 1.000000000000000000, 0.0000000000000000000, 0.0000000000000000000 ) ) ;
#172 = ORIENTED_EDGE ( 'NONE', *, *, #235, .T. ) ;
#173 = AXIS2_PLACEMENT_3D ( 'NONE', #162, #92, #48 ) ;
#174 = ORIENTED_EDGE ( 'NONE', *, *, #190, .F. ) ;
#175 = PRODUCT_RELATED_PRODUCT_CATEGORY ( 'part', '', ( #277 ) ) ;
#176 = CARTESIAN_POINT ( 'NONE',  ( 1.836970198721030365E-18, 0.0000000000000000000, 0.01499999999999999944 ) ) ;
#177 = VERTEX_POINT ( 'NONE', #74 ) ;
#178 = AXIS2_PLACEMENT_3D ( 'NONE', #99, #193, #155 ) ;
#179 = VECTOR ( 'NONE', #185, 39.37007874015748854 ) ;
#180 = EDGE_LOOP ( 'NONE', ( #214, #172, #10, #213 ) ) ;
#181 = ORIENTED_EDGE ( 'NONE', *, *, #207, .T. ) ;
#182 = DIRECTION ( 'NONE',  ( 1.000000000000000000, 0.0000000000000000000, 0.0000000000000000000 ) ) ;
#183 = COLOUR_RGB ( '',0.7921568627450980005, 0.8196078431372548767, 0.9333333333333333481 ) ;
#184 = DIRECTION ( 'NONE',  ( -0.0000000000000000000, -0.0000000000000000000, -1.000000000000000000 ) ) ;
#185 = DIRECTION ( 'NONE',  ( -0.7071067811865462405, 0.0000000000000000000, -0.7071067811865486830 ) ) ;
#186 = ADVANCED_FACE ( 'NONE', ( #137 ), #73, .T. ) ;
#187 = VECTOR ( 'NONE', #165, 39.37007874015748854 ) ;
#188 = CARTESIAN_POINT ( 'NONE',  ( 0.0000000000000000000, 0.0000000000000000000, 1.485000000000000764 ) ) ;
#189 = DIRECTION ( 'NONE',  ( -1.000000000000000000, 0.0000000000000000000, 0.0000000000000000000 ) ) ;
#190 = EDGE_CURVE ( 'NONE', #198, #156, #66, .T. ) ;
#191 = AXIS2_PLACEMENT_3D ( 'NONE', #14, #220, #21 ) ;
#192 = ORIENTED_EDGE ( 'NONE', *, *, #270, .T. ) ;
#193 = DIRECTION ( 'NONE',  ( 0.0000000000000000000, 0.0000000000000000000, -1.000000000000000000 ) ) ;
#194 = SURFACE_STYLE_FILL_AREA ( #146 ) ;
#195 = DIRECTION ( 'NONE',  ( 1.000000000000000000, 0.0000000000000000000, -0.0000000000000000000 ) ) ;
#196 = DIRECTION ( 'NONE',  ( 1.000000000000000000, 0.0000000000000000000, 0.0000000000000000000 ) ) ;
#197 = EDGE_LOOP ( 'NONE', ( #131, #88, #174, #211 ) ) ;
#198 = VERTEX_POINT ( 'NONE', #202 ) ;
#199 = EDGE_CURVE ( 'NONE', #240, #294, #283, .T. ) ;
#200 = ORIENTED_EDGE ( 'NONE', *, *, #282, .F. ) ;
#201 = CARTESIAN_POINT ( 'NONE',  ( 0.0000000000000000000, 0.0000000000000000000, 1.500000000000000222 ) ) ;
#202 = CARTESIAN_POINT ( 'NONE',  ( -0.004995000000000000308, 0.0000000000000000000, 1.223422152348206327E-18 ) ) ;
#203 = MECHANICAL_DESIGN_GEOMETRIC_PRESENTATION_REPRESENTATION (  '', ( #126 ), #278 ) ;
#204 = FACE_OUTER_BOUND ( 'NONE', #104, .T. ) ;
#205 = AXIS2_PLACEMENT_3D ( 'NONE', #31, #157, #189 ) ;
#206 = DIRECTION ( 'NONE',  ( 0.0000000000000000000, 0.0000000000000000000, 1.000000000000000000 ) ) ;
#207 = EDGE_CURVE ( 'NONE', #240, #287, #45, .T. ) ;
#208 = CYLINDRICAL_SURFACE ( 'NONE', #251, 0.004995000000000000308 ) ;
#209 =( LENGTH_UNIT ( ) NAMED_UNIT ( * ) SI_UNIT ( $, .METRE. ) );
#210 = AXIS2_PLACEMENT_3D ( 'NONE', #44, #295, #249 ) ;
#211 = ORIENTED_EDGE ( 'NONE', *, *, #39, .F. ) ;
#212 = CARTESIAN_POINT ( 'NONE',  ( 0.004995000000000002043, 0.0000000000000000000, 0.01499999999999999944 ) ) ;
#213 = ORIENTED_EDGE ( 'NONE', *, *, #97, .F. ) ;
#214 = ORIENTED_EDGE ( 'NONE', *, *, #79, .T. ) ;
#215 = ADVANCED_FACE ( 'NONE', ( #297 ), #208, .T. ) ;
#216 = UNCERTAINTY_MEASURE_WITH_UNIT (LENGTH_MEASURE( 1.000000000000000082E-05 ), #127, 'distance_accuracy_value', 'NONE');
#217 = CARTESIAN_POINT ( 'NONE',  ( 7.491300114395985060E-35, 0.0000000000000000000, 6.117110761741031633E-19 ) ) ;
#218 =( GEOMETRIC_REPRESENTATION_CONTEXT ( 3 ) GLOBAL_UNCERTAINTY_ASSIGNED_CONTEXT ( ( #37 ) ) GLOBAL_UNIT_ASSIGNED_CONTEXT ( ( #232, #9, #58 ) ) REPRESENTATION_CONTEXT ( 'NONE', 'WORKASPACE' ) );
#219 = ORIENTED_EDGE ( 'NONE', *, *, #49, .T. ) ;
#220 = DIRECTION ( 'NONE',  ( 0.0000000000000000000, 0.0000000000000000000, -1.000000000000000000 ) ) ;
#221 = ORIENTED_EDGE ( 'NONE', *, *, #199, .T. ) ;
#222 = CIRCLE ( 'NONE', #254, 0.06250000000000002776 ) ;
#223 = LENGTH_MEASURE_WITH_UNIT ( LENGTH_MEASURE( 0.02539999999999999897 ), #158 );
#224 = DIRECTION ( 'NONE',  ( -0.0000000000000000000, -0.0000000000000000000, -1.000000000000000000 ) ) ;
#225 = CARTESIAN_POINT ( 'NONE',  ( 0.06250000000000002776, 7.654042494670959086E-18, 1.485000000000000764 ) ) ;
#226 = DIRECTION ( 'NONE',  ( -1.000000000000000000, 0.0000000000000000000, 0.0000000000000000000 ) ) ;
#227 = AXIS2_PLACEMENT_3D ( 'NONE', #230, #274, #253 ) ;
#228 = DIRECTION ( 'NONE',  ( 0.0000000000000000000, 0.0000000000000000000, 1.000000000000000000 ) ) ;
#229 = CONICAL_SURFACE ( 'NONE', #121, 0.004995000000000000308, 0.1745329251994338915 ) ;
#230 = CARTESIAN_POINT ( 'NONE',  ( 0.0000000000000000000, 0.0000000000000000000, 1.500000000000000222 ) ) ;
#231 = ADVANCED_FACE ( 'NONE', ( #118 ), #3, .F. ) ;
#232 =( CONVERSION_BASED_UNIT ( 'INCH', #101 ) LENGTH_UNIT ( ) NAMED_UNIT ( #293 ) );
#233 = CONICAL_SURFACE ( 'NONE', #78, 0.004995000000000000308, 0.1745329251994338915 ) ;
#234 = LENGTH_MEASURE_WITH_UNIT ( LENGTH_MEASURE( 0.02539999999999999897 ), #209 );
#235 = EDGE_CURVE ( 'NONE', #236, #35, #70, .T. ) ;
#236 = VERTEX_POINT ( 'NONE', #225 ) ;
#237 = CARTESIAN_POINT ( 'NONE',  ( 4.177601634016464477E-17, 0.0000000000000000000, 0.3411270610371146539 ) ) ;
#238 = ORIENTED_EDGE ( 'NONE', *, *, #235, .F. ) ;
#239 = PRODUCT_DEFINITION_CONTEXT ( 'detailed design', #112, 'design' ) ;
#240 = VERTEX_POINT ( 'NONE', #163 ) ;
#241 = PRESENTATION_LAYER_ASSIGNMENT (  '', '', ( #19 ) ) ;
#242 = ADVANCED_FACE ( 'NONE', ( #204 ), #229, .T. ) ;
#243 = DIRECTION ( 'NONE',  ( -1.224646799147353700E-16, -0.0000000000000000000, -1.000000000000000000 ) ) ;
#244 = ORIENTED_EDGE ( 'NONE', *, *, #164, .F. ) ;
#245 = DIRECTION ( 'NONE',  ( -1.000000000000000000, 0.0000000000000000000, 1.224646799147353700E-16 ) ) ;
#246 = CYLINDRICAL_SURFACE ( 'NONE', #173, 0.06250000000000002776 ) ;
#247 = ADVANCED_FACE ( 'NONE', ( #167 ), #256, .T. ) ;
#248 = CARTESIAN_POINT ( 'NONE',  ( 0.0000000000000000000, 0.0000000000000000000, 0.0000000000000000000 ) ) ;
#249 = DIRECTION ( 'NONE',  ( 1.000000000000000000, 0.0000000000000000000, 0.0000000000000000000 ) ) ;
#250 = EDGE_CURVE ( 'NONE', #264, #177, #147, .T. ) ;
#251 = AXIS2_PLACEMENT_3D ( 'NONE', #23, #32, #245 ) ;
#252 = DIRECTION ( 'NONE',  ( -1.224646799147353700E-16, -0.0000000000000000000, -1.000000000000000000 ) ) ;
#253 = DIRECTION ( 'NONE',  ( -1.000000000000000000, 0.0000000000000000000, 0.0000000000000000000 ) ) ;
#254 = AXIS2_PLACEMENT_3D ( 'NONE', #188, #134, #160 ) ;
#255 = EDGE_CURVE ( 'NONE', #177, #35, #272, .T. ) ;
#256 = CYLINDRICAL_SURFACE ( 'NONE', #114, 0.004995000000000000308 ) ;
#257 = ORIENTED_EDGE ( 'NONE', *, *, #190, .T. ) ;
#258 = CARTESIAN_POINT ( 'NONE',  ( -0.06250000000000002776, 0.0000000000000000000, 1.485000000000000764 ) ) ;
#259 = PRODUCT_DEFINITION_FORMATION_WITH_SPECIFIED_SOURCE ( 'ANY', '', #277, .NOT_KNOWN. ) ;
#260 = VERTEX_POINT ( 'NONE', #212 ) ;
#261 = DIRECTION ( 'NONE',  ( -1.224646799147353700E-16, -0.0000000000000000000, -1.000000000000000000 ) ) ;
#262 = ORIENTED_EDGE ( 'NONE', *, *, #164, .T. ) ;
#263 =( NAMED_UNIT ( * ) SI_UNIT ( $, .STERADIAN. ) SOLID_ANGLE_UNIT ( ) );
#264 = VERTEX_POINT ( 'NONE', #64 ) ;
#265 = SURFACE_STYLE_USAGE ( .BOTH. , #46 ) ;
#266 = FACE_OUTER_BOUND ( 'NONE', #16, .T. ) ;
#267 = AXIS2_PLACEMENT_3D ( 'NONE', #96, #261, #169 ) ;
#268 = ORIENTED_EDGE ( 'NONE', *, *, #270, .F. ) ;
#269 = EDGE_LOOP ( 'NONE', ( #257, #219 ) ) ;
#270 = EDGE_CURVE ( 'NONE', #260, #264, #298, .T. ) ;
#271 = DIRECTION ( 'NONE',  ( 0.1736481776669313859, 0.0000000000000000000, 0.9848077530122077983 ) ) ;
#272 = CIRCLE ( 'NONE', #11, 0.06250000000000002776 ) ;
#273 = SURFACE_STYLE_FILL_AREA ( #132 ) ;
#274 = DIRECTION ( 'NONE',  ( 0.0000000000000000000, 0.0000000000000000000, -1.000000000000000000 ) ) ;
#275 = MANIFOLD_SOLID_BREP ( 'Cut-Revolve1', #17 ) ;
#276 = EDGE_CURVE ( 'NONE', #260, #156, #149, .T. ) ;
#277 = PRODUCT ( 'Micro_SME-010-2X', 'Micro_SME-010-2X', '', ( #296 ) ) ;
#278 =( GEOMETRIC_REPRESENTATION_CONTEXT ( 3 ) GLOBAL_UNCERTAINTY_ASSIGNED_CONTEXT ( ( #63 ) ) GLOBAL_UNIT_ASSIGNED_CONTEXT ( ( #292, #20, #22 ) ) REPRESENTATION_CONTEXT ( 'NONE', 'WORKASPACE' ) );
#279 = CARTESIAN_POINT ( 'NONE',  ( 0.0000000000000000000, 0.0000000000000000000, 0.0000000000000000000 ) ) ;
#280 = ORIENTED_EDGE ( 'NONE', *, *, #129, .T. ) ;
#281 = CARTESIAN_POINT ( 'NONE',  ( -0.06250000000000002776, 0.0000000000000000000, 1.500000000000000222 ) ) ;
#282 = EDGE_CURVE ( 'NONE', #35, #177, #166, .T. ) ;
#283 = LINE ( 'NONE', #47, #179 ) ;
#284 = CARTESIAN_POINT ( 'NONE',  ( 0.004995000000000000308, 6.117110761741029707E-19, -6.117110761741031633E-19 ) ) ;
#285 = ORIENTED_EDGE ( 'NONE', *, *, #61, .T. ) ;
#286 = CIRCLE ( 'NONE', #210, 0.04750000000000064587 ) ;
#287 = VERTEX_POINT ( 'NONE', #152 ) ;
#288 = ORIENTED_EDGE ( 'NONE', *, *, #115, .F. ) ;
#289 = ORIENTED_EDGE ( 'NONE', *, *, #250, .F. ) ;
#290 = ORIENTED_EDGE ( 'NONE', *, *, #39, .T. ) ;
#291 = AXIS2_PLACEMENT_3D ( 'NONE', #217, #243, #130 ) ;
#292 =( CONVERSION_BASED_UNIT ( 'INCH', #223 ) LENGTH_UNIT ( ) NAMED_UNIT ( #83 ) );
#293 = DIMENSIONAL_EXPONENTS ( 1.000000000000000000, 0.0000000000000000000, 0.0000000000000000000, 0.0000000000000000000, 0.0000000000000000000, 0.0000000000000000000, 0.0000000000000000000 ) ;
#294 = VERTEX_POINT ( 'NONE', #258 ) ;
#295 = DIRECTION ( 'NONE',  ( 0.0000000000000000000, 0.0000000000000000000, 1.000000000000000000 ) ) ;
#296 = PRODUCT_CONTEXT ( 'NONE', #25, 'mechanical' ) ;
#297 = FACE_OUTER_BOUND ( 'NONE', #197, .T. ) ;
#298 = CIRCLE ( 'NONE', #267, 0.004995000000000000308 ) ;
#299 = FACE_OUTER_BOUND ( 'NONE', #180, .T. ) ;
ENDSEC;
END-ISO-10303-21;
