ISO-10303-21;
HEADER;
FILE_DESCRIPTION (( 'STEP AP214' ),
    '1' );
FILE_NAME ('59453.STEP',
    '2023-06-30T22:20:37',
    ( '' ),
    ( '' ),
    'SwSTEP 2.0',
    'SolidWorks 2023',
    '' );
FILE_SCHEMA (( 'AUTOMOTIVE_DESIGN' ));
ENDSEC;

DATA;
#1 = LENGTH_MEASURE_WITH_UNIT ( LENGTH_MEASURE( 0.02539999999999999897 ), #28 );
#2 = AXIS2_PLACEMENT_3D ( 'NONE', #80, #367, #366 ) ;
#3 = AXIS2_PLACEMENT_3D ( 'NONE', #105, #50, #249 ) ;
#4 = SURFACE_SIDE_STYLE ('',( #136 ) ) ;
#5 = FACE_OUTER_BOUND ( 'NONE', #238, .T. ) ;
#6 = APPLICATION_PROTOCOL_DEFINITION ( 'draft international standard', 'automotive_design', 1998, #233 ) ;
#7 = SURFACE_STYLE_FILL_AREA ( #297 ) ;
#8 = EDGE_LOOP ( 'NONE', ( #127, #269 ) ) ;
#9 = AXIS2_PLACEMENT_3D ( 'NONE', #22, #365, #222 ) ;
#10 = VECTOR ( 'NONE', #29, 39.37007874015748143 ) ;
#11 = ORIENTED_EDGE ( 'NONE', *, *, #336, .F. ) ;
#12 = EDGE_LOOP ( 'NONE', ( #181, #41, #237, #74, #149 ) ) ;
#13 = DIRECTION ( 'NONE',  ( 1.000000000000000000, 1.551219278919980663E-16, 0.000000000000000000 ) ) ;
#14 = EDGE_CURVE ( 'NONE', #43, #354, #101, .T. ) ;
#15 = ORIENTED_EDGE ( 'NONE', *, *, #336, .T. ) ;
#16 = STYLED_ITEM ( 'NONE', ( #23 ), #54 ) ;
#17 = VECTOR ( 'NONE', #39, 39.37007874015748143 ) ;
#18 =( NAMED_UNIT ( * ) PLANE_ANGLE_UNIT ( ) SI_UNIT ( $, .RADIAN. ) );
#19 = ORIENTED_EDGE ( 'NONE', *, *, #206, .F. ) ;
#20 = LENGTH_MEASURE_WITH_UNIT ( LENGTH_MEASURE( 0.02539999999999999897 ), #173 );
#21 = PRODUCT_DEFINITION_CONTEXT ( 'detailed design', #226, 'design' ) ;
#22 = CARTESIAN_POINT ( 'NONE',  ( 2.296212748401287479E-16, 1.625000000000000000, 0.000000000000000000 ) ) ;
#23 = PRESENTATION_STYLE_ASSIGNMENT (( #102 ) ) ;
#24 = DIRECTION ( 'NONE',  ( 0.000000000000000000, 0.000000000000000000, 1.000000000000000000 ) ) ;
#25 = CIRCLE ( 'NONE', #9, 0.3124999999999996114 ) ;
#26 = CYLINDRICAL_SURFACE ( 'NONE', #81, 0.3124999999999997224 ) ;
#27 = DIRECTION ( 'NONE',  ( 0.000000000000000000, 0.000000000000000000, -1.000000000000000000 ) ) ;
#28 =( LENGTH_UNIT ( ) NAMED_UNIT ( * ) SI_UNIT ( $, .METRE. ) );
#29 = DIRECTION ( 'NONE',  ( -0.000000000000000000, -1.000000000000000000, -0.000000000000000000 ) ) ;
#30 = SURFACE_SIDE_STYLE ('',( #261 ) ) ;
#31 =( NAMED_UNIT ( * ) PLANE_ANGLE_UNIT ( ) SI_UNIT ( $, .RADIAN. ) );
#32 = STYLED_ITEM ( 'NONE', ( #61 ), #64 ) ;
#33 = DIRECTION ( 'NONE',  ( -1.551219278919980663E-16, 1.000000000000000000, -0.000000000000000000 ) ) ;
#34 = FACE_OUTER_BOUND ( 'NONE', #215, .T. ) ;
#35 =( CONVERSION_BASED_UNIT ( 'INCH', #320 ) LENGTH_UNIT ( ) NAMED_UNIT ( #178 ) );
#36 = EDGE_CURVE ( 'NONE', #354, #241, #171, .T. ) ;
#37 = FILL_AREA_STYLE_COLOUR ( '', #139 ) ;
#38 = VERTEX_POINT ( 'NONE', #284 ) ;
#39 = DIRECTION ( 'NONE',  ( -1.551219278919980663E-16, 1.000000000000000000, -0.000000000000000000 ) ) ;
#40 = MECHANICAL_DESIGN_GEOMETRIC_PRESENTATION_REPRESENTATION (  '', ( #65 ), #350 ) ;
#41 = ORIENTED_EDGE ( 'NONE', *, *, #259, .T. ) ;
#42 = DIRECTION ( 'NONE',  ( 1.551219278919980663E-16, -1.000000000000000000, 0.000000000000000000 ) ) ;
#43 = VERTEX_POINT ( 'NONE', #106 ) ;
#44 = ORIENTED_EDGE ( 'NONE', *, *, #206, .T. ) ;
#45 = CARTESIAN_POINT ( 'NONE',  ( 0.000000000000000000, 0.000000000000000000, 0.000000000000000000 ) ) ;
#46 = EDGE_LOOP ( 'NONE', ( #147, #73, #130, #99 ) ) ;
#47 =( NAMED_UNIT ( * ) PLANE_ANGLE_UNIT ( ) SI_UNIT ( $, .RADIAN. ) );
#48 = UNCERTAINTY_MEASURE_WITH_UNIT (LENGTH_MEASURE( 1.000000000000000082E-05 ), #86, 'distance_accuracy_value', 'NONE');
#49 = MANIFOLD_SOLID_BREP ( 'Revolve - Cutting Edge', #132 ) ;
#50 = DIRECTION ( 'NONE',  ( 1.224646799147353207E-16, -0.000000000000000000, 1.000000000000000000 ) ) ;
#51 = UNCERTAINTY_MEASURE_WITH_UNIT (LENGTH_MEASURE( 1.000000000000000082E-05 ), #184, 'distance_accuracy_value', 'NONE');
#52 = AXIS2_PLACEMENT_3D ( 'NONE', #97, #212, #79 ) ;
#53 = FACE_OUTER_BOUND ( 'NONE', #8, .T. ) ;
#54 = ADVANCED_FACE ( 'NONE', ( #53 ), #152, .T. ) ;
#55 = SURFACE_STYLE_USAGE ( .BOTH. , #108 ) ;
#56 = DIRECTION ( 'NONE',  ( 0.000000000000000000, 0.000000000000000000, 1.000000000000000000 ) ) ;
#57 = FACE_OUTER_BOUND ( 'NONE', #96, .T. ) ;
#58 = DIRECTION ( 'NONE',  ( 0.000000000000000000, 0.000000000000000000, -1.000000000000000000 ) ) ;
#59 = LENGTH_MEASURE_WITH_UNIT ( LENGTH_MEASURE( 0.02539999999999999897 ), #260 );
#60 = PRESENTATION_LAYER_ASSIGNMENT (  '', '', ( #32 ) ) ;
#61 = PRESENTATION_STYLE_ASSIGNMENT (( #137 ) ) ;
#62 = EDGE_CURVE ( 'NONE', #306, #43, #25, .T. ) ;
#63 = FILL_AREA_STYLE_COLOUR ( '', #371 ) ;
#64 = ADVANCED_FACE ( 'NONE', ( #341 ), #193, .T. ) ;
#65 = STYLED_ITEM ( 'NONE', ( #217 ), #75 ) ;
#66 = VECTOR ( 'NONE', #304, 39.37007874015748143 ) ;
#67 =( CONVERSION_BASED_UNIT ( 'INCH', #1 ) LENGTH_UNIT ( ) NAMED_UNIT ( #143 ) );
#68 = VERTEX_POINT ( 'NONE', #314 ) ;
#69 = CLOSED_SHELL ( 'NONE', ( #83, #309, #115, #232 ) ) ;
#70 =( GEOMETRIC_REPRESENTATION_CONTEXT ( 3 ) GLOBAL_UNCERTAINTY_ASSIGNED_CONTEXT ( ( #51 ) ) GLOBAL_UNIT_ASSIGNED_CONTEXT ( ( #184, #18, #239 ) ) REPRESENTATION_CONTEXT ( 'NONE', 'WORKASPACE' ) );
#71 = ORIENTED_EDGE ( 'NONE', *, *, #62, .F. ) ;
#72 = CARTESIAN_POINT ( 'NONE',  ( -1.913510623667739463E-17, 0.000000000000000000, 0.000000000000000000 ) ) ;
#73 = ORIENTED_EDGE ( 'NONE', *, *, #134, .T. ) ;
#74 = ORIENTED_EDGE ( 'NONE', *, *, #155, .F. ) ;
#75 = ADVANCED_FACE ( 'NONE', ( #57 ), #203, .T. ) ;
#76 = SURFACE_STYLE_FILL_AREA ( #338 ) ;
#77 = CARTESIAN_POINT ( 'NONE',  ( 3.827021247335476461E-17, 1.625000000000000000, 0.3124999999999998335 ) ) ;
#78 = PRESENTATION_STYLE_ASSIGNMENT (( #55 ) ) ;
#79 = DIRECTION ( 'NONE',  ( 0.000000000000000000, 0.000000000000000000, -1.000000000000000000 ) ) ;
#80 = CARTESIAN_POINT ( 'NONE',  ( -6.123233995736758640E-17, 3.500000000000000000, 0.000000000000000000 ) ) ;
#81 = AXIS2_PLACEMENT_3D ( 'NONE', #318, #170, #90 ) ;
#82 = FACE_OUTER_BOUND ( 'NONE', #46, .T. ) ;
#83 = ADVANCED_FACE ( 'NONE', ( #164 ), #165, .T. ) ;
#84 = STYLED_ITEM ( 'NONE', ( #167 ), #216 ) ;
#85 =( CONVERSION_BASED_UNIT ( 'INCH', #372 ) LENGTH_UNIT ( ) NAMED_UNIT ( #324 ) );
#86 =( CONVERSION_BASED_UNIT ( 'INCH', #20 ) LENGTH_UNIT ( ) NAMED_UNIT ( #294 ) );
#87 = DIRECTION ( 'NONE',  ( 1.000000000000000000, 0.000000000000000000, 0.000000000000000000 ) ) ;
#88 = COLOUR_RGB ( '',1.000000000000000000, 0.000000000000000000, 0.000000000000000000 ) ;
#89 =( NAMED_UNIT ( * ) SI_UNIT ( $, .STERADIAN. ) SOLID_ANGLE_UNIT ( ) );
#90 = DIRECTION ( 'NONE',  ( -1.000000000000000000, 0.000000000000000000, 0.000000000000000000 ) ) ;
#91 = CARTESIAN_POINT ( 'NONE',  ( 0.000000000000000000, 0.3125000000000000555, 0.000000000000000000 ) ) ;
#92 = PRESENTATION_STYLE_ASSIGNMENT (( #201 ) ) ;
#93 = COLOUR_RGB ( '',1.000000000000000000, 0.000000000000000000, 0.000000000000000000 ) ;
#94 = ORIENTED_EDGE ( 'NONE', *, *, #155, .T. ) ;
#95 = SURFACE_STYLE_FILL_AREA ( #258 ) ;
#96 = EDGE_LOOP ( 'NONE', ( #100, #303, #11, #125 ) ) ;
#97 = CARTESIAN_POINT ( 'NONE',  ( 0.000000000000000000, 0.000000000000000000, 0.000000000000000000 ) ) ;
#98 = CIRCLE ( 'NONE', #311, 0.3124999999999999445 ) ;
#99 = ORIENTED_EDGE ( 'NONE', *, *, #36, .F. ) ;
#100 = ORIENTED_EDGE ( 'NONE', *, *, #227, .T. ) ;
#101 = LINE ( 'NONE', #220, #281 ) ;
#102 = SURFACE_STYLE_USAGE ( .BOTH. , #363 ) ;
#103 =( GEOMETRIC_REPRESENTATION_CONTEXT ( 3 ) GLOBAL_UNCERTAINTY_ASSIGNED_CONTEXT ( ( #373 ) ) GLOBAL_UNIT_ASSIGNED_CONTEXT ( ( #35, #348, #264 ) ) REPRESENTATION_CONTEXT ( 'NONE', 'WORKASPACE' ) );
#104 = PRESENTATION_LAYER_ASSIGNMENT (  '', '', ( #84 ) ) ;
#105 = CARTESIAN_POINT ( 'NONE',  ( -3.827021247335478926E-17, 0.3125000000000000000, 0.000000000000000000 ) ) ;
#106 = CARTESIAN_POINT ( 'NONE',  ( 0.3124999999999998335, 1.625000000000000000, 3.827021247335476461E-17 ) ) ;
#107 = FILL_AREA_STYLE ('',( #159 ) ) ;
#108 = SURFACE_SIDE_STYLE ('',( #189 ) ) ;
#109 = ADVANCED_FACE ( 'NONE', ( #333 ), #276, .T. ) ;
#110 = DIRECTION ( 'NONE',  ( -1.551219278919980663E-16, 1.000000000000000000, -0.000000000000000000 ) ) ;
#111 =( NAMED_UNIT ( * ) PLANE_ANGLE_UNIT ( ) SI_UNIT ( $, .RADIAN. ) );
#112 = CARTESIAN_POINT ( 'NONE',  ( 0.000000000000000000, 0.000000000000000000, 0.000000000000000000 ) ) ;
#113 = MECHANICAL_DESIGN_GEOMETRIC_PRESENTATION_REPRESENTATION (  '', ( #32 ), #103 ) ;
#114 = CIRCLE ( 'NONE', #360, 0.3124999999999998335 ) ;
#115 = ADVANCED_FACE ( 'NONE', ( #82 ), #26, .T. ) ;
#116 = DIRECTION ( 'NONE',  ( -1.551219278919980663E-16, 1.000000000000000000, -0.000000000000000000 ) ) ;
#117 = SURFACE_SIDE_STYLE ('',( #7 ) ) ;
#118 = MECHANICAL_DESIGN_GEOMETRIC_PRESENTATION_REPRESENTATION (  '', ( #198 ), #345 ) ;
#119 = AXIS2_PLACEMENT_3D ( 'NONE', #279, #310, #370 ) ;
#120 = CARTESIAN_POINT ( 'NONE',  ( -3.827021247335478926E-17, 0.3125000000000000000, 0.000000000000000000 ) ) ;
#121 = ORIENTED_EDGE ( 'NONE', *, *, #240, .F. ) ;
#122 = PRESENTATION_STYLE_ASSIGNMENT (( #335 ) ) ;
#123 = VERTEX_POINT ( 'NONE', #231 ) ;
#124 = PRODUCT_CONTEXT ( 'NONE', #233, 'mechanical' ) ;
#125 = ORIENTED_EDGE ( 'NONE', *, *, #369, .T. ) ;
#126 = PRESENTATION_LAYER_ASSIGNMENT (  '', '', ( #198 ) ) ;
#127 = ORIENTED_EDGE ( 'NONE', *, *, #305, .F. ) ;
#128 = DIRECTION ( 'NONE',  ( 1.000000000000000000, 0.000000000000000000, 0.000000000000000000 ) ) ;
#129 = PRODUCT ( '59453', '59453', '', ( #124 ) ) ;
#130 = ORIENTED_EDGE ( 'NONE', *, *, #240, .T. ) ;
#131 =( NAMED_UNIT ( * ) SI_UNIT ( $, .STERADIAN. ) SOLID_ANGLE_UNIT ( ) );
#132 = CLOSED_SHELL ( 'NONE', ( #75, #64, #54, #109, #216 ) ) ;
#133 = LINE ( 'NONE', #316, #10 ) ;
#134 = EDGE_CURVE ( 'NONE', #43, #306, #228, .T. ) ;
#135 = CIRCLE ( 'NONE', #272, 0.3124999999999998335 ) ;
#136 = SURFACE_STYLE_FILL_AREA ( #169 ) ;
#137 = SURFACE_STYLE_USAGE ( .BOTH. , #30 ) ;
#138 = DIRECTION ( 'NONE',  ( -0.000000000000000000, -1.000000000000000000, -0.000000000000000000 ) ) ;
#139 = COLOUR_RGB ( '',0.7921568627450980005, 0.8196078431372548767, 0.9333333333333333481 ) ;
#140 = PRODUCT_DEFINITION_FORMATION_WITH_SPECIFIED_SOURCE ( 'ANY', '', #129, .NOT_KNOWN. ) ;
#141 = PRODUCT_DEFINITION ( 'UNKNOWN', '', #140, #21 ) ;
#142 = DIRECTION ( 'NONE',  ( -0.000000000000000000, -1.000000000000000000, -0.000000000000000000 ) ) ;
#143 = DIMENSIONAL_EXPONENTS ( 1.000000000000000000, 0.000000000000000000, 0.000000000000000000, 0.000000000000000000, 0.000000000000000000, 0.000000000000000000, 0.000000000000000000 ) ;
#144 = DIRECTION ( 'NONE',  ( 0.000000000000000000, 0.000000000000000000, -1.000000000000000000 ) ) ;
#145 = PRESENTATION_LAYER_ASSIGNMENT (  '', '', ( #65 ) ) ;
#146 =( GEOMETRIC_REPRESENTATION_CONTEXT ( 3 ) GLOBAL_UNCERTAINTY_ASSIGNED_CONTEXT ( ( #160 ) ) GLOBAL_UNIT_ASSIGNED_CONTEXT ( ( #248, #207, #296 ) ) REPRESENTATION_CONTEXT ( 'NONE', 'WORKASPACE' ) );
#147 = ORIENTED_EDGE ( 'NONE', *, *, #14, .F. ) ;
#148 = CARTESIAN_POINT ( 'NONE',  ( -0.3125000000000000000, 3.500000000000000000, 0.000000000000000000 ) ) ;
#149 = ORIENTED_EDGE ( 'NONE', *, *, #342, .F. ) ;
#150 = AXIS2_PLACEMENT_3D ( 'NONE', #307, #154, #252 ) ;
#151 = FILL_AREA_STYLE_COLOUR ( '', #88 ) ;
#152 = PLANE ( 'NONE',  #150 ) ;
#153 = UNCERTAINTY_MEASURE_WITH_UNIT (LENGTH_MEASURE( 1.000000000000000082E-05 ), #288, 'distance_accuracy_value', 'NONE');
#154 = DIRECTION ( 'NONE',  ( 0.000000000000000000, 1.000000000000000000, 0.000000000000000000 ) ) ;
#155 = EDGE_CURVE ( 'NONE', #38, #210, #172, .T. ) ;
#156 = DIRECTION ( 'NONE',  ( 0.000000000000000000, 0.000000000000000000, -1.000000000000000000 ) ) ;
#157 = FILL_AREA_STYLE_COLOUR ( '', #242 ) ;
#158 = CIRCLE ( 'NONE', #195, 0.3125000000000000000 ) ;
#159 = FILL_AREA_STYLE_COLOUR ( '', #93 ) ;
#160 = UNCERTAINTY_MEASURE_WITH_UNIT (LENGTH_MEASURE( 1.000000000000000082E-05 ), #248, 'distance_accuracy_value', 'NONE');
#161 = CARTESIAN_POINT ( 'NONE',  ( -0.3124999999999993894, 1.625000000000000000, 0.000000000000000000 ) ) ;
#162 = EDGE_CURVE ( 'NONE', #241, #354, #98, .T. ) ;
#163 =( CONVERSION_BASED_UNIT ( 'INCH', #196 ) LENGTH_UNIT ( ) NAMED_UNIT ( #200 ) );
#164 = FACE_OUTER_BOUND ( 'NONE', #218, .T. ) ;
#165 = CYLINDRICAL_SURFACE ( 'NONE', #339, 0.3124999999999997224 ) ;
#166 = CIRCLE ( 'NONE', #283, 0.3124999999999999445 ) ;
#167 = PRESENTATION_STYLE_ASSIGNMENT (( #234 ) ) ;
#168 = DIRECTION ( 'NONE',  ( -0.000000000000000000, -1.000000000000000000, -0.000000000000000000 ) ) ;
#169 = FILL_AREA_STYLE ('',( #37 ) ) ;
#170 = DIRECTION ( 'NONE',  ( -1.551219278919980663E-16, 1.000000000000000000, -0.000000000000000000 ) ) ;
#171 = CIRCLE ( 'NONE', #2, 0.3124999999999999445 ) ;
#172 = CIRCLE ( 'NONE', #262, 0.3124999999999999445 ) ;
#173 =( LENGTH_UNIT ( ) NAMED_UNIT ( * ) SI_UNIT ( $, .METRE. ) );
#174 = CARTESIAN_POINT ( 'NONE',  ( 0.3124999999999999445, 0.3125000000000000555, 0.000000000000000000 ) ) ;
#175 = DIRECTION ( 'NONE',  ( -1.000000000000000000, 0.000000000000000000, 0.000000000000000000 ) ) ;
#176 = MANIFOLD_SOLID_BREP ( 'Revolve - Tool Body (Straight Shanked)', #69 ) ;
#177 = DIRECTION ( 'NONE',  ( -1.551219278919980663E-16, 1.000000000000000000, -0.000000000000000000 ) ) ;
#178 = DIMENSIONAL_EXPONENTS ( 1.000000000000000000, 0.000000000000000000, 0.000000000000000000, 0.000000000000000000, 0.000000000000000000, 0.000000000000000000, 0.000000000000000000 ) ;
#179 = ORIENTED_EDGE ( 'NONE', *, *, #259, .F. ) ;
#180 = PRESENTATION_LAYER_ASSIGNMENT (  '', '', ( #16 ) ) ;
#181 = ORIENTED_EDGE ( 'NONE', *, *, #305, .T. ) ;
#182 = CARTESIAN_POINT ( 'NONE',  ( 0.000000000000000000, 1.625000000000000000, 0.000000000000000000 ) ) ;
#183 = ORIENTED_EDGE ( 'NONE', *, *, #342, .T. ) ;
#184 =( CONVERSION_BASED_UNIT ( 'INCH', #188 ) LENGTH_UNIT ( ) NAMED_UNIT ( #319 ) );
#185 = PRODUCT_RELATED_PRODUCT_CATEGORY ( 'part', '', ( #129 ) ) ;
#186 = CARTESIAN_POINT ( 'NONE',  ( -0.3124999999999998335, 3.500000000000000000, 0.000000000000000000 ) ) ;
#187 = EDGE_LOOP ( 'NONE', ( #179, #358, #183, #19, #301 ) ) ;
#188 = LENGTH_MEASURE_WITH_UNIT ( LENGTH_MEASURE( 0.02539999999999999897 ), #326 );
#189 = SURFACE_STYLE_FILL_AREA ( #344 ) ;
#190 =( GEOMETRIC_REPRESENTATION_CONTEXT ( 3 ) GLOBAL_UNCERTAINTY_ASSIGNED_CONTEXT ( ( #223 ) ) GLOBAL_UNIT_ASSIGNED_CONTEXT ( ( #67, #31, #347 ) ) REPRESENTATION_CONTEXT ( 'NONE', 'WORKASPACE' ) );
#191 = UNCERTAINTY_MEASURE_WITH_UNIT (LENGTH_MEASURE( 1.000000000000000082E-05 ), #163, 'distance_accuracy_value', 'NONE');
#192 = CARTESIAN_POINT ( 'NONE',  ( -3.827021247335478926E-17, 0.3125000000000000000, 0.000000000000000000 ) ) ;
#193 = CYLINDRICAL_SURFACE ( 'NONE', #267, 0.3124999999999998890 ) ;
#194 = PRESENTATION_LAYER_ASSIGNMENT (  '', '', ( #300 ) ) ;
#195 = AXIS2_PLACEMENT_3D ( 'NONE', #192, #156, #285 ) ;
#196 = LENGTH_MEASURE_WITH_UNIT ( LENGTH_MEASURE( 0.02539999999999999897 ), #224 );
#197 = DIRECTION ( 'NONE',  ( 0.000000000000000000, 0.000000000000000000, -1.000000000000000000 ) ) ;
#198 = STYLED_ITEM ( 'NONE', ( #78 ), #49 ) ;
#199 = CIRCLE ( 'NONE', #364, 0.3124999999999999445 ) ;
#200 = DIMENSIONAL_EXPONENTS ( 1.000000000000000000, 0.000000000000000000, 0.000000000000000000, 0.000000000000000000, 0.000000000000000000, 0.000000000000000000, 0.000000000000000000 ) ;
#201 = SURFACE_STYLE_USAGE ( .BOTH. , #4 ) ;
#202 =( LENGTH_UNIT ( ) NAMED_UNIT ( * ) SI_UNIT ( $, .METRE. ) );
#203 = SPHERICAL_SURFACE ( 'NONE', #317, 0.3125000000000000000 ) ;
#204 = CARTESIAN_POINT ( 'NONE',  ( 2.296212748401287479E-16, 1.625000000000000000, 0.000000000000000000 ) ) ;
#205 = CARTESIAN_POINT ( 'NONE',  ( 0.000000000000000000, 0.3125000000000000555, 0.000000000000000000 ) ) ;
#206 = EDGE_CURVE ( 'NONE', #68, #38, #351, .T. ) ;
#207 =( NAMED_UNIT ( * ) PLANE_ANGLE_UNIT ( ) SI_UNIT ( $, .RADIAN. ) );
#208 = CARTESIAN_POINT ( 'NONE',  ( 0.3124999999999998890, 3.500000000000000000, 0.000000000000000000 ) ) ;
#209 = PLANE ( 'NONE',  #340 ) ;
#210 = VERTEX_POINT ( 'NONE', #174 ) ;
#211 = SHAPE_DEFINITION_REPRESENTATION ( #368, #328 ) ;
#212 = DIRECTION ( 'NONE',  ( -0.000000000000000000, -1.000000000000000000, -0.000000000000000000 ) ) ;
#213 = MECHANICAL_DESIGN_GEOMETRIC_PRESENTATION_REPRESENTATION (  '', ( #16 ), #282 ) ;
#214 = CIRCLE ( 'NONE', #3, 0.3125000000000000000 ) ;
#215 = EDGE_LOOP ( 'NONE', ( #270, #361 ) ) ;
#216 = ADVANCED_FACE ( 'NONE', ( #5 ), #323, .T. ) ;
#217 = PRESENTATION_STYLE_ASSIGNMENT (( #357 ) ) ;
#218 = EDGE_LOOP ( 'NONE', ( #244, #362, #355, #121 ) ) ;
#219 = SURFACE_SIDE_STYLE ('',( #76 ) ) ;
#220 = CARTESIAN_POINT ( 'NONE',  ( 0.3124999999999996669, 3.500000000000000000, 3.827021247335475845E-17 ) ) ;
#221 = DIRECTION ( 'NONE',  ( 0.000000000000000000, 0.000000000000000000, -1.000000000000000000 ) ) ;
#222 = DIRECTION ( 'NONE',  ( -1.000000000000000000, 0.000000000000000000, 0.000000000000000000 ) ) ;
#223 = UNCERTAINTY_MEASURE_WITH_UNIT (LENGTH_MEASURE( 1.000000000000000082E-05 ), #67, 'distance_accuracy_value', 'NONE');
#224 =( LENGTH_UNIT ( ) NAMED_UNIT ( * ) SI_UNIT ( $, .METRE. ) );
#225 = MECHANICAL_DESIGN_GEOMETRIC_PRESENTATION_REPRESENTATION (  '', ( #243 ), #190 ) ;
#226 = APPLICATION_CONTEXT ( 'automotive_design' ) ;
#227 = EDGE_CURVE ( 'NONE', #247, #68, #199, .T. ) ;
#228 = CIRCLE ( 'NONE', #330, 0.3124999999999996114 ) ;
#229 = DIRECTION ( 'NONE',  ( -0.000000000000000000, -1.000000000000000000, -0.000000000000000000 ) ) ;
#230 = CARTESIAN_POINT ( 'NONE',  ( 0.000000000000000000, 0.3125000000000000555, 0.000000000000000000 ) ) ;
#231 = CARTESIAN_POINT ( 'NONE',  ( 0.000000000000000000, 1.625000000000000000, -0.3124999999999998335 ) ) ;
#232 = ADVANCED_FACE ( 'NONE', ( #34 ), #209, .F. ) ;
#233 = APPLICATION_CONTEXT ( 'automotive_design' ) ;
#234 = SURFACE_STYLE_USAGE ( .BOTH. , #117 ) ;
#235 = AXIS2_PLACEMENT_3D ( 'NONE', #315, #138, #144 ) ;
#236 = LINE ( 'NONE', #186, #17 ) ;
#237 = ORIENTED_EDGE ( 'NONE', *, *, #369, .F. ) ;
#238 = EDGE_LOOP ( 'NONE', ( #274, #44, #94, #15 ) ) ;
#239 =( NAMED_UNIT ( * ) SI_UNIT ( $, .STERADIAN. ) SOLID_ANGLE_UNIT ( ) );
#240 = EDGE_CURVE ( 'NONE', #306, #241, #236, .T. ) ;
#241 = VERTEX_POINT ( 'NONE', #148 ) ;
#242 = COLOUR_RGB ( '',0.7921568627450980005, 0.8196078431372548767, 0.9333333333333333481 ) ;
#243 = STYLED_ITEM ( 'NONE', ( #92 ), #176 ) ;
#244 = ORIENTED_EDGE ( 'NONE', *, *, #62, .T. ) ;
#245 =( LENGTH_UNIT ( ) NAMED_UNIT ( * ) SI_UNIT ( $, .METRE. ) );
#246 = CARTESIAN_POINT ( 'NONE',  ( 3.827021247335477694E-17, 0.3125000000000000555, 0.3124999999999999445 ) ) ;
#247 = VERTEX_POINT ( 'NONE', #246 ) ;
#248 =( CONVERSION_BASED_UNIT ( 'INCH', #359 ) LENGTH_UNIT ( ) NAMED_UNIT ( #327 ) );
#249 = DIRECTION ( 'NONE',  ( 1.000000000000000000, 0.000000000000000000, -1.224646799147353207E-16 ) ) ;
#250 = DIRECTION ( 'NONE',  ( -0.000000000000000000, -1.000000000000000000, -0.000000000000000000 ) ) ;
#251 =( GEOMETRIC_REPRESENTATION_CONTEXT ( 3 ) GLOBAL_UNCERTAINTY_ASSIGNED_CONTEXT ( ( #153 ) ) GLOBAL_UNIT_ASSIGNED_CONTEXT ( ( #288, #111, #89 ) ) REPRESENTATION_CONTEXT ( 'NONE', 'WORKASPACE' ) );
#252 = DIRECTION ( 'NONE',  ( 0.000000000000000000, -0.000000000000000000, 1.000000000000000000 ) ) ;
#253 = UNCERTAINTY_MEASURE_WITH_UNIT (LENGTH_MEASURE( 1.000000000000000082E-05 ), #85, 'distance_accuracy_value', 'NONE');
#254 = FILL_AREA_STYLE ('',( #308 ) ) ;
#255 = PLANE ( 'NONE',  #119 ) ;
#256 =( LENGTH_UNIT ( ) NAMED_UNIT ( * ) SI_UNIT ( $, .METRE. ) );
#257 = DIRECTION ( 'NONE',  ( 1.000000000000000000, 0.000000000000000000, 0.000000000000000000 ) ) ;
#258 = FILL_AREA_STYLE ('',( #290 ) ) ;
#259 = EDGE_CURVE ( 'NONE', #334, #247, #302, .T. ) ;
#260 =( LENGTH_UNIT ( ) NAMED_UNIT ( * ) SI_UNIT ( $, .METRE. ) );
#261 = SURFACE_STYLE_FILL_AREA ( #254 ) ;
#262 = AXIS2_PLACEMENT_3D ( 'NONE', #91, #142, #58 ) ;
#263 = DIRECTION ( 'NONE',  ( -1.000000000000000000, 0.000000000000000000, 0.000000000000000000 ) ) ;
#264 =( NAMED_UNIT ( * ) SI_UNIT ( $, .STERADIAN. ) SOLID_ANGLE_UNIT ( ) );
#265 = CARTESIAN_POINT ( 'NONE',  ( -6.123233995736758640E-17, 3.500000000000000000, 0.000000000000000000 ) ) ;
#266 = VERTEX_POINT ( 'NONE', #72 ) ;
#267 = AXIS2_PLACEMENT_3D ( 'NONE', #112, #168, #197 ) ;
#268 = APPLICATION_PROTOCOL_DEFINITION ( 'draft international standard', 'automotive_design', 1998, #226 ) ;
#269 = ORIENTED_EDGE ( 'NONE', *, *, #286, .F. ) ;
#270 = ORIENTED_EDGE ( 'NONE', *, *, #162, .T. ) ;
#271 = MECHANICAL_DESIGN_GEOMETRIC_PRESENTATION_REPRESENTATION (  '', ( #300 ), #70 ) ;
#272 = AXIS2_PLACEMENT_3D ( 'NONE', #343, #250, #221 ) ;
#273 = SURFACE_SIDE_STYLE ('',( #95 ) ) ;
#274 = ORIENTED_EDGE ( 'NONE', *, *, #293, .F. ) ;
#275 =( NAMED_UNIT ( * ) PLANE_ANGLE_UNIT ( ) SI_UNIT ( $, .RADIAN. ) );
#276 = CYLINDRICAL_SURFACE ( 'NONE', #52, 0.3124999999999998890 ) ;
#277 = CARTESIAN_POINT ( 'NONE',  ( -6.123233995736759873E-17, 3.500000000000000000, 0.000000000000000000 ) ) ;
#278 = SURFACE_STYLE_FILL_AREA ( #107 ) ;
#279 = CARTESIAN_POINT ( 'NONE',  ( 2.296212748401286986E-16, 1.625000000000000000, 0.000000000000000000 ) ) ;
#280 =( NAMED_UNIT ( * ) SI_UNIT ( $, .STERADIAN. ) SOLID_ANGLE_UNIT ( ) );
#281 = VECTOR ( 'NONE', #177, 39.37007874015748143 ) ;
#282 =( GEOMETRIC_REPRESENTATION_CONTEXT ( 3 ) GLOBAL_UNCERTAINTY_ASSIGNED_CONTEXT ( ( #191 ) ) GLOBAL_UNIT_ASSIGNED_CONTEXT ( ( #163, #47, #131 ) ) REPRESENTATION_CONTEXT ( 'NONE', 'WORKASPACE' ) );
#283 = AXIS2_PLACEMENT_3D ( 'NONE', #230, #229, #27 ) ;
#284 = CARTESIAN_POINT ( 'NONE',  ( 0.000000000000000000, 0.3125000000000000555, -0.3124999999999999445 ) ) ;
#285 = DIRECTION ( 'NONE',  ( -1.000000000000000000, 0.000000000000000000, 0.000000000000000000 ) ) ;
#286 = EDGE_CURVE ( 'NONE', #334, #123, #114, .T. ) ;
#287 =( NAMED_UNIT ( * ) PLANE_ANGLE_UNIT ( ) SI_UNIT ( $, .RADIAN. ) );
#288 =( CONVERSION_BASED_UNIT ( 'INCH', #59 ) LENGTH_UNIT ( ) NAMED_UNIT ( #352 ) );
#289 = DIRECTION ( 'NONE',  ( -0.000000000000000000, -1.000000000000000000, -0.000000000000000000 ) ) ;
#290 = FILL_AREA_STYLE_COLOUR ( '', #291 ) ;
#291 = COLOUR_RGB ( '',1.000000000000000000, 0.000000000000000000, 0.000000000000000000 ) ;
#292 = AXIS2_PLACEMENT_3D ( 'NONE', #120, #24, #87 ) ;
#293 = EDGE_CURVE ( 'NONE', #68, #266, #214, .T. ) ;
#294 = DIMENSIONAL_EXPONENTS ( 1.000000000000000000, 0.000000000000000000, 0.000000000000000000, 0.000000000000000000, 0.000000000000000000, 0.000000000000000000, 0.000000000000000000 ) ;
#295 = PRESENTATION_LAYER_ASSIGNMENT (  '', '', ( #243 ) ) ;
#296 =( NAMED_UNIT ( * ) SI_UNIT ( $, .STERADIAN. ) SOLID_ANGLE_UNIT ( ) );
#297 = FILL_AREA_STYLE ('',( #63 ) ) ;
#298 = DIRECTION ( 'NONE',  ( 0.000000000000000000, 0.000000000000000000, 1.000000000000000000 ) ) ;
#299 = EDGE_LOOP ( 'NONE', ( #71, #329 ) ) ;
#300 = STYLED_ITEM ( 'NONE', ( #122 ), #109 ) ;
#301 = ORIENTED_EDGE ( 'NONE', *, *, #227, .F. ) ;
#302 = LINE ( 'NONE', #332, #66 ) ;
#303 = ORIENTED_EDGE ( 'NONE', *, *, #293, .T. ) ;
#304 = DIRECTION ( 'NONE',  ( -0.000000000000000000, -1.000000000000000000, -0.000000000000000000 ) ) ;
#305 = EDGE_CURVE ( 'NONE', #123, #334, #135, .T. ) ;
#306 = VERTEX_POINT ( 'NONE', #161 ) ;
#307 = CARTESIAN_POINT ( 'NONE',  ( 0.000000000000000000, 1.625000000000000000, 0.000000000000000000 ) ) ;
#308 = FILL_AREA_STYLE_COLOUR ( '', #322 ) ;
#309 = ADVANCED_FACE ( 'NONE', ( #313 ), #255, .F. ) ;
#310 = DIRECTION ( 'NONE',  ( -1.551219278919980663E-16, 1.000000000000000000, 0.000000000000000000 ) ) ;
#311 = AXIS2_PLACEMENT_3D ( 'NONE', #265, #110, #349 ) ;
#312 = AXIS2_PLACEMENT_3D ( 'NONE', #45, #298, #128 ) ;
#313 = FACE_OUTER_BOUND ( 'NONE', #299, .T. ) ;
#314 = CARTESIAN_POINT ( 'NONE',  ( -0.3125000000000000000, 0.3125000000000000555, 3.827021247335477694E-17 ) ) ;
#315 = CARTESIAN_POINT ( 'NONE',  ( 0.000000000000000000, 0.3125000000000000555, 0.000000000000000000 ) ) ;
#316 = CARTESIAN_POINT ( 'NONE',  ( 0.000000000000000000, 0.000000000000000000, -0.3124999999999998890 ) ) ;
#317 = AXIS2_PLACEMENT_3D ( 'NONE', #346, #56, #257 ) ;
#318 = CARTESIAN_POINT ( 'NONE',  ( -6.123233995736759873E-17, 3.500000000000000000, 0.000000000000000000 ) ) ;
#319 = DIMENSIONAL_EXPONENTS ( 1.000000000000000000, 0.000000000000000000, 0.000000000000000000, 0.000000000000000000, 0.000000000000000000, 0.000000000000000000, 0.000000000000000000 ) ;
#320 = LENGTH_MEASURE_WITH_UNIT ( LENGTH_MEASURE( 0.02539999999999999897 ), #202 );
#321 = CARTESIAN_POINT ( 'NONE',  ( 0.3124999999999998890, 3.500000000000000000, 3.827021247335477078E-17 ) ) ;
#322 = COLOUR_RGB ( '',1.000000000000000000, 0.000000000000000000, 0.000000000000000000 ) ;
#323 = SPHERICAL_SURFACE ( 'NONE', #292, 0.3125000000000000000 ) ;
#324 = DIMENSIONAL_EXPONENTS ( 1.000000000000000000, 0.000000000000000000, 0.000000000000000000, 0.000000000000000000, 0.000000000000000000, 0.000000000000000000, 0.000000000000000000 ) ;
#325 = DIRECTION ( 'NONE',  ( 0.000000000000000000, 0.000000000000000000, -1.000000000000000000 ) ) ;
#326 =( LENGTH_UNIT ( ) NAMED_UNIT ( * ) SI_UNIT ( $, .METRE. ) );
#327 = DIMENSIONAL_EXPONENTS ( 1.000000000000000000, 0.000000000000000000, 0.000000000000000000, 0.000000000000000000, 0.000000000000000000, 0.000000000000000000, 0.000000000000000000 ) ;
#328 = ADVANCED_BREP_SHAPE_REPRESENTATION ( '59453', ( #49, #176, #312 ), #251 ) ;
#329 = ORIENTED_EDGE ( 'NONE', *, *, #134, .F. ) ;
#330 = AXIS2_PLACEMENT_3D ( 'NONE', #204, #33, #263 ) ;
#331 = MECHANICAL_DESIGN_GEOMETRIC_PRESENTATION_REPRESENTATION (  '', ( #84 ), #146 ) ;
#332 = CARTESIAN_POINT ( 'NONE',  ( 3.827021247335477078E-17, 0.000000000000000000, 0.3124999999999998890 ) ) ;
#333 = FACE_OUTER_BOUND ( 'NONE', #187, .T. ) ;
#334 = VERTEX_POINT ( 'NONE', #77 ) ;
#335 = SURFACE_STYLE_USAGE ( .BOTH. , #219 ) ;
#336 = EDGE_CURVE ( 'NONE', #210, #266, #158, .T. ) ;
#337 =( NAMED_UNIT ( * ) SI_UNIT ( $, .STERADIAN. ) SOLID_ANGLE_UNIT ( ) );
#338 = FILL_AREA_STYLE ('',( #151 ) ) ;
#339 = AXIS2_PLACEMENT_3D ( 'NONE', #277, #116, #175 ) ;
#340 = AXIS2_PLACEMENT_3D ( 'NONE', #208, #42, #13 ) ;
#341 = FACE_OUTER_BOUND ( 'NONE', #12, .T. ) ;
#342 = EDGE_CURVE ( 'NONE', #123, #38, #133, .T. ) ;
#343 = CARTESIAN_POINT ( 'NONE',  ( 0.000000000000000000, 1.625000000000000000, 0.000000000000000000 ) ) ;
#344 = FILL_AREA_STYLE ('',( #157 ) ) ;
#345 =( GEOMETRIC_REPRESENTATION_CONTEXT ( 3 ) GLOBAL_UNCERTAINTY_ASSIGNED_CONTEXT ( ( #253 ) ) GLOBAL_UNIT_ASSIGNED_CONTEXT ( ( #85, #287, #337 ) ) REPRESENTATION_CONTEXT ( 'NONE', 'WORKASPACE' ) );
#346 = CARTESIAN_POINT ( 'NONE',  ( -3.827021247335478926E-17, 0.3125000000000000000, 0.000000000000000000 ) ) ;
#347 =( NAMED_UNIT ( * ) SI_UNIT ( $, .STERADIAN. ) SOLID_ANGLE_UNIT ( ) );
#348 =( NAMED_UNIT ( * ) PLANE_ANGLE_UNIT ( ) SI_UNIT ( $, .RADIAN. ) );
#349 = DIRECTION ( 'NONE',  ( -1.000000000000000000, 0.000000000000000000, 0.000000000000000000 ) ) ;
#350 =( GEOMETRIC_REPRESENTATION_CONTEXT ( 3 ) GLOBAL_UNCERTAINTY_ASSIGNED_CONTEXT ( ( #48 ) ) GLOBAL_UNIT_ASSIGNED_CONTEXT ( ( #86, #275, #280 ) ) REPRESENTATION_CONTEXT ( 'NONE', 'WORKASPACE' ) );
#351 = CIRCLE ( 'NONE', #235, 0.3124999999999999445 ) ;
#352 = DIMENSIONAL_EXPONENTS ( 1.000000000000000000, 0.000000000000000000, 0.000000000000000000, 0.000000000000000000, 0.000000000000000000, 0.000000000000000000, 0.000000000000000000 ) ;
#353 = DIRECTION ( 'NONE',  ( -0.000000000000000000, -1.000000000000000000, -0.000000000000000000 ) ) ;
#354 = VERTEX_POINT ( 'NONE', #321 ) ;
#355 = ORIENTED_EDGE ( 'NONE', *, *, #162, .F. ) ;
#356 = DIRECTION ( 'NONE',  ( 0.000000000000000000, 0.000000000000000000, -1.000000000000000000 ) ) ;
#357 = SURFACE_STYLE_USAGE ( .BOTH. , #273 ) ;
#358 = ORIENTED_EDGE ( 'NONE', *, *, #286, .T. ) ;
#359 = LENGTH_MEASURE_WITH_UNIT ( LENGTH_MEASURE( 0.02539999999999999897 ), #245 );
#360 = AXIS2_PLACEMENT_3D ( 'NONE', #182, #353, #325 ) ;
#361 = ORIENTED_EDGE ( 'NONE', *, *, #36, .T. ) ;
#362 = ORIENTED_EDGE ( 'NONE', *, *, #14, .T. ) ;
#363 = SURFACE_SIDE_STYLE ('',( #278 ) ) ;
#364 = AXIS2_PLACEMENT_3D ( 'NONE', #205, #289, #356 ) ;
#365 = DIRECTION ( 'NONE',  ( -1.551219278919980663E-16, 1.000000000000000000, -0.000000000000000000 ) ) ;
#366 = DIRECTION ( 'NONE',  ( -1.000000000000000000, 0.000000000000000000, 0.000000000000000000 ) ) ;
#367 = DIRECTION ( 'NONE',  ( -1.551219278919980663E-16, 1.000000000000000000, -0.000000000000000000 ) ) ;
#368 = PRODUCT_DEFINITION_SHAPE ( 'NONE', 'NONE',  #141 ) ;
#369 = EDGE_CURVE ( 'NONE', #210, #247, #166, .T. ) ;
#370 = DIRECTION ( 'NONE',  ( -1.000000000000000000, -1.551219278919980663E-16, 0.000000000000000000 ) ) ;
#371 = COLOUR_RGB ( '',1.000000000000000000, 0.000000000000000000, 0.000000000000000000 ) ;
#372 = LENGTH_MEASURE_WITH_UNIT ( LENGTH_MEASURE( 0.02539999999999999897 ), #256 );
#373 = UNCERTAINTY_MEASURE_WITH_UNIT (LENGTH_MEASURE( 1.000000000000000082E-05 ), #35, 'distance_accuracy_value', 'NONE');
ENDSEC;
END-ISO-10303-21;
