ISO-10303-21;
HEADER;
FILE_DESCRIPTION (( 'STEP AP214' ),
    '1' );
FILE_NAME ('Micro_GEMM-060-4X.STEP',
    '2021-09-01T21:45:08',
    ( '' ),
    ( '' ),
    'SwSTEP 2.0',
    'SolidWorks 2020',
    '' );
FILE_SCHEMA (( 'AUTOMOTIVE_DESIGN' ));
ENDSEC;

DATA;
#1 = VECTOR ( 'NONE', #284, 39.37007874015748854 ) ;
#2 = LENGTH_MEASURE_WITH_UNIT ( LENGTH_MEASURE( 0.02539999999999999897 ), #216 );
#3 = FILL_AREA_STYLE ('',( #258 ) ) ;
#4 = DIMENSIONAL_EXPONENTS ( 1.000000000000000000, 0.0000000000000000000, 0.0000000000000000000, 0.0000000000000000000, 0.0000000000000000000, 0.0000000000000000000, 0.0000000000000000000 ) ;
#5 = CYLINDRICAL_SURFACE ( 'NONE', #165, 0.1179918899999999882 ) ;
#6 = VECTOR ( 'NONE', #223, 39.37007874015748143 ) ;
#7 = CARTESIAN_POINT ( 'NONE',  ( 0.1181100000000000066, 1.446430334472939084E-17, 2.244094000000000033 ) ) ;
#8 = ORIENTED_EDGE ( 'NONE', *, *, #243, .F. ) ;
#9 = LINE ( 'NONE', #101, #164 ) ;
#10 = SURFACE_STYLE_USAGE ( .BOTH. , #65 ) ;
#11 = EDGE_CURVE ( 'NONE', #176, #35, #229, .T. ) ;
#12 = CYLINDRICAL_SURFACE ( 'NONE', #76, 0.1179918899999999882 ) ;
#13 = COLOUR_RGB ( '',0.7921568627450980005, 0.8196078431372548767, 0.9333333333333333481 ) ;
#14 = CIRCLE ( 'NONE', #41, 0.1179918899999999882 ) ;
#15 = FACE_OUTER_BOUND ( 'NONE', #19, .T. ) ;
#16 =( NAMED_UNIT ( * ) PLANE_ANGLE_UNIT ( ) SI_UNIT ( $, .RADIAN. ) );
#17 = ORIENTED_EDGE ( 'NONE', *, *, #211, .F. ) ;
#18 = PRODUCT_CONTEXT ( 'NONE', #87, 'mechanical' ) ;
#19 = EDGE_LOOP ( 'NONE', ( #179, #226, #48, #8 ) ) ;
#20 = DIRECTION ( 'NONE',  ( 0.0000000000000000000, 0.0000000000000000000, 1.000000000000000000 ) ) ;
#21 = CARTESIAN_POINT ( 'NONE',  ( 0.0000000000000000000, 0.0000000000000000000, 2.244094000000000033 ) ) ;
#22 = EDGE_CURVE ( 'NONE', #251, #171, #209, .T. ) ;
#23 = VECTOR ( 'NONE', #24, 39.37007874015748143 ) ;
#24 = DIRECTION ( 'NONE',  ( -1.224646799147353207E-16, -0.0000000000000000000, -1.000000000000000000 ) ) ;
#25 = PRODUCT_DEFINITION_SHAPE ( 'NONE', 'NONE',  #286 ) ;
#26 = UNCERTAINTY_MEASURE_WITH_UNIT (LENGTH_MEASURE( 1.000000000000000082E-05 ), #162, 'distance_accuracy_value', 'NONE');
#27 = LINE ( 'NONE', #208, #63 ) ;
#28 = ADVANCED_BREP_SHAPE_REPRESENTATION ( 'Micro_GEMM-060-4X', ( #161, #186 ), #219 ) ;
#29 = DIMENSIONAL_EXPONENTS ( 1.000000000000000000, 0.0000000000000000000, 0.0000000000000000000, 0.0000000000000000000, 0.0000000000000000000, 0.0000000000000000000, 0.0000000000000000000 ) ;
#30 = CARTESIAN_POINT ( 'NONE',  ( 0.0000000000000000000, 0.0000000000000000000, 2.244094000000000033 ) ) ;
#31 = DIRECTION ( 'NONE',  ( -1.000000000000000000, 0.0000000000000000000, 0.0000000000000000000 ) ) ;
#32 =( NAMED_UNIT ( * ) SI_UNIT ( $, .STERADIAN. ) SOLID_ANGLE_UNIT ( ) );
#33 = FACE_OUTER_BOUND ( 'NONE', #160, .T. ) ;
#34 = DIRECTION ( 'NONE',  ( -1.224646799147353207E-16, -0.0000000000000000000, -1.000000000000000000 ) ) ;
#35 = VERTEX_POINT ( 'NONE', #207 ) ;
#36 = CARTESIAN_POINT ( 'NONE',  ( 0.0000000000000000000, 0.0000000000000000000, 2.229093999999999465 ) ) ;
#37 = ORIENTED_EDGE ( 'NONE', *, *, #102, .F. ) ;
#38 = DIRECTION ( 'NONE',  ( 1.000000000000000000, 0.0000000000000000000, 0.0000000000000000000 ) ) ;
#39 = DIRECTION ( 'NONE',  ( 0.0000000000000000000, 0.0000000000000000000, -1.000000000000000000 ) ) ;
#40 = CONICAL_SURFACE ( 'NONE', #157, 0.1179918899999999882, 0.1745329251994339470 ) ;
#41 = AXIS2_PLACEMENT_3D ( 'NONE', #168, #74, #140 ) ;
#42 = CONICAL_SURFACE ( 'NONE', #266, 0.1031100000000002570, 0.7853981633974318477 ) ;
#43 = DIRECTION ( 'NONE',  ( 1.000000000000000000, 0.0000000000000000000, 0.0000000000000000000 ) ) ;
#44 = DIRECTION ( 'NONE',  ( -1.000000000000000000, 0.0000000000000000000, 0.0000000000000000000 ) ) ;
#45 = EDGE_LOOP ( 'NONE', ( #240, #64, #204, #37 ) ) ;
#46 =( GEOMETRIC_REPRESENTATION_CONTEXT ( 3 ) GLOBAL_UNCERTAINTY_ASSIGNED_CONTEXT ( ( #26 ) ) GLOBAL_UNIT_ASSIGNED_CONTEXT ( ( #162, #78, #32 ) ) REPRESENTATION_CONTEXT ( 'NONE', 'WORKASPACE' ) );
#47 = PRODUCT_RELATED_PRODUCT_CATEGORY ( 'part', '', ( #110 ) ) ;
#48 = ORIENTED_EDGE ( 'NONE', *, *, #52, .T. ) ;
#49 = CARTESIAN_POINT ( 'NONE',  ( -0.1179918899999999882, 0.0000000000000000000, 1.444983904138465938E-17 ) ) ;
#50 = PLANE ( 'NONE',  #192 ) ;
#51 = ORIENTED_EDGE ( 'NONE', *, *, #158, .T. ) ;
#52 = EDGE_CURVE ( 'NONE', #35, #176, #129, .T. ) ;
#53 = ORIENTED_EDGE ( 'NONE', *, *, #158, .F. ) ;
#54 = DIRECTION ( 'NONE',  ( -1.000000000000000000, 0.0000000000000000000, 1.224646799147353454E-16 ) ) ;
#55 = CIRCLE ( 'NONE', #299, 0.1181100000000000066 ) ;
#56 = CIRCLE ( 'NONE', #290, 0.1179918899999999882 ) ;
#57 = DIRECTION ( 'NONE',  ( -0.0000000000000000000, -0.0000000000000000000, -1.000000000000000000 ) ) ;
#58 = CARTESIAN_POINT ( 'NONE',  ( 6.267877029184060992E-17, 0.0000000000000000000, 0.5118110000000000159 ) ) ;
#59 = DIRECTION ( 'NONE',  ( -1.000000000000000000, 0.0000000000000000000, 0.0000000000000000000 ) ) ;
#60 = STYLED_ITEM ( 'NONE', ( #235 ), #161 ) ;
#61 = DIRECTION ( 'NONE',  ( 1.000000000000000000, 0.0000000000000000000, 0.0000000000000000000 ) ) ;
#62 = LENGTH_MEASURE_WITH_UNIT ( LENGTH_MEASURE( 0.02539999999999999897 ), #241 );
#63 = VECTOR ( 'NONE', #298, 39.37007874015748854 ) ;
#64 = ORIENTED_EDGE ( 'NONE', *, *, #189, .T. ) ;
#65 = SURFACE_SIDE_STYLE ('',( #172 ) ) ;
#66 = EDGE_LOOP ( 'NONE', ( #151, #94, #185, #122 ) ) ;
#67 = ORIENTED_EDGE ( 'NONE', *, *, #189, .F. ) ;
#68 = DIRECTION ( 'NONE',  ( -1.224646799147353207E-16, -0.0000000000000000000, -1.000000000000000000 ) ) ;
#69 = ORIENTED_EDGE ( 'NONE', *, *, #114, .F. ) ;
#70 = CARTESIAN_POINT ( 'NONE',  ( 0.1179918899999999882, 1.444983904138465938E-17, 0.0000000000000000000 ) ) ;
#71 = VECTOR ( 'NONE', #103, 39.37007874015748143 ) ;
#72 = CARTESIAN_POINT ( 'NONE',  ( 0.0000000000000000000, 0.0000000000000000000, 2.244094000000000033 ) ) ;
#73 = PRODUCT_DEFINITION_CONTEXT ( 'detailed design', #263, 'design' ) ;
#74 = DIRECTION ( 'NONE',  ( -1.224646799147353207E-16, -0.0000000000000000000, -1.000000000000000000 ) ) ;
#75 = CARTESIAN_POINT ( 'NONE',  ( 0.1181100000000000899, 1.446430334472940009E-17, 0.5124808350957151815 ) ) ;
#76 = AXIS2_PLACEMENT_3D ( 'NONE', #285, #145, #126 ) ;
#77 = AXIS2_PLACEMENT_3D ( 'NONE', #58, #169, #59 ) ;
#78 =( NAMED_UNIT ( * ) PLANE_ANGLE_UNIT ( ) SI_UNIT ( $, .RADIAN. ) );
#79 = EDGE_LOOP ( 'NONE', ( #293, #86 ) ) ;
#80 = FACE_OUTER_BOUND ( 'NONE', #268, .T. ) ;
#81 = DIRECTION ( 'NONE',  ( 1.224646799147353207E-16, 0.0000000000000000000, 1.000000000000000000 ) ) ;
#82 = ORIENTED_EDGE ( 'NONE', *, *, #102, .T. ) ;
#83 = LINE ( 'NONE', #239, #6 ) ;
#84 = PLANE ( 'NONE',  #254 ) ;
#85 = LINE ( 'NONE', #267, #71 ) ;
#86 = ORIENTED_EDGE ( 'NONE', *, *, #114, .T. ) ;
#87 = APPLICATION_CONTEXT ( 'automotive_design' ) ;
#88 = DIRECTION ( 'NONE',  ( -0.0000000000000000000, -0.0000000000000000000, -1.000000000000000000 ) ) ;
#89 = EDGE_CURVE ( 'NONE', #109, #131, #256, .T. ) ;
#90 = DIRECTION ( 'NONE',  ( -1.224646799147353207E-16, -0.0000000000000000000, -1.000000000000000000 ) ) ;
#91 = DIMENSIONAL_EXPONENTS ( 1.000000000000000000, 0.0000000000000000000, 0.0000000000000000000, 0.0000000000000000000, 0.0000000000000000000, 0.0000000000000000000, 0.0000000000000000000 ) ;
#92 = DIRECTION ( 'NONE',  ( -0.0000000000000000000, -0.0000000000000000000, -1.000000000000000000 ) ) ;
#93 = ADVANCED_FACE ( 'NONE', ( #202 ), #50, .F. ) ;
#94 = ORIENTED_EDGE ( 'NONE', *, *, #22, .F. ) ;
#95 = VERTEX_POINT ( 'NONE', #184 ) ;
#96 = AXIS2_PLACEMENT_3D ( 'NONE', #156, #135, #232 ) ;
#97 = CARTESIAN_POINT ( 'NONE',  ( 0.0000000000000000000, 0.0000000000000000000, 0.0000000000000000000 ) ) ;
#98 = ADVANCED_FACE ( 'NONE', ( #230 ), #233, .T. ) ;
#99 = DIRECTION ( 'NONE',  ( -1.000000000000000000, 0.0000000000000000000, 0.0000000000000000000 ) ) ;
#100 = SURFACE_STYLE_USAGE ( .BOTH. , #139 ) ;
#101 = CARTESIAN_POINT ( 'NONE',  ( 0.1179918899999999882, 1.444983904138465938E-17, -1.444983904138465938E-17 ) ) ;
#102 = EDGE_CURVE ( 'NONE', #271, #35, #178, .T. ) ;
#103 = DIRECTION ( 'NONE',  ( 0.1736481776669314414, 0.0000000000000000000, 0.9848077530122077983 ) ) ;
#104 = CONICAL_SURFACE ( 'NONE', #272, 0.1031100000000002570, 0.7853981633974318477 ) ;
#105 = DIRECTION ( 'NONE',  ( 0.0000000000000000000, 0.0000000000000000000, -1.000000000000000000 ) ) ;
#106 = CARTESIAN_POINT ( 'NONE',  ( 6.267877029184060992E-17, 0.0000000000000000000, 0.5118110000000000159 ) ) ;
#107 = ORIENTED_EDGE ( 'NONE', *, *, #212, .T. ) ;
#108 =( NAMED_UNIT ( * ) PLANE_ANGLE_UNIT ( ) SI_UNIT ( $, .RADIAN. ) );
#109 = VERTEX_POINT ( 'NONE', #276 ) ;
#110 = PRODUCT ( 'Micro_GEMM-060-4X', 'Micro_GEMM-060-4X', '', ( #18 ) ) ;
#111 = VERTEX_POINT ( 'NONE', #70 ) ;
#112 = PRESENTATION_LAYER_ASSIGNMENT (  '', '', ( #200 ) ) ;
#113 = AXIS2_PLACEMENT_3D ( 'NONE', #257, #279, #54 ) ;
#114 = EDGE_CURVE ( 'NONE', #171, #251, #134, .T. ) ;
#115 = EDGE_LOOP ( 'NONE', ( #249, #51 ) ) ;
#116 = EDGE_CURVE ( 'NONE', #171, #167, #27, .T. ) ;
#117 = CARTESIAN_POINT ( 'NONE',  ( 0.0000000000000000000, 0.0000000000000000000, 0.0000000000000000000 ) ) ;
#118 = UNCERTAINTY_MEASURE_WITH_UNIT (LENGTH_MEASURE( 1.000000000000000082E-05 ), #289, 'distance_accuracy_value', 'NONE');
#119 = EDGE_CURVE ( 'NONE', #95, #109, #56, .T. ) ;
#120 = SURFACE_STYLE_FILL_AREA ( #3 ) ;
#121 = LINE ( 'NONE', #7, #295 ) ;
#122 = ORIENTED_EDGE ( 'NONE', *, *, #238, .F. ) ;
#123 = AXIS2_PLACEMENT_3D ( 'NONE', #106, #173, #287 ) ;
#124 = AXIS2_PLACEMENT_3D ( 'NONE', #255, #68, #252 ) ;
#125 = CARTESIAN_POINT ( 'NONE',  ( 0.1181100000000000066, 1.446430334472939084E-17, 2.229093999999999465 ) ) ;
#126 = DIRECTION ( 'NONE',  ( -1.000000000000000000, 0.0000000000000000000, 1.224646799147353454E-16 ) ) ;
#127 = CARTESIAN_POINT ( 'NONE',  ( 0.0000000000000000000, 0.0000000000000000000, 2.244094000000000033 ) ) ;
#128 = EDGE_LOOP ( 'NONE', ( #199, #275, #214, #270 ) ) ;
#129 = CIRCLE ( 'NONE', #124, 0.1181100000000000066 ) ;
#130 = DIRECTION ( 'NONE',  ( -1.000000000000000000, 0.0000000000000000000, 0.0000000000000000000 ) ) ;
#131 = VERTEX_POINT ( 'NONE', #234 ) ;
#132 = EDGE_CURVE ( 'NONE', #251, #271, #143, .T. ) ;
#133 = ORIENTED_EDGE ( 'NONE', *, *, #89, .F. ) ;
#134 = CIRCLE ( 'NONE', #96, 0.1031100000000002570 ) ;
#135 = DIRECTION ( 'NONE',  ( 0.0000000000000000000, 0.0000000000000000000, 1.000000000000000000 ) ) ;
#136 = DIRECTION ( 'NONE',  ( 0.0000000000000000000, 0.0000000000000000000, 1.000000000000000000 ) ) ;
#137 = CIRCLE ( 'NONE', #193, 0.1181100000000000066 ) ;
#138 = AXIS2_PLACEMENT_3D ( 'NONE', #72, #153, #154 ) ;
#139 = SURFACE_SIDE_STYLE ('',( #120 ) ) ;
#140 = DIRECTION ( 'NONE',  ( -1.000000000000000000, 0.0000000000000000000, 1.224646799147353454E-16 ) ) ;
#141 = ORIENTED_EDGE ( 'NONE', *, *, #89, .T. ) ;
#142 = FACE_OUTER_BOUND ( 'NONE', #128, .T. ) ;
#143 = LINE ( 'NONE', #210, #1 ) ;
#144 = ADVANCED_FACE ( 'NONE', ( #80 ), #195, .T. ) ;
#145 = DIRECTION ( 'NONE',  ( -1.224646799147353207E-16, -0.0000000000000000000, -1.000000000000000000 ) ) ;
#146 = CARTESIAN_POINT ( 'NONE',  ( 0.0000000000000000000, 0.0000000000000000000, 2.244094000000000033 ) ) ;
#147 = AXIS2_PLACEMENT_3D ( 'NONE', #294, #90, #274 ) ;
#148 = MECHANICAL_DESIGN_GEOMETRIC_PRESENTATION_REPRESENTATION (  '', ( #200 ), #244 ) ;
#149 = CARTESIAN_POINT ( 'NONE',  ( -0.1031100000000002570, 0.0000000000000000000, 2.244094000000000033 ) ) ;
#150 = ORIENTED_EDGE ( 'NONE', *, *, #11, .F. ) ;
#151 = ORIENTED_EDGE ( 'NONE', *, *, #116, .F. ) ;
#152 = CARTESIAN_POINT ( 'NONE',  ( 0.0000000000000000000, 0.0000000000000000000, 0.0000000000000000000 ) ) ;
#153 = DIRECTION ( 'NONE',  ( 0.0000000000000000000, 0.0000000000000000000, 1.000000000000000000 ) ) ;
#154 = DIRECTION ( 'NONE',  ( 1.000000000000000000, 0.0000000000000000000, 0.0000000000000000000 ) ) ;
#155 = DIRECTION ( 'NONE',  ( 1.000000000000000000, 0.0000000000000000000, 0.0000000000000000000 ) ) ;
#156 = CARTESIAN_POINT ( 'NONE',  ( 0.0000000000000000000, 0.0000000000000000000, 2.244094000000000033 ) ) ;
#157 = AXIS2_PLACEMENT_3D ( 'NONE', #236, #81, #61 ) ;
#158 = EDGE_CURVE ( 'NONE', #111, #131, #14, .T. ) ;
#159 = AXIS2_PLACEMENT_3D ( 'NONE', #30, #57, #31 ) ;
#160 = EDGE_LOOP ( 'NONE', ( #107, #253, #250, #133 ) ) ;
#161 = MANIFOLD_SOLID_BREP ( 'Cut-Revolve1', #217 ) ;
#162 =( CONVERSION_BASED_UNIT ( 'INCH', #2 ) LENGTH_UNIT ( ) NAMED_UNIT ( #29 ) );
#163 = DIRECTION ( 'NONE',  ( -1.000000000000000000, 0.0000000000000000000, 0.0000000000000000000 ) ) ;
#164 = VECTOR ( 'NONE', #283, 39.37007874015748143 ) ;
#165 = AXIS2_PLACEMENT_3D ( 'NONE', #97, #34, #190 ) ;
#166 = DIRECTION ( 'NONE',  ( 0.0000000000000000000, 0.0000000000000000000, -1.000000000000000000 ) ) ;
#167 = VERTEX_POINT ( 'NONE', #125 ) ;
#168 = CARTESIAN_POINT ( 'NONE',  ( 1.769594913022618037E-33, 0.0000000000000000000, 1.444983904138465938E-17 ) ) ;
#169 = DIRECTION ( 'NONE',  ( -1.224646799147353207E-16, -0.0000000000000000000, -1.000000000000000000 ) ) ;
#170 = ADVANCED_FACE ( 'NONE', ( #33 ), #5, .T. ) ;
#171 = VERTEX_POINT ( 'NONE', #280 ) ;
#172 = SURFACE_STYLE_FILL_AREA ( #269 ) ;
#173 = DIRECTION ( 'NONE',  ( 1.224646799147353207E-16, 0.0000000000000000000, 1.000000000000000000 ) ) ;
#174 = CONICAL_SURFACE ( 'NONE', #123, 0.1179918899999999882, 0.1745329251994339470 ) ;
#175 = FACE_OUTER_BOUND ( 'NONE', #66, .T. ) ;
#176 = VERTEX_POINT ( 'NONE', #75 ) ;
#177 = SHAPE_DEFINITION_REPRESENTATION ( #25, #28 ) ;
#178 = LINE ( 'NONE', #296, #237 ) ;
#179 = ORIENTED_EDGE ( 'NONE', *, *, #212, .F. ) ;
#180 = COLOUR_RGB ( '',0.7921568627450980005, 0.8196078431372548767, 0.9333333333333333481 ) ;
#181 = ADVANCED_FACE ( 'NONE', ( #213 ), #42, .T. ) ;
#182 = ORIENTED_EDGE ( 'NONE', *, *, #116, .T. ) ;
#183 =( CONVERSION_BASED_UNIT ( 'INCH', #227 ) LENGTH_UNIT ( ) NAMED_UNIT ( #91 ) );
#184 = CARTESIAN_POINT ( 'NONE',  ( 0.1179918900000000576, 0.0000000000000000000, 0.5118110000000000159 ) ) ;
#185 = ORIENTED_EDGE ( 'NONE', *, *, #132, .T. ) ;
#186 = AXIS2_PLACEMENT_3D ( 'NONE', #152, #20, #155 ) ;
#187 = UNCERTAINTY_MEASURE_WITH_UNIT (LENGTH_MEASURE( 1.000000000000000082E-05 ), #183, 'distance_accuracy_value', 'NONE');
#188 = DIRECTION ( 'NONE',  ( -1.224646799147353207E-16, -0.0000000000000000000, -1.000000000000000000 ) ) ;
#189 = EDGE_CURVE ( 'NONE', #167, #176, #121, .T. ) ;
#190 = DIRECTION ( 'NONE',  ( -1.000000000000000000, 0.0000000000000000000, 1.224646799147353454E-16 ) ) ;
#191 = ORIENTED_EDGE ( 'NONE', *, *, #238, .T. ) ;
#192 = AXIS2_PLACEMENT_3D ( 'NONE', #117, #136, #228 ) ;
#193 = AXIS2_PLACEMENT_3D ( 'NONE', #197, #201, #43 ) ;
#194 = CARTESIAN_POINT ( 'NONE',  ( 6.267877029184060992E-17, 0.0000000000000000000, 0.5118110000000000159 ) ) ;
#195 = CYLINDRICAL_SURFACE ( 'NONE', #159, 0.1181100000000000066 ) ;
#196 = PRESENTATION_STYLE_ASSIGNMENT (( #10 ) ) ;
#197 = CARTESIAN_POINT ( 'NONE',  ( 0.0000000000000000000, 0.0000000000000000000, 2.229093999999999465 ) ) ;
#198 = FILL_AREA_STYLE_COLOUR ( '', #13 ) ;
#199 = ORIENTED_EDGE ( 'NONE', *, *, #242, .F. ) ;
#200 = STYLED_ITEM ( 'NONE', ( #196 ), #28 ) ;
#201 = DIRECTION ( 'NONE',  ( 0.0000000000000000000, 0.0000000000000000000, -1.000000000000000000 ) ) ;
#202 = FACE_OUTER_BOUND ( 'NONE', #115, .T. ) ;
#203 = APPLICATION_PROTOCOL_DEFINITION ( 'draft international standard', 'automotive_design', 1998, #263 ) ;
#204 = ORIENTED_EDGE ( 'NONE', *, *, #52, .F. ) ;
#205 = CIRCLE ( 'NONE', #77, 0.1179918899999999882 ) ;
#206 = ORIENTED_EDGE ( 'NONE', *, *, #132, .F. ) ;
#207 = CARTESIAN_POINT ( 'NONE',  ( -0.1181099999999999373, 0.0000000000000000000, 0.5124808350957151815 ) ) ;
#208 = CARTESIAN_POINT ( 'NONE',  ( 0.1031100000000002570, 1.262733314600838667E-17, 2.244094000000000033 ) ) ;
#209 = CIRCLE ( 'NONE', #138, 0.1031100000000002570 ) ;
#210 = CARTESIAN_POINT ( 'NONE',  ( -0.1031100000000002570, 0.0000000000000000000, 2.244094000000000033 ) ) ;
#211 = EDGE_CURVE ( 'NONE', #95, #111, #9, .T. ) ;
#212 = EDGE_CURVE ( 'NONE', #109, #95, #205, .T. ) ;
#213 = FACE_OUTER_BOUND ( 'NONE', #277, .T. ) ;
#214 = ORIENTED_EDGE ( 'NONE', *, *, #243, .T. ) ;
#215 = EDGE_CURVE ( 'NONE', #131, #111, #245, .T. ) ;
#216 =( LENGTH_UNIT ( ) NAMED_UNIT ( * ) SI_UNIT ( $, .METRE. ) );
#217 = CLOSED_SHELL ( 'NONE', ( #170, #265, #181, #98, #144, #292, #222, #218, #278, #93 ) ) ;
#218 = ADVANCED_FACE ( 'NONE', ( #142 ), #40, .T. ) ;
#219 =( GEOMETRIC_REPRESENTATION_CONTEXT ( 3 ) GLOBAL_UNCERTAINTY_ASSIGNED_CONTEXT ( ( #118 ) ) GLOBAL_UNIT_ASSIGNED_CONTEXT ( ( #289, #16, #221 ) ) REPRESENTATION_CONTEXT ( 'NONE', 'WORKASPACE' ) );
#220 = PRESENTATION_LAYER_ASSIGNMENT (  '', '', ( #60 ) ) ;
#221 =( NAMED_UNIT ( * ) SI_UNIT ( $, .STERADIAN. ) SOLID_ANGLE_UNIT ( ) );
#222 = ADVANCED_FACE ( 'NONE', ( #175 ), #104, .T. ) ;
#223 = DIRECTION ( 'NONE',  ( -0.1736481776669312194, 2.126576849575783625E-17, 0.9848077530122077983 ) ) ;
#224 = EDGE_CURVE ( 'NONE', #271, #167, #137, .T. ) ;
#225 = MECHANICAL_DESIGN_GEOMETRIC_PRESENTATION_REPRESENTATION (  '', ( #60 ), #46 ) ;
#226 = ORIENTED_EDGE ( 'NONE', *, *, #242, .T. ) ;
#227 = LENGTH_MEASURE_WITH_UNIT ( LENGTH_MEASURE( 0.02539999999999999897 ), #261 );
#228 = DIRECTION ( 'NONE',  ( 1.000000000000000000, 0.0000000000000000000, -0.0000000000000000000 ) ) ;
#229 = CIRCLE ( 'NONE', #147, 0.1181100000000000066 ) ;
#230 = FACE_OUTER_BOUND ( 'NONE', #45, .T. ) ;
#231 = EDGE_LOOP ( 'NONE', ( #17, #297, #141, #53 ) ) ;
#232 = DIRECTION ( 'NONE',  ( 1.000000000000000000, 0.0000000000000000000, 0.0000000000000000000 ) ) ;
#233 = CYLINDRICAL_SURFACE ( 'NONE', #259, 0.1181100000000000066 ) ;
#234 = CARTESIAN_POINT ( 'NONE',  ( -0.1179918899999999882, 0.0000000000000000000, 2.889967808276931875E-17 ) ) ;
#235 = PRESENTATION_STYLE_ASSIGNMENT (( #100 ) ) ;
#236 = CARTESIAN_POINT ( 'NONE',  ( 6.267877029184060992E-17, 0.0000000000000000000, 0.5118110000000000159 ) ) ;
#237 = VECTOR ( 'NONE', #92, 39.37007874015748143 ) ;
#238 = EDGE_CURVE ( 'NONE', #167, #271, #55, .T. ) ;
#239 = CARTESIAN_POINT ( 'NONE',  ( -0.1179918899999999188, 1.444983904138465938E-17, 0.5118110000000000159 ) ) ;
#240 = ORIENTED_EDGE ( 'NONE', *, *, #224, .T. ) ;
#241 =( LENGTH_UNIT ( ) NAMED_UNIT ( * ) SI_UNIT ( $, .METRE. ) );
#242 = EDGE_CURVE ( 'NONE', #109, #35, #83, .T. ) ;
#243 = EDGE_CURVE ( 'NONE', #95, #176, #85, .T. ) ;
#244 =( GEOMETRIC_REPRESENTATION_CONTEXT ( 3 ) GLOBAL_UNCERTAINTY_ASSIGNED_CONTEXT ( ( #187 ) ) GLOBAL_UNIT_ASSIGNED_CONTEXT ( ( #183, #108, #273 ) ) REPRESENTATION_CONTEXT ( 'NONE', 'WORKASPACE' ) );
#245 = CIRCLE ( 'NONE', #113, 0.1179918899999999882 ) ;
#246 = PRODUCT_DEFINITION_FORMATION_WITH_SPECIFIED_SOURCE ( 'ANY', '', #110, .NOT_KNOWN. ) ;
#247 = APPLICATION_PROTOCOL_DEFINITION ( 'draft international standard', 'automotive_design', 1998, #87 ) ;
#248 = CARTESIAN_POINT ( 'NONE',  ( -0.1181100000000000066, 0.0000000000000000000, 2.229093999999999465 ) ) ;
#249 = ORIENTED_EDGE ( 'NONE', *, *, #215, .T. ) ;
#250 = ORIENTED_EDGE ( 'NONE', *, *, #215, .F. ) ;
#251 = VERTEX_POINT ( 'NONE', #149 ) ;
#252 = DIRECTION ( 'NONE',  ( 1.000000000000000000, 0.0000000000000000000, 0.0000000000000000000 ) ) ;
#253 = ORIENTED_EDGE ( 'NONE', *, *, #211, .T. ) ;
#254 = AXIS2_PLACEMENT_3D ( 'NONE', #127, #264, #291 ) ;
#255 = CARTESIAN_POINT ( 'NONE',  ( 6.276080143243302007E-17, 0.0000000000000000000, 0.5124808350957151815 ) ) ;
#256 = LINE ( 'NONE', #49, #23 ) ;
#257 = CARTESIAN_POINT ( 'NONE',  ( 1.769594913022618037E-33, 0.0000000000000000000, 1.444983904138465938E-17 ) ) ;
#258 = FILL_AREA_STYLE_COLOUR ( '', #180 ) ;
#259 = AXIS2_PLACEMENT_3D ( 'NONE', #21, #88, #130 ) ;
#260 = DIRECTION ( 'NONE',  ( -0.0000000000000000000, -0.0000000000000000000, -1.000000000000000000 ) ) ;
#261 =( LENGTH_UNIT ( ) NAMED_UNIT ( * ) SI_UNIT ( $, .METRE. ) );
#262 = FACE_OUTER_BOUND ( 'NONE', #79, .T. ) ;
#263 = APPLICATION_CONTEXT ( 'automotive_design' ) ;
#264 = DIRECTION ( 'NONE',  ( 0.0000000000000000000, 0.0000000000000000000, 1.000000000000000000 ) ) ;
#265 = ADVANCED_FACE ( 'NONE', ( #15 ), #174, .T. ) ;
#266 = AXIS2_PLACEMENT_3D ( 'NONE', #281, #166, #163 ) ;
#267 = CARTESIAN_POINT ( 'NONE',  ( 0.1179918900000000576, 0.0000000000000000000, 0.5118110000000000159 ) ) ;
#268 = EDGE_LOOP ( 'NONE', ( #67, #191, #82, #150 ) ) ;
#269 = FILL_AREA_STYLE ('',( #198 ) ) ;
#270 = ORIENTED_EDGE ( 'NONE', *, *, #11, .T. ) ;
#271 = VERTEX_POINT ( 'NONE', #248 ) ;
#272 = AXIS2_PLACEMENT_3D ( 'NONE', #146, #105, #44 ) ;
#273 =( NAMED_UNIT ( * ) SI_UNIT ( $, .STERADIAN. ) SOLID_ANGLE_UNIT ( ) );
#274 = DIRECTION ( 'NONE',  ( 1.000000000000000000, 0.0000000000000000000, 0.0000000000000000000 ) ) ;
#275 = ORIENTED_EDGE ( 'NONE', *, *, #119, .F. ) ;
#276 = CARTESIAN_POINT ( 'NONE',  ( -0.1179918899999999188, 1.445707119305702357E-17, 0.5118110000000000159 ) ) ;
#277 = EDGE_LOOP ( 'NONE', ( #69, #182, #282, #206 ) ) ;
#278 = ADVANCED_FACE ( 'NONE', ( #288 ), #12, .T. ) ;
#279 = DIRECTION ( 'NONE',  ( -1.224646799147353207E-16, -0.0000000000000000000, -1.000000000000000000 ) ) ;
#280 = CARTESIAN_POINT ( 'NONE',  ( 0.1031100000000002570, 1.354581824536888722E-17, 2.244094000000000033 ) ) ;
#281 = CARTESIAN_POINT ( 'NONE',  ( 0.0000000000000000000, 0.0000000000000000000, 2.244094000000000033 ) ) ;
#282 = ORIENTED_EDGE ( 'NONE', *, *, #224, .F. ) ;
#283 = DIRECTION ( 'NONE',  ( -1.224646799147353207E-16, -0.0000000000000000000, -1.000000000000000000 ) ) ;
#284 = DIRECTION ( 'NONE',  ( -0.7071067811865358044, 0.0000000000000000000, -0.7071067811865590080 ) ) ;
#285 = CARTESIAN_POINT ( 'NONE',  ( 0.0000000000000000000, 0.0000000000000000000, 0.0000000000000000000 ) ) ;
#286 = PRODUCT_DEFINITION ( 'UNKNOWN', '', #246, #73 ) ;
#287 = DIRECTION ( 'NONE',  ( 1.000000000000000000, 0.0000000000000000000, 0.0000000000000000000 ) ) ;
#288 = FACE_OUTER_BOUND ( 'NONE', #231, .T. ) ;
#289 =( CONVERSION_BASED_UNIT ( 'INCH', #62 ) LENGTH_UNIT ( ) NAMED_UNIT ( #4 ) );
#290 = AXIS2_PLACEMENT_3D ( 'NONE', #194, #188, #99 ) ;
#291 = DIRECTION ( 'NONE',  ( 1.000000000000000000, 0.0000000000000000000, -0.0000000000000000000 ) ) ;
#292 = ADVANCED_FACE ( 'NONE', ( #262 ), #84, .T. ) ;
#293 = ORIENTED_EDGE ( 'NONE', *, *, #22, .T. ) ;
#294 = CARTESIAN_POINT ( 'NONE',  ( 6.276080143243302007E-17, 0.0000000000000000000, 0.5124808350957151815 ) ) ;
#295 = VECTOR ( 'NONE', #260, 39.37007874015748143 ) ;
#296 = CARTESIAN_POINT ( 'NONE',  ( -0.1181100000000000066, 0.0000000000000000000, 2.244094000000000033 ) ) ;
#297 = ORIENTED_EDGE ( 'NONE', *, *, #119, .T. ) ;
#298 = DIRECTION ( 'NONE',  ( 0.7071067811865358044, 8.659560562354788645E-17, -0.7071067811865590080 ) ) ;
#299 = AXIS2_PLACEMENT_3D ( 'NONE', #36, #39, #38 ) ;
ENDSEC;
END-ISO-10303-21;
